  0
SECTION
  2
HEADER
  9
$ACADVER
  1
AC1012
  9
$DWGCODEPAGE
  3
dos932
  9
$INSBASE
 10
0.0
 20
0.0
 30
0.0
  9
$EXTMIN
 10
-156.989284
 20
-133.18799
 30
0.0
  9
$EXTMAX
 10
204.124812
 20
131.22966
 30
0.0
  9
$LIMMIN
 10
-200.0
 20
-148.5
  9
$LIMMAX
 10
210.0
 20
138.5
  9
$ORTHOMODE
 70
     0
  9
$REGENMODE
 70
     1
  9
$FILLMODE
 70
     1
  9
$QTEXTMODE
 70
     0
  9
$MIRRTEXT
 70
     1
  9
$DRAGMODE
 70
     2
  9
$LTSCALE
 40
1.0
  9
$OSMODE
 70
     0
  9
$ATTMODE
 70
     1
  9
$TEXTSIZE
 40
3.2
  9
$TRACEWID
 40
0.05
  9
$TEXTSTYLE
  7
STANDARD
  9
$CLAYER
  8
0
  9
$CELTYPE
  6
CONTINUOUS
  9
$CECOLOR
 62
   256
  9
$CELTSCALE
 40
1.0
  9
$DELOBJ
 70
     1
  9
$DISPSILH
 70
     0
  9
$DIMSCALE
 40
1.0
  9
$DIMASZ
 40
1.0
  9
$DIMEXO
 40
2.54
  9
$DIMDLI
 40
0.38
  9
$DIMRND
 40
0.0
  9
$DIMDLE
 40
0.0
  9
$DIMEXE
 40
2.54
  9
$DIMTP
 40
0.0
  9
$DIMTM
 40
0.0
  9
$DIMTXT
 40
3.2
  9
$DIMCEN
 40
0.09
  9
$DIMTSZ
 40
0.0
  9
$DIMTOL
 70
     0
  9
$DIMLIM
 70
     0
  9
$DIMTIH
 70
     0
  9
$DIMTOH
 70
     0
  9
$DIMSE1
 70
     0
  9
$DIMSE2
 70
     0
  9
$DIMTAD
 70
     1
  9
$DIMZIN
 70
     0
  9
$DIMBLK
  1

  9
$DIMASO
 70
     1
  9
$DIMSHO
 70
     0
  9
$DIMPOST
  1

  9
$DIMAPOST
  1

  9
$DIMALT
 70
     0
  9
$DIMALTD
 70
     2
  9
$DIMALTF
 40
25.4
  9
$DIMLFAC
 40
1.0
  9
$DIMTOFL
 70
     0
  9
$DIMTVP
 40
1.0
  9
$DIMTIX
 70
     0
  9
$DIMSOXD
 70
     0
  9
$DIMSAH
 70
     1
  9
$DIMBLK1
  1

  9
$DIMBLK2
  1

  9
$DIMSTYLE
  2
DIMSTYLE1
  9
$DIMCLRD
 70
     0
  9
$DIMCLRE
 70
     0
  9
$DIMCLRT
 70
     0
  9
$DIMTFAC
 40
1.0
  9
$DIMGAP
 40
1.6
  9
$DIMJUST
 70
     0
  9
$DIMSD1
 70
     0
  9
$DIMSD2
 70
     0
  9
$DIMTOLJ
 70
     1
  9
$DIMTZIN
 70
     0
  9
$DIMALTZ
 70
     0
  9
$DIMALTTZ
 70
     0
  9
$DIMFIT
 70
     3
  9
$DIMUPT
 70
     0
  9
$DIMUNIT
 70
     2
  9
$DIMDEC
 70
     4
  9
$DIMTDEC
 70
     4
  9
$DIMALTU
 70
     2
  9
$DIMALTTD
 70
     2
  9
$DIMTXSTY
  7
STANDARD
  9
$DIMAUNIT
 70
     0
  9
$LUNITS
 70
     2
  9
$LUPREC
 70
     4
  9
$SKETCHINC
 40
0.1
  9
$FILLETRAD
 40
0.0
  9
$AUNITS
 70
     0
  9
$AUPREC
 70
     0
  9
$MENU
  1
acad
  9
$ELEVATION
 40
0.0
  9
$PELEVATION
 40
0.0
  9
$THICKNESS
 40
0.0
  9
$LIMCHECK
 70
     0
  9
$BLIPMODE
 70
     1
  9
$CHAMFERA
 40
0.0
  9
$CHAMFERB
 40
0.0
  9
$CHAMFERC
 40
0.0
  9
$CHAMFERD
 40
0.0
  9
$SKPOLY
 70
     0
  9
$TDCREATE
 40
0.0000000000
  9
$TDUPDATE
 40
0.0000000000
  9
$TDINDWG
 40
0.0000000000
  9
$TDUSRTIMER
 40
0.0000000000
  9
$USRTIMER
 70
     1
  9
$ANGBASE
 50
0.0
  9
$ANGDIR
 70
     0
  9
$PDMODE
 70
     0
  9
$PDSIZE
 40
0.0
  9
$PLINEWID
 40
0.0
  9
$COORDS
 70
     1
  9
$SPLFRAME
 70
     0
  9
$SPLINETYPE
 70
     6
  9
$SPLINESEGS
 70
     8
  9
$ATTDIA
 70
     0
  9
$ATTREQ
 70
     1
  9
$HANDLING
 70
     1
  9
$HANDSEED
  5
6E6
  9
$SURFTAB1
 70
     6
  9
$SURFTAB2
 70
     6
  9
$SURFTYPE
 70
     6
  9
$SURFU
 70
     6
  9
$SURFV
 70
     6
  9
$UCSNAME
  2

  9
$UCSORG
 10
0.0
 20
0.0
 30
0.0
  9
$UCSXDIR
 10
1.0
 20
0.0
 30
0.0
  9
$UCSYDIR
 10
0.0
 20
1.0
 30
0.0
  9
$PUCSNAME
  2

  9
$PUCSORG
 10
0.0
 20
0.0
 30
0.0
  9
$PUCSXDIR
 10
1.0
 20
0.0
 30
0.0
  9
$PUCSYDIR
 10
0.0
 20
1.0
 30
0.0
  9
$USERI1
 70
     0
  9
$USERI2
 70
     0
  9
$USERI3
 70
     0
  9
$USERI4
 70
     0
  9
$USERI5
 70
     0
  9
$USERR1
 40
0.0
  9
$USERR2
 40
0.0
  9
$USERR3
 40
0.0
  9
$USERR4
 40
0.0
  9
$USERR5
 40
0.0
  9
$WORLDVIEW
 70
     1
  9
$SHADEDGE
 70
     3
  9
$SHADEDIF
 70
    70
  9
$TILEMODE
 70
     1
  9
$MAXACTVP
 70
    16
  9
$PINSBASE
 10
0.0
 20
0.0
 30
0.0
  9
$PLIMCHECK
 70
     0
  9
$PEXTMIN
 10
1.000000E+20
 20
1.000000E+20
 30
1.000000E+20
  9
$PEXTMAX
 10
-1.000000E+20
 20
-1.000000E+20
 30
-1.000000E+20
  9
$PLIMMIN
 10
-200.0
 20
-148.5
  9
$PLIMMAX
 10
210.0
 20
138.5
  9
$UNITMODE
 70
     0
  9
$VISRETAIN
 70
     0
  9
$PLINEGEN
 70
     0
  9
$PSLTSCALE
 70
     1
  9
$TREEDEPTH
 70
  3020
  9
$PICKSTYLE
 70
     1
  9
$CMLSTYLE
  2
STANDARD
  9
$CMLJUST
 70
     0
  9
$CMLSCALE
 40
1.0
  9
$SAVEIMAGES
 70
     0
  0
ENDSEC
  0
SECTION
  2
CLASSES
  0
ENDSEC
  0
SECTION
  2
TABLES
  0
TABLE
  2
VPORT
  5
8
100
AcDbSymbolTable
 70
     2
  0
VPORT
  5
6E5
100
AcDbSymbolTableRecord
100
AcDbViewportTableRecord
  2
*ACTIVE
 70
     0
 10
0.0
 20
0.0
 11
1.0
 21
1.0
 12
5.0
 22
9.940678
 13
0.0
 23
0.0
 14
1.0
 24
1.0
 15
0.0
 25
0.0
 16
0.0
 26
0.0
 36
1.0
 17
0.0
 27
0.0
 37
0.0
 40
175.118644
 41
1.193122
 42
50.0
 43
0.0
 44
0.0
 50
0.0
 51
0.0
 71
     0
 72
   100
 73
     1
 74
     1
 75
     0
 76
     0
 77
     0
 78
     0
  0
ENDTAB
  0
TABLE
  2
LTYPE
  5
5
100
AcDbSymbolTable
 70
     6
  0
LTYPE
  5
13
100
AcDbSymbolTableRecord
100
AcDbLinetypeTableRecord
  2
BYBLOCK
 70
     0
  3

 72
    65
 73
     0
 40
0.0
  0
LTYPE
  5
14
100
AcDbSymbolTableRecord
100
AcDbLinetypeTableRecord
  2
BYLAYER
 70
     0
  3

 72
    65
 73
     0
 40
0.0
  0
LTYPE
  5
15
100
AcDbSymbolTableRecord
100
AcDbLinetypeTableRecord
  2
CONTINUOUS
 70
    64
  3
Solid line
 72
    65
 73
     0
 40
0.0
  0
LTYPE
  5
1E
100
AcDbSymbolTableRecord
100
AcDbLinetypeTableRecord
  2
DASHED
 70
    64
  3
__ __ __ __ __ __ __ __ __ __ __ __ __ __ __
 72
    65
 73
     2
 40
3.5
 49
2.0
 74
     0
 49
-1.5
 74
     0
  0
LTYPE
  5
1F
100
AcDbSymbolTableRecord
100
AcDbLinetypeTableRecord
  2
CENTER
 70
    64
  3
____ _ ____ _ ____ _ ____ _ ____ _ ____ _ ____
 72
    65
 73
     4
 40
17.5
 49
13.0
 74
     0
 49
-1.5
 74
     0
 49
1.5
 74
     0
 49
-1.5
 74
     0
  0
LTYPE
  5
20
100
AcDbSymbolTableRecord
100
AcDbLinetypeTableRecord
  2
PHANTOM
 70
    64
  3
_____ _ _ _____ _ _ _____ _ _ _____ _ _ ____  
 72
    65
 73
     6
 40
15.5
 49
8.0
 74
     0
 49
-1.5
 74
     0
 49
1.5
 74
     0
 49
-1.5
 74
     0
 49
1.5
 74
     0
 49
-1.5
 74
     0
  0
LTYPE
  5
21
100
AcDbSymbolTableRecord
100
AcDbLinetypeTableRecord
  2
DOT
 70
    64
  3
. . . . . . . . . . . . . . . . . . . . . . . .
 72
    65
 73
     2
 40
0.25
 49
0.0
 74
     0
 49
-0.25
 74
     0
  0
LTYPE
  5
22
100
AcDbSymbolTableRecord
100
AcDbLinetypeTableRecord
  2
HIDDEN
 70
    64
  3
__ __ __ __ __ __ __ __ __ __ __ __ __ __ __
 72
    65
 73
     2
 40
3.5
 49
2.0
 74
     0
 49
-1.5
 74
     0
  0
ENDTAB
  0
TABLE
  2
LAYER
  5
2
100
AcDbSymbolTable
 70
     2
  0
LAYER
  5
F
100
AcDbSymbolTableRecord
100
AcDbLayerTableRecord
  2
0
 70
     0
 62
     7
  6
CONTINUOUS
  0
LAYER
  5
23
100
AcDbSymbolTableRecord
100
AcDbLayerTableRecord
  2
DEFPOINTS
 70
     0
 62
     7
  6
CONTINUOUS
  0
ENDTAB
  0
TABLE
  2
STYLE
  5
3
100
AcDbSymbolTable
 70
     1
  0
STYLE
  5
10
100
AcDbSymbolTableRecord
100
AcDbTextStyleTableRecord
  2
STANDARD
 70
     0
 40
0.0
 41
1.0
 50
0.0
 71
     0
 42
0.2
  3
txt
  4
BIGFONT
  0
ENDTAB
  0
TABLE
  2
VIEW
  5
6
100
AcDbSymbolTable
 70
     0
  0
ENDTAB
  0
TABLE
  2
UCS
  5
7
100
AcDbSymbolTable
 70
     0
  0
ENDTAB
  0
TABLE
  2
APPID
  5
9
100
AcDbSymbolTable
 70
     1
  0
APPID
  5
11
100
AcDbSymbolTableRecord
100
AcDbRegAppTableRecord
  2
ACAD
 70
     0
  0
ENDTAB
  0
TABLE
  2
DIMSTYLE
  5
A
100
AcDbSymbolTable
 70
     6
  0
DIMSTYLE
105
24
100
AcDbSymbolTableRecord
100
AcDbDimStyleTableRecord
  2
DIMSTYLE1
 70
     0
  3

  4

  5

  6
_OPEN30
  7
_OPEN30
 40
1.0
 41
1.0
 42
2.54
 43
0.38
 44
2.54
 45
0.0
 46
0.0
 47
0.0
 48
0.0
140
3.2
141
0.09
142
0.0
143
25.4
144
1.0
145
1.0
146
1.0
147
1.6
 71
     0
 72
     0
 73
     0
 74
     0
 75
     0
 76
     0
 77
     1
 78
     0
170
     0
171
     2
172
     1
173
     1
174
     0
175
     0
176
     0
177
     0
178
     0
270
     2
271
     4
272
     4
273
     2
274
     2
340
10
275
     0
280
     0
281
     0
282
     0
283
     1
284
     0
285
     0
286
     0
287
     3
288
     0
  0
DIMSTYLE
105
25
100
AcDbSymbolTableRecord
100
AcDbDimStyleTableRecord
  2
DIMSTYLE2
 70
     0
  3

  4

  5

  6
_OPEN30
  7
_OPEN30
 40
1.0
 41
1.0
 42
2.54
 43
0.38
 44
2.54
 45
0.0
 46
0.0
 47
0.0
 48
0.0
140
3.2
141
0.09
142
0.0
143
25.4
144
1.0
145
1.0
146
1.0
147
1.6
 71
     0
 72
     0
 73
     0
 74
     0
 75
     0
 76
     0
 77
     1
 78
     0
170
     0
171
     2
172
     1
173
     1
174
     0
175
     0
176
     0
177
     0
178
     0
270
     2
271
     4
272
     4
273
     2
274
     2
340
10
275
     0
280
     0
281
     0
282
     0
283
     1
284
     0
285
     0
286
     0
287
     3
288
     0
  0
DIMSTYLE
105
26
100
AcDbSymbolTableRecord
100
AcDbDimStyleTableRecord
  2
DIMSTYLE3
 70
     0
  3

  4

  5

  6
_OPEN30
  7
_OPEN30
 40
1.0
 41
1.0
 42
2.54
 43
0.38
 44
2.54
 45
0.0
 46
0.0
 47
0.0
 48
0.0
140
3.2
141
0.09
142
0.0
143
25.4
144
1.0
145
1.0
146
1.0
147
1.6
 71
     0
 72
     0
 73
     0
 74
     0
 75
     0
 76
     0
 77
     1
 78
     0
170
     0
171
     2
172
     1
173
     1
174
     0
175
     0
176
     0
177
     0
178
     0
270
     2
271
     4
272
     4
273
     2
274
     2
340
10
275
     0
280
     0
281
     0
282
     0
283
     1
284
     0
285
     0
286
     0
287
     3
288
     0
  0
DIMSTYLE
105
27
100
AcDbSymbolTableRecord
100
AcDbDimStyleTableRecord
  2
DIMSTYLE4
 70
     0
  3

  4

  5

  6
_OPEN30
  7
_OPEN30
 40
1.0
 41
1.0
 42
2.54
 43
0.38
 44
2.54
 45
0.0
 46
0.0
 47
0.0
 48
0.0
140
3.2
141
0.09
142
0.0
143
25.4
144
1.0
145
1.0
146
1.0
147
1.6
 71
     0
 72
     0
 73
     0
 74
     0
 75
     0
 76
     0
 77
     1
 78
     0
170
     0
171
     2
172
     1
173
     1
174
     0
175
     0
176
     0
177
     0
178
     0
270
     2
271
     4
272
     4
273
     2
274
     2
340
10
275
     0
280
     0
281
     0
282
     0
283
     1
284
     0
285
     0
286
     0
287
     3
288
     0
  0
DIMSTYLE
105
28
100
AcDbSymbolTableRecord
100
AcDbDimStyleTableRecord
  2
DIMSTYLE5
 70
     0
  3

  4

  5

  6
_OPEN30
  7
_OPEN30
 40
1.0
 41
1.0
 42
2.54
 43
0.38
 44
2.54
 45
0.0
 46
0.0
 47
0.0
 48
0.0
140
3.2
141
0.09
142
0.0
143
25.4
144
1.0
145
1.0
146
1.0
147
1.6
 71
     0
 72
     0
 73
     0
 74
     0
 75
     0
 76
     0
 77
     1
 78
     0
170
     0
171
     2
172
     1
173
     1
174
     0
175
     0
176
     0
177
     0
178
     0
270
     2
271
     4
272
     4
273
     2
274
     2
340
10
275
     0
280
     0
281
     0
282
     0
283
     1
284
     0
285
     0
286
     0
287
     3
288
     0
  0
DIMSTYLE
105
29
100
AcDbSymbolTableRecord
100
AcDbDimStyleTableRecord
  2
DIMSTYLE6
 70
     0
  3

  4

  5

  6
_OPEN30
  7
_OPEN30
 40
1.0
 41
1.0
 42
2.54
 43
0.38
 44
2.54
 45
0.0
 46
0.0
 47
0.0
 48
0.0
140
3.2
141
0.09
142
0.0
143
25.4
144
1.0
145
1.0
146
1.0
147
1.6
 71
     0
 72
     0
 73
     0
 74
     0
 75
     0
 76
     0
 77
     1
 78
     0
170
     0
171
     2
172
     1
173
     1
174
     0
175
     0
176
     0
177
     0
178
     0
270
     2
271
     4
272
     4
273
     2
274
     2
340
10
275
     0
280
     0
281
     0
282
     0
283
     1
284
     0
285
     0
286
     0
287
     3
288
     0
  0
ENDTAB
  0
TABLE
  2
BLOCK_RECORD
  5
1
100
AcDbSymbolTable
 70
     7
  0
BLOCK_RECORD
  5
19
100
AcDbSymbolTableRecord
100
AcDbBlockTableRecord
  2
*MODEL_SPACE
  0
BLOCK_RECORD
  5
16
100
AcDbSymbolTableRecord
100
AcDbBlockTableRecord
  2
*PAPER_SPACE
  0
BLOCK_RECORD
  5
2B
100
AcDbSymbolTableRecord
100
AcDbBlockTableRecord
  2
_OPEN30
  0
BLOCK_RECORD
  5
31
100
AcDbSymbolTableRecord
100
AcDbBlockTableRecord
  2
*D1
  0
BLOCK_RECORD
  5
3D
100
AcDbSymbolTableRecord
100
AcDbBlockTableRecord
  2
*D2
  0
BLOCK_RECORD
  5
4A
100
AcDbSymbolTableRecord
100
AcDbBlockTableRecord
  2
*D3
  0
BLOCK_RECORD
  5
57
100
AcDbSymbolTableRecord
100
AcDbBlockTableRecord
  2
*D4
  0
BLOCK_RECORD
  5
64
100
AcDbSymbolTableRecord
100
AcDbBlockTableRecord
  2
*D5
  0
BLOCK_RECORD
  5
70
100
AcDbSymbolTableRecord
100
AcDbBlockTableRecord
  2
*D6
  0
ENDTAB
  0
ENDSEC
  0
SECTION
  2
BLOCKS
  0
BLOCK
  5
1A
100
AcDbEntity
  8
0
100
AcDbBlockBegin
  2
*MODEL_SPACE
 70
     0
 10
0.0
 20
0.0
 30
0.0
  3
*MODEL_SPACE
  1

  0
ENDBLK
  5
1B
100
AcDbEntity
  8
0
100
AcDbBlockEnd
  0
BLOCK
  5
17
100
AcDbEntity
 67
     1
  8
0
100
AcDbBlockBegin
  2
*PAPER_SPACE
 70
     0
 10
0.0
 20
0.0
 30
0.0
  3
*PAPER_SPACE
  1

  0
ENDBLK
  5
18
100
AcDbEntity
 67
     1
  8
0
100
AcDbBlockEnd
  0
BLOCK
  5
2C
100
AcDbEntity
  8
0
100
AcDbBlockBegin
  2
_OPEN30
 70
    64
 10
0.0
 20
0.0
 30
0.0
  3
_OPEN30
  1

  0
LINE
  5
2D
100
AcDbEntity
  8
0
  6
BYBLOCK
 62
     0
100
AcDbLine
 10
0.0
 20
0.0
 30
0.0
 11
-3.0
 21
-1.0
 31
0.0
  0
LINE
  5
2E
100
AcDbEntity
  8
0
  6
BYBLOCK
 62
     0
100
AcDbLine
 10
0.0
 20
0.0
 30
0.0
 11
-3.0
 21
1.0
 31
0.0
  0
LINE
  5
2F
100
AcDbEntity
  8
0
  6
BYBLOCK
 62
     0
100
AcDbLine
 10
0.0
 20
0.0
 30
0.0
 11
-3.0
 21
0.0
 31
0.0
  0
ENDBLK
  5
30
100
AcDbEntity
  8
0
100
AcDbBlockEnd
  0
BLOCK
  5
32
100
AcDbEntity
  8
0
100
AcDbBlockBegin
  2
*D1
 70
    65
 10
0.0
 20
0.0
 30
0.0
  3
*D1
  1

  0
LINE
  5
33
100
AcDbEntity
  8
0
  6
CONTINUOUS
 62
     7
100
AcDbLine
 10
11.402875
 20
-106.18798
 30
0.0
 11
11.402875
 21
-109.18798
 31
0.0
  0
INSERT
  5
34
100
AcDbEntity
  8
0
  6
CONTINUOUS
 62
     7
100
AcDbBlockReference
  2
_OPEN30
 10
11.402875
 20
-103.18798
 30
0.0
 50
90.0
  0
INSERT
  5
35
100
AcDbEntity
  8
0
  6
CONTINUOUS
 62
     7
100
AcDbBlockReference
  2
_OPEN30
 10
11.402875
 20
-112.18798
 30
0.0
 50
270.0
  0
LINE
  5
36
100
AcDbEntity
  8
0
  6
CONTINUOUS
 62
     7
100
AcDbLine
 10
-4.03507
 20
-103.18798
 30
0.0
 11
12.402875
 21
-103.18798
 31
0.0
  0
LINE
  5
37
100
AcDbEntity
  8
0
  6
CONTINUOUS
 62
     7
100
AcDbLine
 10
-4.03507
 20
-112.18798
 30
0.0
 11
12.402875
 21
-112.18798
 31
0.0
  0
TEXT
  5
38
100
AcDbEntity
  8
0
  6
CONTINUOUS
 62
     7
100
AcDbText
 10
10.602875
 20
-108.83098
 30
0.0
 40
3.2
  1
9
 50
90.000003
100
AcDbText
  0
POINT
  5
39
100
AcDbEntity
  8
DEFPOINTS
  6
CONTINUOUS
 62
     7
100
AcDbPoint
 10
-6.57507
 20
-103.18798
 30
0.0
  0
POINT
  5
3A
100
AcDbEntity
  8
DEFPOINTS
  6
CONTINUOUS
 62
     7
100
AcDbPoint
 10
-6.57507
 20
-112.18798
 30
0.0
  0
POINT
  5
3B
100
AcDbEntity
  8
DEFPOINTS
  6
CONTINUOUS
 62
     7
100
AcDbPoint
 10
11.402875
 20
-112.18798
 30
0.0
  0
ENDBLK
  5
3C
100
AcDbEntity
  8
0
100
AcDbBlockEnd
  0
BLOCK
  5
3E
100
AcDbEntity
  8
0
100
AcDbBlockBegin
  2
*D2
 70
    65
 10
0.0
 20
0.0
 30
0.0
  3
*D2
  1

  0
LINE
  5
3F
100
AcDbEntity
  8
0
  6
CONTINUOUS
 62
     7
100
AcDbLine
 10
-153.57507
 20
-132.18799
 30
0.0
 11
-9.57507
 21
-132.18799
 31
0.0
  0
INSERT
  5
40
100
AcDbEntity
  8
0
  6
CONTINUOUS
 62
     7
100
AcDbBlockReference
  2
_OPEN30
 10
-156.57507
 20
-132.18799
 30
0.0
 50
180.0
  0
INSERT
  5
41
100
AcDbEntity
  8
0
  6
CONTINUOUS
 62
     7
100
AcDbBlockReference
  2
_OPEN30
 10
-6.57507
 20
-132.18799
 30
0.0
  0
LINE
  5
42
100
AcDbEntity
  8
0
  6
CONTINUOUS
 62
     7
100
AcDbLine
 10
-156.57507
 20
-114.72798
 30
0.0
 11
-156.57507
 21
-133.18799
 31
0.0
  0
LINE
  5
43
100
AcDbEntity
  8
0
  6
CONTINUOUS
 62
     7
100
AcDbLine
 10
-6.57507
 20
-114.72798
 30
0.0
 11
-6.57507
 21
-133.18799
 31
0.0
  0
TEXT
  5
44
100
AcDbEntity
  8
0
  6
CONTINUOUS
 62
     7
100
AcDbText
 10
-89.118073
 20
-131.38799
 30
0.0
 40
3.2
  1
150
 41
1.221469
100
AcDbText
  0
TEXT
  5
45
100
AcDbEntity
  8
0
  6
CONTINUOUS
 62
     7
100
AcDbText
 10
-79.518073
 20
-130.18799
 30
0.0
 40
1.6
  1
%%P0.2
 41
1.22857
100
AcDbText
  0
POINT
  5
46
100
AcDbEntity
  8
DEFPOINTS
  6
CONTINUOUS
 62
     7
100
AcDbPoint
 10
-156.57507
 20
-112.18798
 30
0.0
  0
POINT
  5
47
100
AcDbEntity
  8
DEFPOINTS
  6
CONTINUOUS
 62
     7
100
AcDbPoint
 10
-6.57507
 20
-112.18798
 30
0.0
  0
POINT
  5
48
100
AcDbEntity
  8
DEFPOINTS
  6
CONTINUOUS
 62
     7
100
AcDbPoint
 10
-6.57507
 20
-132.18799
 30
0.0
  0
ENDBLK
  5
49
100
AcDbEntity
  8
0
100
AcDbBlockEnd
  0
BLOCK
  5
4B
100
AcDbEntity
  8
0
100
AcDbBlockBegin
  2
*D3
 70
    65
 10
0.0
 20
0.0
 30
0.0
  3
*D3
  1

  0
LINE
  5
4C
100
AcDbEntity
  8
0
  6
CONTINUOUS
 62
     7
100
AcDbLine
 10
-148.57507
 20
6.900051
 30
0.0
 11
-14.575069
 21
6.900051
 31
0.0
  0
INSERT
  5
4D
100
AcDbEntity
  8
0
  6
CONTINUOUS
 62
     7
100
AcDbBlockReference
  2
_OPEN30
 10
-151.57507
 20
6.900051
 30
0.0
 50
180.0
  0
INSERT
  5
4E
100
AcDbEntity
  8
0
  6
CONTINUOUS
 62
     7
100
AcDbBlockReference
  2
_OPEN30
 10
-11.575069
 20
6.900051
 30
0.0
  0
LINE
  5
4F
100
AcDbEntity
  8
0
  6
CONTINUOUS
 62
     7
100
AcDbLine
 10
-151.57507
 20
109.36005
 30
0.0
 11
-151.57507
 21
5.900051
 31
0.0
  0
LINE
  5
50
100
AcDbEntity
  8
0
  6
CONTINUOUS
 62
     7
100
AcDbLine
 10
-11.575069
 20
29.360051
 30
0.0
 11
-11.575069
 21
5.900051
 31
0.0
  0
TEXT
  5
51
100
AcDbEntity
  8
0
  6
CONTINUOUS
 62
     7
100
AcDbText
 10
-89.118073
 20
7.700051
 30
0.0
 40
3.2
  1
140
 41
1.221469
100
AcDbText
  0
TEXT
  5
52
100
AcDbEntity
  8
0
  6
CONTINUOUS
 62
     7
100
AcDbText
 10
-79.518073
 20
8.900051
 30
0.0
 40
1.6
  1
%%P0.2
 41
1.22857
100
AcDbText
  0
POINT
  5
53
100
AcDbEntity
  8
DEFPOINTS
  6
CONTINUOUS
 62
     7
100
AcDbPoint
 10
-151.57507
 20
111.90005
 30
0.0
  0
POINT
  5
54
100
AcDbEntity
  8
DEFPOINTS
  6
CONTINUOUS
 62
     7
100
AcDbPoint
 10
-11.575069
 20
31.900051
 30
0.0
  0
POINT
  5
55
100
AcDbEntity
  8
DEFPOINTS
  6
CONTINUOUS
 62
     7
100
AcDbPoint
 10
-11.575069
 20
6.900051
 30
0.0
  0
ENDBLK
  5
56
100
AcDbEntity
  8
0
100
AcDbBlockEnd
  0
BLOCK
  5
58
100
AcDbEntity
  8
0
100
AcDbBlockBegin
  2
*D4
 70
    65
 10
0.0
 20
0.0
 30
0.0
  3
*D4
  1

  0
LINE
  5
59
100
AcDbEntity
  8
0
  6
CONTINUOUS
 62
     7
100
AcDbLine
 10
11.402875
 20
108.90005
 30
0.0
 11
11.402875
 21
34.900051
 31
0.0
  0
INSERT
  5
5A
100
AcDbEntity
  8
0
  6
CONTINUOUS
 62
     7
100
AcDbBlockReference
  2
_OPEN30
 10
11.402875
 20
111.90005
 30
0.0
 50
90.0
  0
INSERT
  5
5B
100
AcDbEntity
  8
0
  6
CONTINUOUS
 62
     7
100
AcDbBlockReference
  2
_OPEN30
 10
11.402875
 20
31.900051
 30
0.0
 50
270.0
  0
LINE
  5
5C
100
AcDbEntity
  8
0
  6
CONTINUOUS
 62
     7
100
AcDbLine
 10
-149.03507
 20
111.90005
 30
0.0
 11
12.402875
 21
111.90005
 31
0.0
  0
LINE
  5
5D
100
AcDbEntity
  8
0
  6
CONTINUOUS
 62
     7
100
AcDbLine
 10
-9.035069
 20
31.900051
 30
0.0
 11
12.402875
 21
31.900051
 31
0.0
  0
TEXT
  5
5E
100
AcDbEntity
  8
0
  6
CONTINUOUS
 62
     7
100
AcDbText
 10
10.602875
 20
65.957047
 30
0.0
 40
3.2
  1
80
 50
90.000003
 41
1.102098
100
AcDbText
  0
TEXT
  5
5F
100
AcDbEntity
  8
0
  6
CONTINUOUS
 62
     7
100
AcDbText
 10
9.402875
 20
72.357047
 30
0.0
 40
1.6
  1
%%P0.2
 50
90.000003
 41
1.22857
100
AcDbText
  0
POINT
  5
60
100
AcDbEntity
  8
DEFPOINTS
  6
CONTINUOUS
 62
     7
100
AcDbPoint
 10
-151.57507
 20
111.90005
 30
0.0
  0
POINT
  5
61
100
AcDbEntity
  8
DEFPOINTS
  6
CONTINUOUS
 62
     7
100
AcDbPoint
 10
-11.575069
 20
31.900051
 30
0.0
  0
POINT
  5
62
100
AcDbEntity
  8
DEFPOINTS
  6
CONTINUOUS
 62
     7
100
AcDbPoint
 10
11.402875
 20
31.900051
 30
0.0
  0
ENDBLK
  5
63
100
AcDbEntity
  8
0
100
AcDbBlockEnd
  0
BLOCK
  5
65
100
AcDbEntity
  8
0
100
AcDbBlockBegin
  2
*D5
 70
    65
 10
0.0
 20
0.0
 30
0.0
  3
*D5
  1

  0
LINE
  5
66
100
AcDbEntity
  8
0
  6
CONTINUOUS
 62
     7
100
AcDbLine
 10
21.402874
 20
-28.487984
 30
0.0
 11
21.402874
 21
-109.18798
 31
0.0
  0
INSERT
  5
67
100
AcDbEntity
  8
0
  6
CONTINUOUS
 62
     7
100
AcDbBlockReference
  2
_OPEN30
 10
21.402874
 20
-25.487984
 30
0.0
 50
90.0
  0
INSERT
  5
68
100
AcDbEntity
  8
0
  6
CONTINUOUS
 62
     7
100
AcDbBlockReference
  2
_OPEN30
 10
21.402874
 20
-112.18798
 30
0.0
 50
270.0
  0
LINE
  5
69
100
AcDbEntity
  8
0
  6
CONTINUOUS
 62
     7
100
AcDbLine
 10
-4.03507
 20
-25.487984
 30
0.0
 11
22.402874
 21
-25.487984
 31
0.0
  0
LINE
  5
6A
100
AcDbEntity
  8
0
  6
CONTINUOUS
 62
     7
100
AcDbLine
 10
-0.03507
 20
-112.18798
 30
0.0
 11
22.402874
 21
-112.18798
 31
0.0
  0
TEXT
  5
6B
100
AcDbEntity
  8
0
  6
CONTINUOUS
 62
     7
100
AcDbText
 10
20.602874
 20
-71.580982
 30
0.0
 40
3.2
  1
87
 50
90.000003
 41
1.028625
100
AcDbText
  0
POINT
  5
6C
100
AcDbEntity
  8
DEFPOINTS
  6
CONTINUOUS
 62
     7
100
AcDbPoint
 10
-6.57507
 20
-25.487984
 30
0.0
  0
POINT
  5
6D
100
AcDbEntity
  8
DEFPOINTS
  6
CONTINUOUS
 62
     7
100
AcDbPoint
 10
-2.57507
 20
-112.18798
 30
0.0
  0
POINT
  5
6E
100
AcDbEntity
  8
DEFPOINTS
  6
CONTINUOUS
 62
     7
100
AcDbPoint
 10
21.402874
 20
-112.18798
 30
0.0
  0
ENDBLK
  5
6F
100
AcDbEntity
  8
0
100
AcDbBlockEnd
  0
BLOCK
  5
71
100
AcDbEntity
  8
0
100
AcDbBlockBegin
  2
*D6
 70
    65
 10
0.0
 20
0.0
 30
0.0
  3
*D6
  1

  0
LINE
  5
72
100
AcDbEntity
  8
0
  6
CONTINUOUS
 62
     7
100
AcDbLine
 10
21.402874
 20
29.900051
 30
0.0
 11
21.402874
 21
113.90005
 31
0.0
  0
INSERT
  5
73
100
AcDbEntity
  8
0
  6
CONTINUOUS
 62
     7
100
AcDbBlockReference
  2
_OPEN30
 10
21.402874
 20
26.900051
 30
0.0
 50
270.0
  0
INSERT
  5
74
100
AcDbEntity
  8
0
  6
CONTINUOUS
 62
     7
100
AcDbBlockReference
  2
_OPEN30
 10
21.402874
 20
116.90005
 30
0.0
 50
90.0
  0
LINE
  5
75
100
AcDbEntity
  8
0
  6
CONTINUOUS
 62
     7
100
AcDbLine
 10
-4.03507
 20
26.900051
 30
0.0
 11
22.402874
 21
26.900051
 31
0.0
  0
LINE
  5
76
100
AcDbEntity
  8
0
  6
CONTINUOUS
 62
     7
100
AcDbLine
 10
-4.03507
 20
116.90005
 30
0.0
 11
22.402874
 21
116.90005
 31
0.0
  0
TEXT
  5
77
100
AcDbEntity
  8
0
  6
CONTINUOUS
 62
     7
100
AcDbText
 10
20.602874
 20
65.957047
 30
0.0
 40
3.2
  1
90
 50
90.000003
 41
1.102098
100
AcDbText
  0
TEXT
  5
78
100
AcDbEntity
  8
0
  6
CONTINUOUS
 62
     7
100
AcDbText
 10
19.402874
 20
72.357047
 30
0.0
 40
1.6
  1
%%P0.2
 50
90.000003
 41
1.22857
100
AcDbText
  0
POINT
  5
79
100
AcDbEntity
  8
DEFPOINTS
  6
CONTINUOUS
 62
     7
100
AcDbPoint
 10
-6.57507
 20
26.900051
 30
0.0
  0
POINT
  5
7A
100
AcDbEntity
  8
DEFPOINTS
  6
CONTINUOUS
 62
     7
100
AcDbPoint
 10
-6.57507
 20
116.90005
 30
0.0
  0
POINT
  5
7B
100
AcDbEntity
  8
DEFPOINTS
  6
CONTINUOUS
 62
     7
100
AcDbPoint
 10
21.402874
 20
116.90005
 30
0.0
  0
ENDBLK
  5
7C
100
AcDbEntity
  8
0
100
AcDbBlockEnd
  0
ENDSEC
  0
SECTION
  2
ENTITIES
  0
LINE
  5
7D
100
AcDbEntity
  8
0
  6
CONTINUOUS
 62
     7
100
AcDbLine
 10
-14.575069
 20
36.900051
 30
0.0
 11
-7.07507
 21
36.900051
 31
0.0
  0
LINE
  5
7E
100
AcDbEntity
  8
0
  6
CONTINUOUS
 62
     7
100
AcDbLine
 10
-15.575069
 20
35.900051
 30
0.0
 11
-15.575069
 21
27.400051
 31
0.0
  0
LINE
  5
7F
100
AcDbEntity
  8
0
  6
CONTINUOUS
 62
     7
100
AcDbLine
 10
-123.57507
 20
50.900051
 30
0.0
 11
-7.07507
 21
50.900051
 31
0.0
  0
LINE
  5
80
100
AcDbEntity
  8
0
  6
CONTINUOUS
 62
     7
100
AcDbLine
 10
-156.57507
 20
-57.487984
 30
0.0
 11
-6.57507
 21
-57.487984
 31
0.0
  0
LINE
  5
81
100
AcDbEntity
  8
0
  6
CONTINUOUS
 62
     7
100
AcDbLine
 10
-15.575069
 20
-32.390888
 30
0.0
 11
-15.575069
 21
-103.18798
 31
0.0
  0
LINE
  5
82
100
AcDbEntity
  8
0
  6
CONTINUOUS
 62
     7
100
AcDbLine
 10
-119.07507
 20
-36.487984
 30
0.0
 11
-119.07507
 21
-57.487984
 31
0.0
  0
LINE
  5
83
100
AcDbEntity
  8
0
  6
CONTINUOUS
 62
     7
100
AcDbLine
 10
-156.57507
 20
-36.487984
 30
0.0
 11
-117.27507
 21
-36.487984
 31
0.0
  0
LINE
  5
84
100
AcDbEntity
  8
0
  6
CONTINUOUS
 62
     7
100
AcDbLine
 10
155.42493
 20
-57.487984
 30
0.0
 11
65.424927
 21
-57.487984
 31
0.0
  0
LINE
  5
85
100
AcDbEntity
  8
0
  6
CONTINUOUS
 62
     7
100
AcDbLine
 10
155.42493
 20
-36.487984
 30
0.0
 11
131.92493
 21
-36.487984
 31
0.0
  0
LINE
  5
86
100
AcDbEntity
  8
0
  6
CONTINUOUS
 62
     7
100
AcDbLine
 10
87.924927
 20
-30.487984
 30
0.0
 11
89.424927
 21
-30.487984
 31
0.0
  0
LINE
  5
87
100
AcDbEntity
  8
0
  6
CONTINUOUS
 62
     7
100
AcDbLine
 10
88.924927
 20
-30.487984
 30
0.0
 11
88.924927
 21
-36.487984
 31
0.0
  0
LINE
  5
88
100
AcDbEntity
  8
0
  6
CONTINUOUS
 62
     7
100
AcDbLine
 10
89.424927
 20
-27.83367
 30
0.0
 11
89.424927
 21
-30.487984
 31
0.0
  0
LINE
  5
89
100
AcDbEntity
  8
0
  6
CONTINUOUS
 62
     7
100
AcDbLine
 10
131.42493
 20
-27.888975
 30
0.0
 11
131.42493
 21
-30.487984
 31
0.0
  0
LINE
  5
8A
100
AcDbEntity
  8
0
  6
CONTINUOUS
 62
     7
100
AcDbLine
 10
131.92493
 20
-30.487984
 30
0.0
 11
131.92493
 21
-36.487984
 31
0.0
  0
LINE
  5
8B
100
AcDbEntity
  8
0
  6
CONTINUOUS
 62
     7
100
AcDbLine
 10
88.924927
 20
-36.487984
 30
0.0
 11
75.424927
 21
-36.487984
 31
0.0
  0
LINE
  5
8C
100
AcDbEntity
  8
0
  6
CONTINUOUS
 62
     7
100
AcDbLine
 10
132.92493
 20
-30.487984
 30
0.0
 11
131.42493
 21
-30.487984
 31
0.0
  0
LINE
  5
8D
100
AcDbEntity
  8
0
  6
CONTINUOUS
 62
     7
100
AcDbLine
 10
92.636459
 20
-112.18798
 30
0.0
 11
65.424927
 21
-112.18798
 31
0.0
  0
LINE
  5
8E
100
AcDbEntity
  8
0
  6
CONTINUOUS
 62
     7
100
AcDbLine
 10
155.42493
 20
-112.18798
 30
0.0
 11
155.42493
 21
-31.101068
 31
0.0
  0
LINE
  5
8F
100
AcDbEntity
  8
0
  6
CONTINUOUS
 62
     7
100
AcDbLine
 10
75.424927
 20
-102.68798
 30
0.0
 11
75.424927
 21
-36.487984
 31
0.0
  0
LINE
  5
90
100
AcDbEntity
  8
0
  6
CONTINUOUS
 62
     7
100
AcDbLine
 10
74.924927
 20
-103.18798
 30
0.0
 11
65.924927
 21
-103.18798
 31
0.0
  0
LINE
  5
91
100
AcDbEntity
  8
0
  6
CONTINUOUS
 62
     7
100
AcDbLine
 10
92.72493
 20
-108.18798
 30
0.0
 11
92.72493
 21
-109.68798
 31
0.0
  0
LINE
  5
92
100
AcDbEntity
  8
0
  6
CONTINUOUS
 62
     7
100
AcDbLine
 10
90.724937
 20
-112.18799
 30
0.0
 11
92.724937
 21
-109.68799
 31
0.0
  0
LINE
  5
93
100
AcDbEntity
  8
0
  6
CONTINUOUS
 62
     7
100
AcDbLine
 10
155.42493
 20
-112.18798
 30
0.0
 11
126.62492
 21
-112.18798
 31
0.0
  0
LINE
  5
94
100
AcDbEntity
  8
0
  6
CONTINUOUS
 62
     7
100
AcDbLine
 10
128.12492
 20
-108.18798
 30
0.0
 11
128.12492
 21
-112.18798
 31
0.0
  0
LINE
  5
95
100
AcDbEntity
  8
0
  6
CONTINUOUS
 62
     7
100
AcDbLine
 10
128.12492
 20
-108.18798
 30
0.0
 11
92.72493
 21
-108.18798
 31
0.0
  0
LINE
  5
96
100
AcDbEntity
  8
0
  6
CONTINUOUS
 62
     7
100
AcDbLine
 10
-6.57507
 20
-25.987984
 30
0.0
 11
-6.57507
 21
-112.18798
 31
0.0
  0
LINE
  5
97
100
AcDbEntity
  8
0
  6
CONTINUOUS
 62
     7
100
AcDbLine
 10
-156.57507
 20
-112.18798
 30
0.0
 11
-6.57507
 21
-112.18798
 31
0.0
  0
LINE
  5
98
100
AcDbEntity
  8
0
  6
CONTINUOUS
 62
     7
100
AcDbLine
 10
-15.575069
 20
-103.18798
 30
0.0
 11
-7.07507
 21
-103.18798
 31
0.0
  0
LINE
  5
99
100
AcDbEntity
  8
0
  6
CONTINUOUS
 62
     7
100
AcDbLine
 10
-56.575069
 20
26.900051
 30
0.0
 11
-56.575069
 21
24.900051
 31
0.0
  0
LINE
  5
9A
100
AcDbEntity
  8
0
  6
CONTINUOUS
 62
     7
100
AcDbLine
 10
-36.575069
 20
26.900051
 30
0.0
 11
-36.575069
 21
24.900051
 31
0.0
  0
LINE
  5
9B
100
AcDbEntity
  8
0
  6
CONTINUOUS
 62
     7
100
AcDbLine
 10
-54.575069
 20
22.900051
 30
0.0
 11
-38.575069
 21
22.900051
 31
0.0
  0
LINE
  5
9C
100
AcDbEntity
  8
0
  6
CONTINUOUS
 62
     7
100
AcDbLine
 10
-126.57507
 20
26.900051
 30
0.0
 11
-126.57507
 21
24.900051
 31
0.0
  0
LINE
  5
9D
100
AcDbEntity
  8
0
  6
CONTINUOUS
 62
     7
100
AcDbLine
 10
-106.57507
 20
26.900051
 30
0.0
 11
-106.57507
 21
24.900051
 31
0.0
  0
LINE
  5
9E
100
AcDbEntity
  8
0
  6
CONTINUOUS
 62
     7
100
AcDbLine
 10
-124.57507
 20
22.900051
 30
0.0
 11
-108.57507
 21
22.900051
 31
0.0
  0
LINE
  5
9F
100
AcDbEntity
  8
0
  6
CONTINUOUS
 62
     7
100
AcDbLine
 10
65.424927
 20
-112.18798
 30
0.0
 11
61.424931
 21
-112.18798
 31
0.0
  0
LINE
  5
A0
100
AcDbEntity
  8
0
  6
CONTINUOUS
 62
     7
100
AcDbLine
 10
61.424931
 20
-112.18798
 30
0.0
 11
61.424931
 21
-108.38799
 31
0.0
  0
LINE
  5
A1
100
AcDbEntity
  8
0
  6
CONTINUOUS
 62
     7
100
AcDbLine
 10
65.424927
 20
-108.38799
 30
0.0
 11
61.424931
 21
-108.38799
 31
0.0
  0
LINE
  5
A2
100
AcDbEntity
  8
0
  6
CONTINUOUS
 62
     7
100
AcDbLine
 10
93.22493
 20
-108.38799
 30
0.0
 11
92.72493
 21
-108.38799
 31
0.0
  0
LINE
  5
A3
100
AcDbEntity
  8
0
  6
CONTINUOUS
 62
     7
100
AcDbLine
 10
-154.57507
 20
28.900051
 30
0.0
 11
-125.57507
 21
28.900051
 31
0.0
  0
LINE
  5
A4
100
AcDbEntity
  8
0
  6
CONTINUOUS
 62
     7
100
AcDbLine
 10
-154.57507
 20
50.900051
 30
0.0
 11
-125.57507
 21
50.900051
 31
0.0
  0
LINE
  5
A5
100
AcDbEntity
  8
0
  6
CONTINUOUS
 62
     7
100
AcDbLine
 10
-154.57507
 20
50.900051
 30
0.0
 11
-154.57507
 21
28.900051
 31
0.0
  0
LINE
  5
A6
100
AcDbEntity
  8
0
  6
CONTINUOUS
 62
     7
100
AcDbLine
 10
-125.57507
 20
50.900051
 30
0.0
 11
-125.57507
 21
28.900051
 31
0.0
  0
LINE
  5
A7
100
AcDbEntity
  8
0
  6
CONTINUOUS
 62
     7
100
AcDbLine
 10
-64.575073
 20
-25.487984
 30
0.0
 11
-7.07507
 21
-25.487984
 31
0.0
  0
LINE
  5
A8
100
AcDbEntity
  8
0
  6
CONTINUOUS
 62
     7
100
AcDbLine
 10
-129.38069
 20
-25.487984
 30
0.0
 11
-64.575073
 21
-25.487984
 31
0.0
  0
LINE
  5
A9
100
AcDbEntity
  8
0
  6
CONTINUOUS
 62
     7
100
AcDbLine
 10
-156.57507
 20
-28.487984
 30
0.0
 11
-156.57507
 21
-112.18798
 31
0.0
  0
LINE
  5
AA
100
AcDbEntity
  8
0
  6
CONTINUOUS
 62
     7
100
AcDbLine
 10
-156.57507
 20
-36.487984
 30
0.0
 11
-123.57507
 21
-36.487984
 31
0.0
  0
LINE
  5
AB
100
AcDbEntity
  8
0
  6
CONTINUOUS
 62
     7
100
AcDbLine
 10
-156.07507
 20
-27.987984
 30
0.0
 11
-131.37201
 21
-27.987984
 31
0.0
  0
LINE
  5
AC
100
AcDbEntity
  8
0
  6
CONTINUOUS
 62
     7
100
AcDbLine
 10
-129.54018
 20
-25.567295
 30
0.0
 11
-131.37201
 21
-27.98798
 31
0.0
  0
LINE
  5
AD
100
AcDbEntity
  8
0
  6
CONTINUOUS
 62
     7
100
AcDbLine
 10
-154.07507
 20
88.400047
 30
0.0
 11
-140.57507
 21
88.400047
 31
0.0
  0
LINE
  5
AE
100
AcDbEntity
  8
0
  6
CONTINUOUS
 62
     7
100
AcDbLine
 10
-154.07507
 20
55.400051
 30
0.0
 11
-140.57507
 21
55.400051
 31
0.0
  0
LINE
  5
AF
100
AcDbEntity
  8
0
  6
CONTINUOUS
 62
     7
100
AcDbLine
 10
-155.07507
 20
87.400047
 30
0.0
 11
-155.07507
 21
56.400051
 31
0.0
  0
LINE
  5
B0
100
AcDbEntity
  8
0
  6
CONTINUOUS
 62
     7
100
AcDbLine
 10
-139.57507
 20
87.400047
 30
0.0
 11
-139.57507
 21
56.400051
 31
0.0
  0
LINE
  5
B1
100
AcDbEntity
  8
0
  6
CONTINUOUS
 62
     7
100
AcDbLine
 10
-154.57507
 20
26.900051
 30
0.0
 11
-8.575069
 21
26.900051
 31
0.0
  0
LINE
  5
B2
100
AcDbEntity
  8
0
  6
CONTINUOUS
 62
     7
100
AcDbLine
 10
-6.57507
 20
114.90005
 30
0.0
 11
-6.57507
 21
28.900051
 31
0.0
  0
LINE
  5
B3
100
AcDbEntity
  8
0
  6
CONTINUOUS
 62
     7
100
AcDbLine
 10
87.924927
 20
-28.187983
 30
0.0
 11
87.924927
 21
-35.487984
 31
0.0
  0
LINE
  5
B4
100
AcDbEntity
  8
0
  6
CONTINUOUS
 62
     7
100
AcDbLine
 10
86.924927
 20
-36.487984
 30
0.0
 11
65.424927
 21
-36.487984
 31
0.0
  0
LINE
  5
B5
100
AcDbEntity
  8
0
  6
CONTINUOUS
 62
     7
100
AcDbLine
 10
65.424927
 20
-31.101068
 30
0.0
 11
65.424927
 21
-112.18798
 31
0.0
  0
LINE
  5
B6
100
AcDbEntity
  8
0
  6
CONTINUOUS
 62
     7
100
AcDbLine
 10
67.336128
 20
-29.103041
 30
0.0
 11
87.924927
 21
-28.187984
 31
0.0
  0
LINE
  5
B7
100
AcDbEntity
  8
0
  6
CONTINUOUS
 62
     7
100
AcDbLine
 10
132.92493
 20
-28.187983
 30
0.0
 11
132.92493
 21
-35.487984
 31
0.0
  0
LINE
  5
B8
100
AcDbEntity
  8
0
  6
CONTINUOUS
 62
     7
100
AcDbLine
 10
153.51373
 20
-29.103041
 30
0.0
 11
132.92494
 21
-28.187984
 31
0.0
  0
LINE
  5
B9
100
AcDbEntity
  8
0
  6
CONTINUOUS
 62
     7
100
AcDbLine
 10
-123.07507
 20
-36.487984
 30
0.0
 11
-115.07507
 21
-36.487984
 31
0.0
  0
LINE
  5
BA
100
AcDbEntity
  8
0
  6
CONTINUOUS
 62
     7
100
AcDbLine
 10
-113.2729
 20
-31.987984
 30
0.0
 11
-16.377241
 21
-31.987984
 31
0.0
  0
LINE
  5
BB
100
AcDbEntity
  8
0
  6
CONTINUOUS
 62
     7
100
AcDbLine
 10
-115.07507
 20
-36.487984
 30
0.0
 11
-114.24908
 21
-32.771053
 31
0.0
  0
LINE
  5
BC
100
AcDbEntity
  8
0
  6
CONTINUOUS
 62
     7
100
AcDbLine
 10
-14.575068
 20
-36.487984
 30
0.0
 11
-15.401053
 21
-32.771053
 31
0.0
  0
LINE
  5
BD
100
AcDbEntity
  8
0
  6
CONTINUOUS
 62
     7
100
AcDbLine
 10
-14.575069
 20
-36.487984
 30
0.0
 11
-6.57507
 21
-36.487984
 31
0.0
  0
LINE
  5
BE
100
AcDbEntity
  8
0
  6
CONTINUOUS
 62
     7
100
AcDbLine
 10
94.72493
 20
-109.98798
 30
0.0
 11
94.72493
 21
-109.58798
 31
0.0
  0
LINE
  5
BF
100
AcDbEntity
  8
0
  6
CONTINUOUS
 62
     7
100
AcDbLine
 10
93.22493
 20
-109.38799
 30
0.0
 11
93.22493
 21
-108.38799
 31
0.0
  0
LINE
  5
C0
100
AcDbEntity
  8
0
  6
CONTINUOUS
 62
     7
100
AcDbLine
 10
93.22493
 20
-109.38799
 30
0.0
 11
94.72493
 21
-109.58798
 31
0.0
  0
LINE
  5
C1
100
AcDbEntity
  8
0
  6
CONTINUOUS
 62
     7
100
AcDbLine
 10
94.724922
 20
-109.98798
 30
0.0
 11
92.784439
 21
-112.12252
 31
0.0
  0
LINE
  5
C2
100
AcDbEntity
  8
0
  6
CONTINUOUS
 62
     7
100
AcDbLine
 10
-154.57507
 20
116.90005
 30
0.0
 11
-8.575069
 21
116.90005
 31
0.0
  0
LINE
  5
C3
100
AcDbEntity
  8
0
  6
CONTINUOUS
 62
     7
100
AcDbLine
 10
-156.57507
 20
114.90005
 30
0.0
 11
-156.57507
 21
28.900051
 31
0.0
  0
LINE
  5
C4
100
AcDbEntity
  8
0
  6
CONTINUOUS
 62
     7
100
AcDbLine
 10
-123.57507
 20
116.40005
 30
0.0
 11
-123.57507
 21
92.900047
 31
0.0
  0
LINE
  5
C5
100
AcDbEntity
  8
0
  6
CONTINUOUS
 62
     7
100
AcDbLine
 10
-64.575073
 20
92.900047
 30
0.0
 11
-64.575073
 21
50.900051
 31
0.0
  0
LINE
  5
C6
100
AcDbEntity
  8
0
  6
CONTINUOUS
 62
     7
100
AcDbLine
 10
-123.57507
 20
50.900051
 30
0.0
 11
-123.57507
 21
27.400051
 31
0.0
  0
LINE
  5
C7
100
AcDbEntity
  8
0
  6
CONTINUOUS
 62
     7
100
AcDbLine
 10
-96.575073
 20
86.900047
 30
0.0
 11
-96.575073
 21
82.900047
 31
0.0
  0
LINE
  5
C8
100
AcDbEntity
  8
0
  6
CONTINUOUS
 62
     7
100
AcDbLine
 10
-101.57507
 20
60.900051
 30
0.0
 11
-101.57507
 21
56.900051
 31
0.0
  0
LINE
  5
C9
100
AcDbEntity
  8
0
  6
CONTINUOUS
 62
     7
100
AcDbLine
 10
-82.144768
 20
84.688416
 30
0.0
 11
-82.144768
 21
83.516724
 31
0.0
  0
LINE
  5
CA
100
AcDbEntity
  8
0
  6
CONTINUOUS
 62
     7
100
AcDbLine
 10
-82.144768
 20
86.291794
 30
0.0
 11
-81.145744
 21
86.291794
 31
0.0
  0
LINE
  5
CB
100
AcDbEntity
  8
0
  6
CONTINUOUS
 62
     7
100
AcDbLine
 10
-82.144768
 20
83.516724
 30
0.0
 11
-81.09024
 21
83.516724
 31
0.0
  0
LINE
  5
CC
100
AcDbEntity
  8
0
  6
CONTINUOUS
 62
     7
100
AcDbLine
 10
-82.144768
 20
86.291794
 30
0.0
 11
-82.144768
 21
85.305107
 31
0.0
  0
LINE
  5
CD
100
AcDbEntity
  8
0
  6
CONTINUOUS
 62
     7
100
AcDbLine
 10
-82.144768
 20
85.305107
 30
0.0
 11
-81.145744
 21
85.305107
 31
0.0
  0
LINE
  5
CE
100
AcDbEntity
  8
0
  6
CONTINUOUS
 62
     7
100
AcDbLine
 10
-82.144768
 20
84.688416
 30
0.0
 11
-81.09024
 21
84.688416
 31
0.0
  0
LINE
  5
CF
100
AcDbEntity
  8
0
  6
CONTINUOUS
 62
     7
100
AcDbLine
 10
-82.810776
 20
86.908463
 30
0.0
 11
-81.034737
 21
86.908463
 31
0.0
  0
LINE
  5
D0
100
AcDbEntity
  8
0
  6
CONTINUOUS
 62
     7
100
AcDbLine
 10
-82.810776
 20
82.900047
 30
0.0
 11
-80.97924
 21
82.900047
 31
0.0
  0
LINE
  5
D1
100
AcDbEntity
  8
0
  6
CONTINUOUS
 62
     7
100
AcDbLine
 10
-78.981194
 20
86.908463
 30
0.0
 11
-79.702705
 21
86.908463
 31
0.0
  0
LINE
  5
D2
100
AcDbEntity
  8
0
  6
CONTINUOUS
 62
     7
100
AcDbLine
 10
-75.595627
 20
82.900047
 30
0.0
 11
-74.8741
 21
82.900047
 31
0.0
  0
LINE
  5
D3
100
AcDbEntity
  8
0
  6
CONTINUOUS
 62
     7
100
AcDbLine
 10
-75.909584
 20
85.829285
 30
0.0
 11
-76.584518
 21
85.829285
 31
0.0
  0
LINE
  5
D4
100
AcDbEntity
  8
0
  6
CONTINUOUS
 62
     7
100
AcDbLine
 10
-77.391083
 20
86.291794
 30
0.0
 11
-77.12191
 21
86.291794
 31
0.0
  0
LINE
  5
D5
100
AcDbEntity
  8
0
  6
CONTINUOUS
 62
     7
100
AcDbLine
 10
-76.564751
 20
85.204773
 30
0.0
 11
-77.716789
 21
85.430481
 31
0.0
  0
LINE
  5
D6
100
AcDbEntity
  8
0
  6
CONTINUOUS
 62
     7
100
AcDbLine
 10
-75.762123
 20
84.142021
 30
0.0
 11
-75.762123
 21
84.133415
 31
0.0
  0
LINE
  5
D7
100
AcDbEntity
  8
0
  6
CONTINUOUS
 62
     7
100
AcDbLine
 10
-76.872147
 20
82.900047
 30
0.0
 11
-77.649162
 21
82.900047
 31
0.0
  0
LINE
  5
D8
100
AcDbEntity
  8
0
  6
CONTINUOUS
 62
     7
100
AcDbLine
 10
-78.759186
 20
84.195084
 30
0.0
 11
-78.759186
 21
84.133415
 31
0.0
  0
LINE
  5
D9
100
AcDbEntity
  8
0
  6
CONTINUOUS
 62
     7
100
AcDbLine
 10
-78.090401
 20
84.195084
 30
0.0
 11
-78.759186
 21
84.195084
 31
0.0
  0
LINE
  5
DA
100
AcDbEntity
  8
0
  6
CONTINUOUS
 62
     7
100
AcDbLine
 10
-76.983147
 20
83.516724
 30
0.0
 11
-77.53817
 21
83.516724
 31
0.0
  0
LINE
  5
DB
100
AcDbEntity
  8
0
  6
CONTINUOUS
 62
     7
100
AcDbLine
 10
-77.932518
 20
84.783806
 30
0.0
 11
-76.772148
 21
84.556473
 31
0.0
  0
LINE
  5
DC
100
AcDbEntity
  8
0
  6
CONTINUOUS
 62
     7
100
AcDbLine
 10
-77.01091
 20
86.908463
 30
0.0
 11
-77.510414
 21
86.908463
 31
0.0
  0
LINE
  5
DD
100
AcDbEntity
  8
0
  6
CONTINUOUS
 62
     7
100
AcDbLine
 10
-88.394493
 20
84.783806
 30
0.0
 11
-87.234131
 21
84.556473
 31
0.0
  0
LINE
  5
DE
100
AcDbEntity
  8
0
  6
CONTINUOUS
 62
     7
100
AcDbLine
 10
-87.026726
 20
85.204773
 30
0.0
 11
-88.178764
 21
85.430481
 31
0.0
  0
LINE
  5
DF
100
AcDbEntity
  8
0
  6
CONTINUOUS
 62
     7
100
AcDbLine
 10
-86.371567
 20
85.829285
 30
0.0
 11
-87.046494
 21
85.829285
 31
0.0
  0
LINE
  5
E0
100
AcDbEntity
  8
0
  6
CONTINUOUS
 62
     7
100
AcDbLine
 10
-87.853058
 20
86.291794
 30
0.0
 11
-87.583893
 21
86.291794
 31
0.0
  0
LINE
  5
E1
100
AcDbEntity
  8
0
  6
CONTINUOUS
 62
     7
100
AcDbLine
 10
-88.552376
 20
84.195084
 30
0.0
 11
-89.221161
 21
84.195084
 31
0.0
  0
LINE
  5
E2
100
AcDbEntity
  8
0
  6
CONTINUOUS
 62
     7
100
AcDbLine
 10
-87.445129
 20
83.516724
 30
0.0
 11
-88.000145
 21
83.516724
 31
0.0
  0
LINE
  5
E3
100
AcDbEntity
  8
0
  6
CONTINUOUS
 62
     7
100
AcDbLine
 10
-87.334122
 20
82.900047
 30
0.0
 11
-88.111137
 21
82.900047
 31
0.0
  0
LINE
  5
E4
100
AcDbEntity
  8
0
  6
CONTINUOUS
 62
     7
100
AcDbLine
 10
-89.221161
 20
84.195084
 30
0.0
 11
-89.221161
 21
84.133415
 31
0.0
  0
LINE
  5
E5
100
AcDbEntity
  8
0
  6
CONTINUOUS
 62
     7
100
AcDbLine
 10
-87.472885
 20
86.908463
 30
0.0
 11
-87.972389
 21
86.908463
 31
0.0
  0
LINE
  5
E6
100
AcDbEntity
  8
0
  6
CONTINUOUS
 62
     7
100
AcDbLine
 10
-72.654068
 20
86.908463
 30
0.0
 11
-73.37558
 21
86.908463
 31
0.0
  0
LINE
  5
E7
100
AcDbEntity
  8
0
  6
CONTINUOUS
 62
     7
100
AcDbLine
 10
-74.8741
 20
86.908463
 30
0.0
 11
-75.595627
 21
86.908463
 31
0.0
  0
LINE
  5
E8
100
AcDbEntity
  8
0
  6
CONTINUOUS
 62
     7
100
AcDbLine
 10
-73.37558
 20
82.900047
 30
0.0
 11
-72.654068
 21
82.900047
 31
0.0
  0
LINE
  5
E9
100
AcDbEntity
  8
0
  6
CONTINUOUS
 62
     7
100
AcDbLine
 10
-72.321053
 20
82.900047
 30
0.0
 11
-71.599541
 21
82.900047
 31
0.0
  0
LINE
  5
EA
100
AcDbEntity
  8
0
  6
CONTINUOUS
 62
     7
100
AcDbLine
 10
-74.8741
 20
85.305107
 30
0.0
 11
-74.8741
 21
86.908463
 31
0.0
  0
LINE
  5
EB
100
AcDbEntity
  8
0
  6
CONTINUOUS
 62
     7
100
AcDbLine
 10
-73.37558
 20
85.305107
 30
0.0
 11
-73.37558
 21
86.908463
 31
0.0
  0
LINE
  5
EC
100
AcDbEntity
  8
0
  6
CONTINUOUS
 62
     7
100
AcDbLine
 10
-74.8741
 20
85.305107
 30
0.0
 11
-73.37558
 21
85.305107
 31
0.0
  0
LINE
  5
ED
100
AcDbEntity
  8
0
  6
CONTINUOUS
 62
     7
100
AcDbLine
 10
-74.8741
 20
84.688416
 30
0.0
 11
-73.37558
 21
84.688416
 31
0.0
  0
LINE
  5
EE
100
AcDbEntity
  8
0
  6
CONTINUOUS
 62
     7
100
AcDbLine
 10
-79.702705
 20
82.900047
 30
0.0
 11
-78.981194
 21
82.900047
 31
0.0
  0
LINE
  5
EF
100
AcDbEntity
  8
0
  6
CONTINUOUS
 62
     7
100
AcDbLine
 10
-84.753319
 20
83.516724
 30
0.0
 11
-84.364815
 21
83.516724
 31
0.0
  0
LINE
  5
F0
100
AcDbEntity
  8
0
  6
CONTINUOUS
 62
     7
100
AcDbLine
 10
-83.143784
 20
86.908463
 30
0.0
 11
-83.809799
 21
86.908463
 31
0.0
  0
LINE
  5
F1
100
AcDbEntity
  8
0
  6
CONTINUOUS
 62
     7
100
AcDbLine
 10
-85.308334
 20
86.908463
 30
0.0
 11
-85.974342
 21
86.908463
 31
0.0
  0
LINE
  5
F2
100
AcDbEntity
  8
0
  6
CONTINUOUS
 62
     7
100
AcDbLine
 10
-90.802948
 20
86.291794
 30
0.0
 11
-91.718727
 21
86.291794
 31
0.0
  0
LINE
  5
F3
100
AcDbEntity
  8
0
  6
CONTINUOUS
 62
     7
100
AcDbLine
 10
-89.221161
 20
86.908463
 30
0.0
 11
-91.718727
 21
86.908463
 31
0.0
  0
LINE
  5
F4
100
AcDbEntity
  8
0
  6
CONTINUOUS
 62
     7
100
AcDbLine
 10
-84.864319
 20
82.900047
 30
0.0
 11
-84.253815
 21
82.900047
 31
0.0
  0
LINE
  5
F5
100
AcDbEntity
  8
0
  6
CONTINUOUS
 62
     7
100
AcDbLine
 10
-89.221161
 20
86.291794
 30
0.0
 11
-90.13694
 21
86.291794
 31
0.0
  0
LINE
  5
F6
100
AcDbEntity
  8
0
  6
CONTINUOUS
 62
     7
100
AcDbLine
 10
-90.802948
 20
82.900047
 30
0.0
 11
-90.802948
 21
86.291794
 31
0.0
  0
LINE
  5
F7
100
AcDbEntity
  8
0
  6
CONTINUOUS
 62
     7
100
AcDbLine
 10
-90.13694
 20
82.900047
 30
0.0
 11
-90.13694
 21
86.291794
 31
0.0
  0
LINE
  5
F8
100
AcDbEntity
  8
0
  6
CONTINUOUS
 62
     7
100
AcDbLine
 10
-90.802948
 20
82.900047
 30
0.0
 11
-90.13694
 21
82.900047
 31
0.0
  0
LINE
  5
F9
100
AcDbEntity
  8
0
  6
CONTINUOUS
 62
     7
100
AcDbLine
 10
-91.968475
 20
86.908463
 30
0.0
 11
-92.634483
 21
86.908463
 31
0.0
  0
LINE
  5
FA
100
AcDbEntity
  8
0
  6
CONTINUOUS
 62
     7
100
AcDbLine
 10
-95.57605
 20
86.908463
 30
0.0
 11
-96.575073
 21
86.908463
 31
0.0
  0
LINE
  5
FB
100
AcDbEntity
  8
0
  6
CONTINUOUS
 62
     7
100
AcDbLine
 10
-93.023003
 20
86.908463
 30
0.0
 11
-94.022018
 21
86.908463
 31
0.0
  0
LINE
  5
FC
100
AcDbEntity
  8
0
  6
CONTINUOUS
 62
     7
100
AcDbLine
 10
-96.575073
 20
82.900047
 30
0.0
 11
-95.964561
 21
82.900047
 31
0.0
  0
LINE
  5
FD
100
AcDbEntity
  8
0
  6
CONTINUOUS
 62
     7
100
AcDbLine
 10
-92.634483
 20
82.900047
 30
0.0
 11
-91.968475
 21
82.900047
 31
0.0
  0
LINE
  5
FE
100
AcDbEntity
  8
0
  6
CONTINUOUS
 62
     7
100
AcDbLine
 10
-95.132019
 20
82.900063
 30
0.0
 11
-95.964531
 21
85.906372
 31
0.0
  0
LINE
  5
FF
100
AcDbEntity
  8
0
  6
CONTINUOUS
 62
     7
100
AcDbLine
 10
-93.633507
 20
85.906532
 30
0.0
 11
-94.466087
 21
82.900063
 31
0.0
  0
LINE
  5
100
100
AcDbEntity
  8
0
  6
CONTINUOUS
 62
     7
100
AcDbLine
 10
-94.798965
 20
84.102554
 30
0.0
 11
-94.021957
 21
86.90844
 31
0.0
  0
LINE
  5
101
100
AcDbEntity
  8
0
  6
CONTINUOUS
 62
     7
100
AcDbLine
 10
-95.576096
 20
86.908447
 30
0.0
 11
-94.79908
 21
84.102554
 31
0.0
  0
LINE
  5
102
100
AcDbEntity
  8
0
  6
CONTINUOUS
 62
     7
100
AcDbLine
 10
-72.321053
 20
82.900047
 30
0.0
 11
-72.321053
 21
86.908463
 31
0.0
  0
LINE
  5
103
100
AcDbEntity
  8
0
  6
CONTINUOUS
 62
     7
100
AcDbLine
 10
-72.654068
 20
82.900047
 30
0.0
 11
-72.654068
 21
86.908463
 31
0.0
  0
LINE
  5
104
100
AcDbEntity
  8
0
  6
CONTINUOUS
 62
     7
100
AcDbLine
 10
-73.37558
 20
82.900047
 30
0.0
 11
-73.37558
 21
84.688416
 31
0.0
  0
LINE
  5
105
100
AcDbEntity
  8
0
  6
CONTINUOUS
 62
     7
100
AcDbLine
 10
-74.8741
 20
82.900047
 30
0.0
 11
-74.8741
 21
84.688416
 31
0.0
  0
LINE
  5
106
100
AcDbEntity
  8
0
  6
CONTINUOUS
 62
     7
100
AcDbLine
 10
-75.595627
 20
82.900047
 30
0.0
 11
-75.595627
 21
86.908463
 31
0.0
  0
LINE
  5
107
100
AcDbEntity
  8
0
  6
CONTINUOUS
 62
     7
100
AcDbLine
 10
-78.981194
 20
82.900047
 30
0.0
 11
-78.981194
 21
86.908463
 31
0.0
  0
LINE
  5
108
100
AcDbEntity
  8
0
  6
CONTINUOUS
 62
     7
100
AcDbLine
 10
-79.702705
 20
82.900047
 30
0.0
 11
-79.702705
 21
86.908463
 31
0.0
  0
LINE
  5
109
100
AcDbEntity
  8
0
  6
CONTINUOUS
 62
     7
100
AcDbLine
 10
-82.810776
 20
82.900047
 30
0.0
 11
-82.810776
 21
86.908463
 31
0.0
  0
LINE
  5
10A
100
AcDbEntity
  8
0
  6
CONTINUOUS
 62
     7
100
AcDbLine
 10
-83.143784
 20
86.908463
 30
0.0
 11
-83.143784
 21
84.133415
 31
0.0
  0
LINE
  5
10B
100
AcDbEntity
  8
0
  6
CONTINUOUS
 62
     7
100
AcDbLine
 10
-83.809799
 20
84.133415
 30
0.0
 11
-83.809799
 21
86.908463
 31
0.0
  0
LINE
  5
10C
100
AcDbEntity
  8
0
  6
CONTINUOUS
 62
     7
100
AcDbLine
 10
-85.308334
 20
84.133415
 30
0.0
 11
-85.308334
 21
86.908463
 31
0.0
  0
LINE
  5
10D
100
AcDbEntity
  8
0
  6
CONTINUOUS
 62
     7
100
AcDbLine
 10
-85.974342
 20
84.133415
 30
0.0
 11
-85.974342
 21
86.908463
 31
0.0
  0
LINE
  5
10E
100
AcDbEntity
  8
0
  6
CONTINUOUS
 62
     7
100
AcDbLine
 10
-86.224098
 20
84.142021
 30
0.0
 11
-86.224098
 21
84.133415
 31
0.0
  0
LINE
  5
10F
100
AcDbEntity
  8
0
  6
CONTINUOUS
 62
     7
100
AcDbLine
 10
-89.221161
 20
86.291794
 30
0.0
 11
-89.221161
 21
86.908463
 31
0.0
  0
LINE
  5
110
100
AcDbEntity
  8
0
  6
CONTINUOUS
 62
     7
100
AcDbLine
 10
-91.718727
 20
86.908463
 30
0.0
 11
-91.718727
 21
86.291794
 31
0.0
  0
LINE
  5
111
100
AcDbEntity
  8
0
  6
CONTINUOUS
 62
     7
100
AcDbLine
 10
-91.968475
 20
86.908463
 30
0.0
 11
-91.968475
 21
82.900047
 31
0.0
  0
LINE
  5
112
100
AcDbEntity
  8
0
  6
CONTINUOUS
 62
     7
100
AcDbLine
 10
-92.634483
 20
86.908463
 30
0.0
 11
-92.634483
 21
82.900047
 31
0.0
  0
LINE
  5
113
100
AcDbEntity
  8
0
  6
CONTINUOUS
 62
     7
100
AcDbLine
 10
-93.023003
 20
86.908463
 30
0.0
 11
-93.023003
 21
82.900047
 31
0.0
  0
LINE
  5
114
100
AcDbEntity
  8
0
  6
CONTINUOUS
 62
     7
100
AcDbLine
 10
-93.633507
 20
85.906532
 30
0.0
 11
-93.633507
 21
82.900047
 31
0.0
  0
LINE
  5
115
100
AcDbEntity
  8
0
  6
CONTINUOUS
 62
     7
100
AcDbLine
 10
-95.964561
 20
85.906357
 30
0.0
 11
-95.964561
 21
82.900047
 31
0.0
  0
LINE
  5
116
100
AcDbEntity
  8
0
  6
CONTINUOUS
 62
     7
100
AcDbLine
 10
-96.575073
 20
86.908463
 30
0.0
 11
-96.575073
 21
82.900047
 31
0.0
  0
LINE
  5
117
100
AcDbEntity
  8
0
  6
CONTINUOUS
 62
     7
100
AcDbLine
 10
-71.599541
 20
86.908463
 30
0.0
 11
-72.321053
 21
86.908463
 31
0.0
  0
LINE
  5
118
100
AcDbEntity
  8
0
  6
CONTINUOUS
 62
     7
100
AcDbLine
 10
-71.599541
 20
82.900047
 30
0.0
 11
-71.599541
 21
86.908463
 31
0.0
  0
LINE
  5
119
100
AcDbEntity
  8
0
  6
CONTINUOUS
 62
     7
100
AcDbLine
 10
-89.18438
 20
57.744831
 30
0.0
 11
-89.18438
 21
58.33897
 31
0.0
  0
LINE
  5
11A
100
AcDbEntity
  8
0
  6
CONTINUOUS
 62
     7
100
AcDbLine
 10
-99.616547
 20
60.897049
 30
0.0
 11
-98.777176
 21
60.897049
 31
0.0
  0
LINE
  5
11B
100
AcDbEntity
  8
0
  6
CONTINUOUS
 62
     7
100
AcDbLine
 10
-98.377487
 20
60.897049
 30
0.0
 11
-96.938553
 21
60.897049
 31
0.0
  0
LINE
  5
11C
100
AcDbEntity
  8
0
  6
CONTINUOUS
 62
     7
100
AcDbLine
 10
-96.618797
 20
60.897049
 30
0.0
 11
-95.979279
 21
60.897049
 31
0.0
  0
LINE
  5
11D
100
AcDbEntity
  8
0
  6
CONTINUOUS
 62
     7
100
AcDbLine
 10
-92.78167
 20
60.897049
 30
0.0
 11
-91.342758
 21
60.897049
 31
0.0
  0
LINE
  5
11E
100
AcDbEntity
  8
0
  6
CONTINUOUS
 62
     7
100
AcDbLine
 10
-90.383484
 20
57.744831
 30
0.0
 11
-90.383484
 21
60.052273
 31
0.0
  0
LINE
  5
11F
100
AcDbEntity
  8
0
  6
CONTINUOUS
 62
     7
100
AcDbLine
 10
-91.018852
 20
57.663616
 30
0.0
 11
-91.018852
 21
60.133484
 31
0.0
  0
LINE
  5
120
100
AcDbEntity
  8
0
  6
CONTINUOUS
 62
     7
100
AcDbLine
 10
-89.18438
 20
59.45813
 30
0.0
 11
-89.823898
 21
59.45813
 31
0.0
  0
LINE
  5
121
100
AcDbEntity
  8
0
  6
CONTINUOUS
 62
     7
100
AcDbLine
 10
-89.18438
 20
58.33897
 30
0.0
 11
-89.823898
 21
58.33897
 31
0.0
  0
LINE
  5
122
100
AcDbEntity
  8
0
  6
CONTINUOUS
 62
     7
100
AcDbLine
 10
-89.823898
 20
58.33897
 30
0.0
 11
-89.823898
 21
57.744831
 31
0.0
  0
LINE
  5
123
100
AcDbEntity
  8
0
  6
CONTINUOUS
 62
     7
100
AcDbLine
 10
-89.18438
 20
59.45813
 30
0.0
 11
-89.823898
 21
59.45813
 31
0.0
  0
LINE
  5
124
100
AcDbEntity
  8
0
  6
CONTINUOUS
 62
     7
100
AcDbLine
 10
-89.823898
 20
59.45813
 30
0.0
 11
-89.823898
 21
60.052273
 31
0.0
  0
LINE
  5
125
100
AcDbEntity
  8
0
  6
CONTINUOUS
 62
     7
100
AcDbLine
 10
-89.18438
 20
59.45813
 30
0.0
 11
-89.18438
 21
60.052273
 31
0.0
  0
LINE
  5
126
100
AcDbEntity
  8
0
  6
CONTINUOUS
 62
     7
100
AcDbLine
 10
-91.342758
 20
60.25753
 30
0.0
 11
-91.342758
 21
60.897049
 31
0.0
  0
LINE
  5
127
100
AcDbEntity
  8
0
  6
CONTINUOUS
 62
     7
100
AcDbLine
 10
-91.342758
 20
60.25753
 30
0.0
 11
-92.142159
 21
60.25753
 31
0.0
  0
LINE
  5
128
100
AcDbEntity
  8
0
  6
CONTINUOUS
 62
     7
100
AcDbLine
 10
-92.142159
 20
59.218311
 30
0.0
 11
-92.142159
 21
60.25753
 31
0.0
  0
LINE
  5
129
100
AcDbEntity
  8
0
  6
CONTINUOUS
 62
     7
100
AcDbLine
 10
-91.342758
 20
59.218311
 30
0.0
 11
-92.142159
 21
59.218311
 31
0.0
  0
LINE
  5
12A
100
AcDbEntity
  8
0
  6
CONTINUOUS
 62
     7
100
AcDbLine
 10
-91.342758
 20
58.578793
 30
0.0
 11
-91.342758
 21
59.218311
 31
0.0
  0
LINE
  5
12B
100
AcDbEntity
  8
0
  6
CONTINUOUS
 62
     7
100
AcDbLine
 10
-91.342758
 20
58.578793
 30
0.0
 11
-92.142159
 21
58.578793
 31
0.0
  0
LINE
  5
12C
100
AcDbEntity
  8
0
  6
CONTINUOUS
 62
     7
100
AcDbLine
 10
-92.142159
 20
57.53957
 30
0.0
 11
-92.142159
 21
58.578793
 31
0.0
  0
LINE
  5
12D
100
AcDbEntity
  8
0
  6
CONTINUOUS
 62
     7
100
AcDbLine
 10
-92.78167
 20
56.900051
 30
0.0
 11
-92.78167
 21
60.897049
 31
0.0
  0
LINE
  5
12E
100
AcDbEntity
  8
0
  6
CONTINUOUS
 62
     7
100
AcDbLine
 10
-94.380486
 20
57.744831
 30
0.0
 11
-94.380486
 21
58.33897
 31
0.0
  0
LINE
  5
12F
100
AcDbEntity
  8
0
  6
CONTINUOUS
 62
     7
100
AcDbLine
 10
-93.8209
 20
59.45813
 30
0.0
 11
-93.8209
 21
60.052273
 31
0.0
  0
LINE
  5
130
100
AcDbEntity
  8
0
  6
CONTINUOUS
 62
     7
100
AcDbLine
 10
-93.867722
 20
58.094929
 30
0.0
 11
-94.781723
 21
59.00893
 31
0.0
  0
LINE
  5
131
100
AcDbEntity
  8
0
  6
CONTINUOUS
 62
     7
100
AcDbLine
 10
-94.380486
 20
59.564323
 30
0.0
 11
-94.380486
 21
60.052273
 31
0.0
  0
LINE
  5
132
100
AcDbEntity
  8
0
  6
CONTINUOUS
 62
     7
100
AcDbLine
 10
-94.333641
 20
59.451271
 30
0.0
 11
-93.415504
 21
58.533138
 31
0.0
  0
LINE
  5
133
100
AcDbEntity
  8
0
  6
CONTINUOUS
 62
     7
100
AcDbLine
 10
-95.015854
 20
59.574188
 30
0.0
 11
-95.015854
 21
60.133484
 31
0.0
  0
LINE
  5
134
100
AcDbEntity
  8
0
  6
CONTINUOUS
 62
     7
100
AcDbLine
 10
-95.020004
 20
58.33897
 30
0.0
 11
-94.380486
 21
58.33897
 31
0.0
  0
LINE
  5
135
100
AcDbEntity
  8
0
  6
CONTINUOUS
 62
     7
100
AcDbLine
 10
-93.181381
 20
59.45813
 30
0.0
 11
-93.8209
 21
59.45813
 31
0.0
  0
LINE
  5
136
100
AcDbEntity
  8
0
  6
CONTINUOUS
 62
     7
100
AcDbLine
 10
-93.181381
 20
59.45813
 30
0.0
 11
-93.181381
 21
60.052273
 31
0.0
  0
LINE
  5
137
100
AcDbEntity
  8
0
  6
CONTINUOUS
 62
     7
100
AcDbLine
 10
-95.020004
 20
57.744831
 30
0.0
 11
-95.020004
 21
58.33897
 31
0.0
  0
LINE
  5
138
100
AcDbEntity
  8
0
  6
CONTINUOUS
 62
     7
100
AcDbLine
 10
-95.979279
 20
57.53957
 30
0.0
 11
-95.979279
 21
60.897049
 31
0.0
  0
LINE
  5
139
100
AcDbEntity
  8
0
  6
CONTINUOUS
 62
     7
100
AcDbLine
 10
-96.618797
 20
56.900051
 30
0.0
 11
-96.618797
 21
60.897049
 31
0.0
  0
LINE
  5
13A
100
AcDbEntity
  8
0
  6
CONTINUOUS
 62
     7
100
AcDbLine
 10
-96.938553
 20
59.218311
 30
0.0
 11
-97.737946
 21
59.218311
 31
0.0
  0
LINE
  5
13B
100
AcDbEntity
  8
0
  6
CONTINUOUS
 62
     7
100
AcDbLine
 10
-96.938553
 20
58.578793
 30
0.0
 11
-97.737946
 21
58.578793
 31
0.0
  0
LINE
  5
13C
100
AcDbEntity
  8
0
  6
CONTINUOUS
 62
     7
100
AcDbLine
 10
-96.938553
 20
60.25753
 30
0.0
 11
-97.737946
 21
60.25753
 31
0.0
  0
LINE
  5
13D
100
AcDbEntity
  8
0
  6
CONTINUOUS
 62
     7
100
AcDbLine
 10
-97.737946
 20
57.53957
 30
0.0
 11
-97.737946
 21
58.578793
 31
0.0
  0
LINE
  5
13E
100
AcDbEntity
  8
0
  6
CONTINUOUS
 62
     7
100
AcDbLine
 10
-97.737946
 20
59.218311
 30
0.0
 11
-97.737946
 21
60.25753
 31
0.0
  0
LINE
  5
13F
100
AcDbEntity
  8
0
  6
CONTINUOUS
 62
     7
100
AcDbLine
 10
-96.938553
 20
60.25753
 30
0.0
 11
-96.938553
 21
60.897049
 31
0.0
  0
LINE
  5
140
100
AcDbEntity
  8
0
  6
CONTINUOUS
 62
     7
100
AcDbLine
 10
-96.938553
 20
58.578793
 30
0.0
 11
-96.938553
 21
59.218311
 31
0.0
  0
LINE
  5
141
100
AcDbEntity
  8
0
  6
CONTINUOUS
 62
     7
100
AcDbLine
 10
-98.377487
 20
56.900051
 30
0.0
 11
-98.377487
 21
60.897049
 31
0.0
  0
LINE
  5
142
100
AcDbEntity
  8
0
  6
CONTINUOUS
 62
     7
100
AcDbLine
 10
-101.57507
 20
60.897049
 30
0.0
 11
-100.7357
 21
60.897049
 31
0.0
  0
LINE
  5
143
100
AcDbEntity
  8
0
  6
CONTINUOUS
 62
     7
100
AcDbLine
 10
-100.93555
 20
56.900051
 30
0.0
 11
-100.93555
 21
59.45813
 31
0.0
  0
LINE
  5
144
100
AcDbEntity
  8
0
  6
CONTINUOUS
 62
     7
100
AcDbLine
 10
-99.416687
 20
56.900051
 30
0.0
 11
-99.416687
 21
59.45813
 31
0.0
  0
LINE
  5
145
100
AcDbEntity
  8
0
  6
CONTINUOUS
 62
     7
100
AcDbLine
 10
-99.616539
 20
60.897049
 30
0.0
 11
-100.17613
 21
58.338974
 31
0.0
  0
LINE
  5
146
100
AcDbEntity
  8
0
  6
CONTINUOUS
 62
     7
100
AcDbLine
 10
-100.73569
 20
60.897053
 30
0.0
 11
-100.17613
 21
58.33897
 31
0.0
  0
LINE
  5
147
100
AcDbEntity
  8
0
  6
CONTINUOUS
 62
     7
100
AcDbLine
 10
-99.416687
 20
59.45813
 30
0.0
 11
-99.97628
 21
56.900051
 31
0.0
  0
LINE
  5
148
100
AcDbEntity
  8
0
  6
CONTINUOUS
 62
     7
100
AcDbLine
 10
-100.93555
 20
59.458134
 30
0.0
 11
-100.37598
 21
56.900051
 31
0.0
  0
LINE
  5
149
100
AcDbEntity
  8
0
  6
CONTINUOUS
 62
     7
100
AcDbLine
 10
-98.777176
 20
56.900051
 30
0.0
 11
-98.777176
 21
60.897049
 31
0.0
  0
LINE
  5
14A
100
AcDbEntity
  8
0
  6
CONTINUOUS
 62
     7
100
AcDbLine
 10
-98.377487
 20
56.900051
 30
0.0
 11
-96.938553
 21
56.900051
 31
0.0
  0
LINE
  5
14B
100
AcDbEntity
  8
0
  6
CONTINUOUS
 62
     7
100
AcDbLine
 10
-99.416687
 20
56.900051
 30
0.0
 11
-98.777176
 21
56.900051
 31
0.0
  0
LINE
  5
14C
100
AcDbEntity
  8
0
  6
CONTINUOUS
 62
     7
100
AcDbLine
 10
-96.618797
 20
56.900051
 30
0.0
 11
-95.179878
 21
56.900051
 31
0.0
  0
LINE
  5
14D
100
AcDbEntity
  8
0
  6
CONTINUOUS
 62
     7
100
AcDbLine
 10
-92.78167
 20
56.900051
 30
0.0
 11
-91.342758
 21
56.900051
 31
0.0
  0
LINE
  5
14E
100
AcDbEntity
  8
0
  6
CONTINUOUS
 62
     7
100
AcDbLine
 10
-95.979279
 20
57.53957
 30
0.0
 11
-95.179878
 21
57.53957
 31
0.0
  0
LINE
  5
14F
100
AcDbEntity
  8
0
  6
CONTINUOUS
 62
     7
100
AcDbLine
 10
-91.342758
 20
57.53957
 30
0.0
 11
-92.142159
 21
57.53957
 31
0.0
  0
LINE
  5
150
100
AcDbEntity
  8
0
  6
CONTINUOUS
 62
     7
100
AcDbLine
 10
-91.342758
 20
56.900051
 30
0.0
 11
-91.342758
 21
57.53957
 31
0.0
  0
LINE
  5
151
100
AcDbEntity
  8
0
  6
CONTINUOUS
 62
     7
100
AcDbLine
 10
-93.8209
 20
57.744831
 30
0.0
 11
-93.8209
 21
57.981876
 31
0.0
  0
LINE
  5
152
100
AcDbEntity
  8
0
  6
CONTINUOUS
 62
     7
100
AcDbLine
 10
-93.181381
 20
57.744831
 30
0.0
 11
-93.181381
 21
57.96788
 31
0.0
  0
LINE
  5
153
100
AcDbEntity
  8
0
  6
CONTINUOUS
 62
     7
100
AcDbLine
 10
-95.179878
 20
56.900051
 30
0.0
 11
-95.179878
 21
57.53957
 31
0.0
  0
LINE
  5
154
100
AcDbEntity
  8
0
  6
CONTINUOUS
 62
     7
100
AcDbLine
 10
-96.938553
 20
57.53957
 30
0.0
 11
-97.737946
 21
57.53957
 31
0.0
  0
LINE
  5
155
100
AcDbEntity
  8
0
  6
CONTINUOUS
 62
     7
100
AcDbLine
 10
-96.938553
 20
56.900051
 30
0.0
 11
-96.938553
 21
57.53957
 31
0.0
  0
LINE
  5
156
100
AcDbEntity
  8
0
  6
CONTINUOUS
 62
     7
100
AcDbLine
 10
-101.57507
 20
56.900051
 30
0.0
 11
-100.93555
 21
56.900051
 31
0.0
  0
LINE
  5
157
100
AcDbEntity
  8
0
  6
CONTINUOUS
 62
     7
100
AcDbLine
 10
-100.37598
 20
56.900051
 30
0.0
 11
-99.97628
 21
56.900051
 31
0.0
  0
LINE
  5
158
100
AcDbEntity
  8
0
  6
CONTINUOUS
 62
     7
100
AcDbLine
 10
-96.575073
 20
82.900047
 30
0.0
 11
-95.999504
 21
82.900047
 31
0.0
  0
LINE
  5
159
100
AcDbEntity
  8
0
  6
CONTINUOUS
 62
     7
100
AcDbLine
 10
-95.132019
 20
82.900063
 30
0.0
 11
-94.46608
 21
82.900063
 31
0.0
  0
LINE
  5
15A
100
AcDbEntity
  8
0
  6
CONTINUOUS
 62
     7
100
AcDbLine
 10
-93.633507
 20
82.900047
 30
0.0
 11
-93.023003
 21
82.900047
 31
0.0
  0
LINE
  5
15B
100
AcDbEntity
  8
0
  6
CONTINUOUS
 62
     7
100
AcDbLine
 10
-123.57507
 20
92.900047
 30
0.0
 11
-7.07507
 21
92.900047
 31
0.0
  0
LINE
  5
15C
100
AcDbEntity
  8
0
  6
CONTINUOUS
 62
     7
100
AcDbLine
 10
-18.575069
 20
50.900051
 30
0.0
 11
-18.575069
 21
92.900047
 31
0.0
  0
LINE
  5
15D
100
AcDbEntity
  8
0
  6
CONTINUOUS
 62
     7
100
AcDbLine
 10
127.62492
 20
-108.18798
 30
0.0
 11
127.62492
 21
-112.18798
 31
0.0
  0
LINE
  5
15E
100
AcDbEntity
  8
0
  6
CONTINUOUS
 62
     7
100
AcDbLine
 10
126.92493
 20
-109.48798
 30
0.0
 11
127.62493
 21
-109.37132
 31
0.0
  0
LINE
  5
15F
100
AcDbEntity
  8
0
  6
CONTINUOUS
 62
     7
100
AcDbLine
 10
126.12492
 20
-110.18797
 30
0.0
 11
126.92492
 21
-109.48798
 31
0.0
  0
LINE
  5
160
100
AcDbEntity
  8
0
  6
CONTINUOUS
 62
     7
100
AcDbLine
 10
126.12492
 20
-110.18798
 30
0.0
 11
126.12492
 21
-111.68798
 31
0.0
  0
LINE
  5
161
100
AcDbEntity
  8
0
  6
CONTINUOUS
 62
     7
100
AcDbLine
 10
122.92493
 20
-108.93798
 30
0.0
 11
121.42493
 21
-108.18798
 31
0.0
  0
LINE
  5
162
100
AcDbEntity
  8
0
  6
CONTINUOUS
 62
     7
100
AcDbLine
 10
124.42493
 20
-108.18799
 30
0.0
 11
122.92493
 21
-108.93799
 31
0.0
  0
ARC
  5
163
100
AcDbEntity
  8
0
  6
CONTINUOUS
 62
     7
100
AcDbCircle
 10
-7.07507
 20
37.400051
 30
0.0
 40
0.5
100
AcDbArc
 50
270.0
 51
0.0
  0
ARC
  5
164
100
AcDbEntity
  8
0
  6
CONTINUOUS
 62
     7
100
AcDbCircle
 10
-16.075069
 20
27.400051
 30
0.0
 40
0.5
100
AcDbArc
 50
270.0
 51
0.0
  0
ARC
  5
165
100
AcDbEntity
  8
0
  6
CONTINUOUS
 62
     7
100
AcDbCircle
 10
-14.575069
 20
35.900051
 30
0.0
 40
1.0
100
AcDbArc
 50
90.0
 51
180.0
  0
ARC
  5
166
100
AcDbEntity
  8
0
  6
CONTINUOUS
 62
     7
100
AcDbCircle
 10
110.42493
 20
-525.48798
 30
0.0
 40
500.0
100
AcDbArc
 50
88.452828
 51
91.547177
  0
ARC
  5
167
100
AcDbEntity
  8
0
  6
CONTINUOUS
 62
     7
100
AcDbCircle
 10
120.45655
 20
-55.469097
 30
0.0
 40
30.0
100
AcDbArc
 50
69.215124
 51
83.361043
  0
ARC
  5
168
100
AcDbEntity
  8
0
  6
CONTINUOUS
 62
     7
100
AcDbCircle
 10
100.18253
 20
-55.492874
 30
0.0
 40
30.0
100
AcDbArc
 50
96.233862
 51
110.34763
  0
ARC
  5
169
100
AcDbEntity
  8
0
  6
CONTINUOUS
 62
     7
100
AcDbCircle
 10
89.924927
 20
-27.83367
 30
0.0
 40
0.5
100
AcDbArc
 50
110.34776
 51
180.0
  0
ARC
  5
16A
100
AcDbEntity
  8
0
  6
CONTINUOUS
 62
     7
100
AcDbCircle
 10
130.92493
 20
-27.888975
 30
0.0
 40
0.5
100
AcDbArc
 50
0.0
 51
69.215258
  0
ARC
  5
16B
100
AcDbEntity
  8
0
  6
CONTINUOUS
 62
     7
100
AcDbCircle
 10
65.924927
 20
-103.68798
 30
0.0
 40
0.5
100
AcDbArc
 50
90.0
 51
180.0
  0
ARC
  5
16C
100
AcDbEntity
  8
0
  6
CONTINUOUS
 62
     7
100
AcDbCircle
 10
74.924927
 20
-102.68798
 30
0.0
 40
0.5
100
AcDbArc
 50
270.0
 51
0.0
  0
ARC
  5
16D
100
AcDbEntity
  8
0
  6
CONTINUOUS
 62
     7
100
AcDbCircle
 10
-7.07507
 20
-103.68798
 30
0.0
 40
0.5
100
AcDbArc
 50
0.0
 51
90.0
  0
ARC
  5
16E
100
AcDbEntity
  8
0
  6
CONTINUOUS
 62
     7
100
AcDbCircle
 10
-54.575069
 20
24.900051
 30
0.0
 40
2.0
100
AcDbArc
 50
180.0
 51
270.0
  0
ARC
  5
16F
100
AcDbEntity
  8
0
  6
CONTINUOUS
 62
     7
100
AcDbCircle
 10
-38.575069
 20
24.900051
 30
0.0
 40
2.0
100
AcDbArc
 50
270.0
 51
0.0
  0
ARC
  5
170
100
AcDbEntity
  8
0
  6
CONTINUOUS
 62
     7
100
AcDbCircle
 10
-124.57507
 20
24.900051
 30
0.0
 40
2.0
100
AcDbArc
 50
180.0
 51
270.0
  0
ARC
  5
171
100
AcDbEntity
  8
0
  6
CONTINUOUS
 62
     7
100
AcDbCircle
 10
-108.57507
 20
24.900051
 30
0.0
 40
2.0
100
AcDbArc
 50
270.0
 51
0.0
  0
ARC
  5
172
100
AcDbEntity
  8
0
  6
CONTINUOUS
 62
     7
100
AcDbCircle
 10
-7.07507
 20
-25.987984
 30
0.0
 40
0.5
100
AcDbArc
 50
0.0
 51
90.0
  0
ARC
  5
173
100
AcDbEntity
  8
0
  6
CONTINUOUS
 62
     7
100
AcDbCircle
 10
-156.07507
 20
-28.487984
 30
0.0
 40
0.5
100
AcDbArc
 50
90.0
 51
180.0
  0
ARC
  5
174
100
AcDbEntity
  8
0
  6
CONTINUOUS
 62
     7
100
AcDbCircle
 10
-129.38069
 20
-25.687983
 30
0.0
 40
0.2
100
AcDbArc
 50
90.0
 51
142.884
  0
CIRCLE
  5
175
100
AcDbEntity
  8
0
  6
CONTINUOUS
 62
     7
100
AcDbCircle
 10
-151.57507
 20
111.90005
 30
0.0
 40
2.25
  0
CIRCLE
  5
176
100
AcDbEntity
  8
0
  6
CONTINUOUS
 62
     7
100
AcDbCircle
 10
-11.575069
 20
31.900051
 30
0.0
 40
2.25
  0
ARC
  5
177
100
AcDbEntity
  8
0
  6
CONTINUOUS
 62
     7
100
AcDbCircle
 10
-140.57507
 20
87.400047
 30
0.0
 40
1.0
100
AcDbArc
 50
0.0
 51
90.0
  0
ARC
  5
178
100
AcDbEntity
  8
0
  6
CONTINUOUS
 62
     7
100
AcDbCircle
 10
-140.57507
 20
56.400051
 30
0.0
 40
1.0
100
AcDbArc
 50
270.0
 51
0.0
  0
ARC
  5
179
100
AcDbEntity
  8
0
  6
CONTINUOUS
 62
     7
100
AcDbCircle
 10
-154.07507
 20
56.400051
 30
0.0
 40
1.0
100
AcDbArc
 50
180.0
 51
270.0
  0
ARC
  5
17A
100
AcDbEntity
  8
0
  6
CONTINUOUS
 62
     7
100
AcDbCircle
 10
-154.07507
 20
87.400047
 30
0.0
 40
1.0
100
AcDbArc
 50
90.0
 51
180.0
  0
ARC
  5
17B
100
AcDbEntity
  8
0
  6
CONTINUOUS
 62
     7
100
AcDbCircle
 10
-8.575069
 20
28.900051
 30
0.0
 40
2.0
100
AcDbArc
 50
270.0
 51
0.0
  0
ARC
  5
17C
100
AcDbEntity
  8
0
  6
CONTINUOUS
 62
     7
100
AcDbCircle
 10
-8.575069
 20
114.90005
 30
0.0
 40
2.0
100
AcDbArc
 50
0.0
 51
90.0
  0
ARC
  5
17D
100
AcDbEntity
  8
0
  6
CONTINUOUS
 62
     7
100
AcDbCircle
 10
67.424927
 20
-31.101068
 30
0.0
 40
2.0
100
AcDbArc
 50
92.544727
 51
180.0
  0
ARC
  5
17E
100
AcDbEntity
  8
0
  6
CONTINUOUS
 62
     7
100
AcDbCircle
 10
86.924927
 20
-35.487984
 30
0.0
 40
1.0
100
AcDbArc
 50
270.0
 51
0.0
  0
ARC
  5
17F
100
AcDbEntity
  8
0
  6
CONTINUOUS
 62
     7
100
AcDbCircle
 10
153.42493
 20
-31.101068
 30
0.0
 40
2.0
100
AcDbArc
 50
0.0
 51
87.455055
  0
ARC
  5
180
100
AcDbEntity
  8
0
  6
CONTINUOUS
 62
     7
100
AcDbCircle
 10
133.92493
 20
-35.487984
 30
0.0
 40
1.0
100
AcDbArc
 50
180.0
 51
270.0
  0
ARC
  5
181
100
AcDbEntity
  8
0
  6
CONTINUOUS
 62
     7
100
AcDbCircle
 10
-16.377241
 20
-32.987984
 30
0.0
 40
1.0
100
AcDbArc
 50
12.528808
 51
90.0
  0
ARC
  5
182
100
AcDbEntity
  8
0
  6
CONTINUOUS
 62
     7
100
AcDbCircle
 10
-113.2729
 20
-32.987984
 30
0.0
 40
1.0
100
AcDbArc
 50
90.0
 51
167.47122
  0
ARC
  5
183
100
AcDbEntity
  8
0
  6
CONTINUOUS
 62
     7
100
AcDbCircle
 10
92.636459
 20
-111.98798
 30
0.0
 40
0.2
100
AcDbArc
 50
270.0
 51
317.72572
  0
ARC
  5
184
100
AcDbEntity
  8
0
  6
CONTINUOUS
 62
     7
100
AcDbCircle
 10
-154.57507
 20
114.90005
 30
0.0
 40
2.0
100
AcDbArc
 50
90.0
 51
180.0
  0
ARC
  5
185
100
AcDbEntity
  8
0
  6
CONTINUOUS
 62
     7
100
AcDbCircle
 10
-124.07507
 20
116.40005
 30
0.0
 40
0.5
100
AcDbArc
 50
0.0
 51
90.0
  0
ARC
  5
186
100
AcDbEntity
  8
0
  6
CONTINUOUS
 62
     7
100
AcDbCircle
 10
-124.07507
 20
27.400051
 30
0.0
 40
0.5
100
AcDbArc
 50
270.0
 51
0.0
  0
ARC
  5
187
100
AcDbEntity
  8
0
  6
CONTINUOUS
 62
     7
100
AcDbCircle
 10
-154.57507
 20
28.900051
 30
0.0
 40
2.0
100
AcDbArc
 50
180.0
 51
270.0
  0
ARC
  5
188
100
AcDbEntity
  8
0
  6
CONTINUOUS
 62
     7
100
AcDbCircle
 10
-100.09636
 20
71.900047
 30
0.0
 40
31.5
100
AcDbArc
 50
138.18969
 51
221.81031
  0
ARC
  5
189
100
AcDbEntity
  8
0
  6
CONTINUOUS
 62
     7
100
AcDbCircle
 10
-90.223602
 20
60.052273
 30
0.0
 40
0.159874
100
AcDbArc
 50
131.45575
 51
180.0
  0
ARC
  5
18A
100
AcDbEntity
  8
0
  6
CONTINUOUS
 62
     7
100
AcDbCircle
 10
-90.103683
 20
59.916534
 30
0.0
 40
0.340985
100
AcDbArc
 50
48.543934
 51
131.45884
  0
ARC
  5
18B
100
AcDbEntity
  8
0
  6
CONTINUOUS
 62
     7
100
AcDbCircle
 10
-90.103683
 20
59.916534
 30
0.0
 40
0.980516
100
AcDbArc
 50
48.542099
 51
131.4579
  0
ARC
  5
18C
100
AcDbEntity
  8
0
  6
CONTINUOUS
 62
     7
100
AcDbCircle
 10
-89.98378
 20
60.052273
 30
0.0
 40
0.799397
100
AcDbArc
 50
0.0
 51
48.541795
  0
ARC
  5
18D
100
AcDbEntity
  8
0
  6
CONTINUOUS
 62
     7
100
AcDbCircle
 10
-89.98378
 20
60.052273
 30
0.0
 40
0.159879
100
AcDbArc
 50
0.0
 51
48.54311
  0
ARC
  5
18E
100
AcDbEntity
  8
0
  6
CONTINUOUS
 62
     7
100
AcDbCircle
 10
-90.223602
 20
60.052273
 30
0.0
 40
0.799393
100
AcDbArc
 50
131.45743
 51
174.16894
  0
ARC
  5
18F
100
AcDbEntity
  8
0
  6
CONTINUOUS
 62
     7
100
AcDbCircle
 10
-93.980774
 20
57.981876
 30
0.0
 40
0.159879
100
AcDbArc
 50
0.0
 51
44.999033
  0
ARC
  5
190
100
AcDbEntity
  8
0
  6
CONTINUOUS
 62
     7
100
AcDbCircle
 10
-94.220604
 20
59.564323
 30
0.0
 40
0.159879
100
AcDbArc
 50
180.0
 51
225.00387
  0
ARC
  5
191
100
AcDbEntity
  8
0
  6
CONTINUOUS
 62
     7
100
AcDbCircle
 10
-93.980774
 20
57.96788
 30
0.0
 40
0.799397
100
AcDbArc
 50
0.0
 51
44.999613
  0
ARC
  5
192
100
AcDbEntity
  8
0
  6
CONTINUOUS
 62
     7
100
AcDbCircle
 10
-94.216454
 20
59.574188
 30
0.0
 40
0.799397
100
AcDbArc
 50
180.0
 51
224.99961
  0
ARC
  5
193
100
AcDbEntity
  8
0
  6
CONTINUOUS
 62
     7
100
AcDbCircle
 10
-94.220604
 20
60.052273
 30
0.0
 40
0.799393
100
AcDbArc
 50
131.45743
 51
174.16894
  0
ARC
  5
194
100
AcDbEntity
  8
0
  6
CONTINUOUS
 62
     7
100
AcDbCircle
 10
-93.980774
 20
60.052273
 30
0.0
 40
0.159879
100
AcDbArc
 50
0.0
 51
48.54311
  0
ARC
  5
195
100
AcDbEntity
  8
0
  6
CONTINUOUS
 62
     7
100
AcDbCircle
 10
-94.220604
 20
60.052273
 30
0.0
 40
0.159874
100
AcDbArc
 50
131.45575
 51
180.0
  0
ARC
  5
196
100
AcDbEntity
  8
0
  6
CONTINUOUS
 62
     7
100
AcDbCircle
 10
-94.100685
 20
59.916534
 30
0.0
 40
0.340985
100
AcDbArc
 50
48.543934
 51
131.45884
  0
ARC
  5
197
100
AcDbEntity
  8
0
  6
CONTINUOUS
 62
     7
100
AcDbCircle
 10
-93.980774
 20
60.052273
 30
0.0
 40
0.799397
100
AcDbArc
 50
0.0
 51
48.541795
  0
ARC
  5
198
100
AcDbEntity
  8
0
  6
CONTINUOUS
 62
     7
100
AcDbCircle
 10
-94.100685
 20
59.916534
 30
0.0
 40
0.980516
100
AcDbArc
 50
48.542099
 51
131.4579
  0
ARC
  5
199
100
AcDbEntity
  8
0
  6
CONTINUOUS
 62
     7
100
AcDbCircle
 10
-90.223602
 20
57.744831
 30
0.0
 40
0.159879
100
AcDbArc
 50
180.0
 51
228.54311
  0
ARC
  5
19A
100
AcDbEntity
  8
0
  6
CONTINUOUS
 62
     7
100
AcDbCircle
 10
-90.103683
 20
57.880566
 30
0.0
 40
0.340996
100
AcDbArc
 50
228.54105
 51
311.45575
  0
ARC
  5
19B
100
AcDbEntity
  8
0
  6
CONTINUOUS
 62
     7
100
AcDbCircle
 10
-90.223602
 20
57.744831
 30
0.0
 40
0.799385
100
AcDbArc
 50
185.83084
 51
228.54261
  0
ARC
  5
19C
100
AcDbEntity
  8
0
  6
CONTINUOUS
 62
     7
100
AcDbCircle
 10
-89.98378
 20
57.744831
 30
0.0
 40
0.159874
100
AcDbArc
 50
311.45575
 51
0.0
  0
ARC
  5
19D
100
AcDbEntity
  8
0
  6
CONTINUOUS
 62
     7
100
AcDbCircle
 10
-90.103683
 20
57.880566
 30
0.0
 40
0.980516
100
AcDbArc
 50
228.5421
 51
311.4579
  0
ARC
  5
19E
100
AcDbEntity
  8
0
  6
CONTINUOUS
 62
     7
100
AcDbCircle
 10
-89.98378
 20
57.744831
 30
0.0
 40
0.799405
100
AcDbArc
 50
311.45825
 51
0.0
  0
ARC
  5
19F
100
AcDbEntity
  8
0
  6
CONTINUOUS
 62
     7
100
AcDbCircle
 10
-93.980774
 20
57.744831
 30
0.0
 40
0.159874
100
AcDbArc
 50
311.45575
 51
0.0
  0
ARC
  5
1A0
100
AcDbEntity
  8
0
  6
CONTINUOUS
 62
     7
100
AcDbCircle
 10
-93.980774
 20
57.744831
 30
0.0
 40
0.159874
100
AcDbArc
 50
311.45575
 51
0.0
  0
ARC
  5
1A1
100
AcDbEntity
  8
0
  6
CONTINUOUS
 62
     7
100
AcDbCircle
 10
-94.100685
 20
57.880566
 30
0.0
 40
0.340996
100
AcDbArc
 50
228.54105
 51
311.45575
  0
ARC
  5
1A2
100
AcDbEntity
  8
0
  6
CONTINUOUS
 62
     7
100
AcDbCircle
 10
-94.220604
 20
57.744831
 30
0.0
 40
0.159879
100
AcDbArc
 50
180.0
 51
228.54311
  0
ARC
  5
1A3
100
AcDbEntity
  8
0
  6
CONTINUOUS
 62
     7
100
AcDbCircle
 10
-93.980774
 20
57.744831
 30
0.0
 40
0.799405
100
AcDbArc
 50
311.45825
 51
0.0
  0
ARC
  5
1A4
100
AcDbEntity
  8
0
  6
CONTINUOUS
 62
     7
100
AcDbCircle
 10
-94.100685
 20
57.880566
 30
0.0
 40
0.980516
100
AcDbArc
 50
228.5421
 51
311.4579
  0
ARC
  5
1A5
100
AcDbEntity
  8
0
  6
CONTINUOUS
 62
     7
100
AcDbCircle
 10
-94.220604
 20
57.744831
 30
0.0
 40
0.799397
100
AcDbArc
 50
180.0
 51
228.54257
  0
ARC
  5
1A6
100
AcDbEntity
  8
0
  6
CONTINUOUS
 62
     7
100
AcDbCircle
 10
-7.07507
 20
51.400051
 30
0.0
 40
0.5
100
AcDbArc
 50
270.0
 51
0.0
  0
ARC
  5
1A7
100
AcDbEntity
  8
0
  6
CONTINUOUS
 62
     7
100
AcDbCircle
 10
-7.07507
 20
92.400047
 30
0.0
 40
0.5
100
AcDbArc
 50
0.0
 51
90.0
  0
ARC
  5
1A8
100
AcDbEntity
  8
0
  6
CONTINUOUS
 62
     7
100
AcDbCircle
 10
126.62492
 20
-111.68798
 30
0.0
 40
0.5
100
AcDbArc
 50
180.0
 51
270.0
  0
TEXT
  5
456
100
AcDbEntity
  8
0
  6
CONTINUOUS
 62
     7
100
AcDbText
 10
-88.548978
 20
56.688858
 30
0.0
 40
4.0
  1
FX -32MR
 41
0.611563
100
AcDbText
  0
TEXT
  5
457
100
AcDbEntity
  8
0
  6
CONTINUOUS
 62
     7
100
AcDbText
 10
-84.198481
 20
56.938858
 30
0.0
 40
2.0
  1
2N
 41
0.564718
100
AcDbText
  0
SOLID
  5
458
100
AcDbEntity
  8
0
  6
CONTINUOUS
 62
     7
100
AcDbTrace
 10
-90.802944
 20
82.900043
 30
0.0
 11
-90.802944
 21
86.29179
 31
0.0
 12
-90.136936
 22
82.900043
 32
0.0
 13
-90.136936
 23
86.29179
 33
0.0
  0
SOLID
  5
459
100
AcDbEntity
  8
0
  6
CONTINUOUS
 62
     7
100
AcDbTrace
 10
-91.718723
 20
86.291794
 30
0.0
 11
-91.718723
 21
86.908463
 31
0.0
 12
-89.221157
 22
86.291794
 32
0.0
 13
-89.221157
 23
86.908463
 33
0.0
  0
SOLID
  5
45A
100
AcDbEntity
  8
0
  6
CONTINUOUS
 62
     7
100
AcDbTrace
 10
-92.634487
 20
82.900043
 30
0.0
 11
-92.634487
 21
86.908459
 31
0.0
 12
-91.968479
 22
82.900043
 32
0.0
 13
-91.968479
 23
86.908459
 33
0.0
  0
SOLID
  5
45B
100
AcDbEntity
  8
0
  6
CONTINUOUS
 62
     7
100
AcDbTrace
 10
-91.718723
 20
86.291794
 30
0.0
 11
-91.718723
 21
86.908463
 31
0.0
 12
-89.221157
 22
86.291794
 32
0.0
 13
-89.221157
 23
86.908463
 33
0.0
  0
SOLID
  5
45C
100
AcDbEntity
  8
0
  6
CONTINUOUS
 62
     7
100
AcDbTrace
 10
-90.802944
 20
82.900043
 30
0.0
 11
-90.802944
 21
86.29179
 31
0.0
 12
-90.136936
 22
82.900043
 32
0.0
 13
-90.136936
 23
86.29179
 33
0.0
  0
SOLID
  5
45D
100
AcDbEntity
  8
0
  6
CONTINUOUS
 62
     7
100
AcDbTrace
 10
-91.968475
 20
86.908463
 30
0.0
 11
-92.634483
 21
86.908463
 31
0.0
 12
-91.968475
 22
82.900047
 32
0.0
 13
-92.634483
 23
82.900047
 33
0.0
  0
SOLID
  5
45E
100
AcDbEntity
  8
0
  6
CONTINUOUS
 62
     7
100
AcDbTrace
 10
-78.981194
 20
86.908463
 30
0.0
 11
-79.702705
 21
86.908463
 31
0.0
 12
-78.981194
 22
82.900047
 32
0.0
 13
-79.702705
 23
82.900047
 33
0.0
  0
SOLID
  5
45F
100
AcDbEntity
  8
0
  6
CONTINUOUS
 62
     7
100
AcDbTrace
 10
-71.599541
 20
86.908463
 30
0.0
 11
-72.321053
 21
86.908463
 31
0.0
 12
-71.599541
 22
82.900047
 32
0.0
 13
-72.321053
 23
82.900047
 33
0.0
  0
LINE
  5
462
100
AcDbEntity
  8
0
  6
CONTINUOUS
 62
     7
100
AcDbLine
 10
-10.233882
 20
30.093475
 30
0.0
 11
-0.52442
 21
16.989355
 31
0.0
  0
LINE
  5
463
100
AcDbEntity
  8
0
  6
CONTINUOUS
 62
     7
100
AcDbLine
 10
-0.52442
 20
16.989355
 30
0.0
 11
35.877953
 21
16.989355
 31
0.0
  0
LINE
  5
464
100
AcDbEntity
  8
0
  6
CONTINUOUS
 62
     7
100
AcDbLine
 10
-10.233882
 20
30.093475
 30
0.0
 11
-7.920121
 21
27.914775
 31
0.0
  0
LINE
  5
465
100
AcDbEntity
  8
0
  6
CONTINUOUS
 62
     7
100
AcDbLine
 10
-10.233882
 20
30.093475
 30
0.0
 11
-8.82323
 21
27.245619
 31
0.0
  0
TEXT
  5
466
100
AcDbEntity
  8
0
  6
CONTINUOUS
 62
     7
100
AcDbText
 10
3.87795
 20
17.789355
 30
0.0
 40
3.2
  1
２－４．５キリ取付穴
 41
0.844483
100
AcDbText
  0
LINE
  5
46B
100
AcDbEntity
  8
0
  6
CONTINUOUS
 62
     7
100
AcDbLine
 10
21.402874
 20
29.900051
 30
0.0
 11
21.402874
 21
113.90005
 31
0.0
  0
INSERT
  5
46C
100
AcDbEntity
  8
0
  6
CONTINUOUS
 62
     7
100
AcDbBlockReference
  2
_OPEN30
 10
21.402874
 20
26.900051
 30
0.0
 50
270.0
  0
INSERT
  5
46D
100
AcDbEntity
  8
0
  6
CONTINUOUS
 62
     7
100
AcDbBlockReference
  2
_OPEN30
 10
21.402874
 20
116.90005
 30
0.0
 50
90.0
  0
LINE
  5
46E
100
AcDbEntity
  8
0
  6
CONTINUOUS
 62
     7
100
AcDbLine
 10
-4.03507
 20
26.900051
 30
0.0
 11
22.402874
 21
26.900051
 31
0.0
  0
LINE
  5
46F
100
AcDbEntity
  8
0
  6
CONTINUOUS
 62
     7
100
AcDbLine
 10
-4.03507
 20
116.90005
 30
0.0
 11
22.402874
 21
116.90005
 31
0.0
  0
TEXT
  5
470
100
AcDbEntity
  8
0
  6
CONTINUOUS
 62
     7
100
AcDbText
 10
20.602874
 20
65.957047
 30
0.0
 40
3.2
  1
90
 50
90.000003
 41
1.102098
100
AcDbText
  0
TEXT
  5
471
100
AcDbEntity
  8
0
  6
CONTINUOUS
 62
     7
100
AcDbText
 10
19.402874
 20
72.357047
 30
0.0
 40
1.6
  1
%%P0.2
 50
90.000003
 41
1.22857
100
AcDbText
  0
POINT
  5
472
100
AcDbEntity
  8
0
  6
CONTINUOUS
 62
     7
100
AcDbPoint
 10
-6.57507
 20
26.900051
 30
0.0
  0
POINT
  5
473
100
AcDbEntity
  8
0
  6
CONTINUOUS
 62
     7
100
AcDbPoint
 10
-6.57507
 20
116.90005
 30
0.0
  0
POINT
  5
474
100
AcDbEntity
  8
0
  6
CONTINUOUS
 62
     7
100
AcDbPoint
 10
21.402874
 20
116.90005
 30
0.0
  0
LINE
  5
475
100
AcDbEntity
  8
0
  6
CONTINUOUS
 62
     7
100
AcDbLine
 10
21.402874
 20
-28.487984
 30
0.0
 11
21.402874
 21
-109.18798
 31
0.0
  0
INSERT
  5
476
100
AcDbEntity
  8
0
  6
CONTINUOUS
 62
     7
100
AcDbBlockReference
  2
_OPEN30
 10
21.402874
 20
-25.487984
 30
0.0
 50
90.0
  0
INSERT
  5
477
100
AcDbEntity
  8
0
  6
CONTINUOUS
 62
     7
100
AcDbBlockReference
  2
_OPEN30
 10
21.402874
 20
-112.18798
 30
0.0
 50
270.0
  0
LINE
  5
478
100
AcDbEntity
  8
0
  6
CONTINUOUS
 62
     7
100
AcDbLine
 10
-4.03507
 20
-25.487984
 30
0.0
 11
22.402874
 21
-25.487984
 31
0.0
  0
LINE
  5
479
100
AcDbEntity
  8
0
  6
CONTINUOUS
 62
     7
100
AcDbLine
 10
-0.03507
 20
-112.18798
 30
0.0
 11
22.402874
 21
-112.18798
 31
0.0
  0
TEXT
  5
47A
100
AcDbEntity
  8
0
  6
CONTINUOUS
 62
     7
100
AcDbText
 10
20.602874
 20
-71.580982
 30
0.0
 40
3.2
  1
87
 50
90.000003
 41
1.028625
100
AcDbText
  0
POINT
  5
47B
100
AcDbEntity
  8
0
  6
CONTINUOUS
 62
     7
100
AcDbPoint
 10
-6.57507
 20
-25.487984
 30
0.0
  0
POINT
  5
47C
100
AcDbEntity
  8
0
  6
CONTINUOUS
 62
     7
100
AcDbPoint
 10
-2.57507
 20
-112.18798
 30
0.0
  0
POINT
  5
47D
100
AcDbEntity
  8
0
  6
CONTINUOUS
 62
     7
100
AcDbPoint
 10
21.402874
 20
-112.18798
 30
0.0
  0
LINE
  5
47E
100
AcDbEntity
  8
0
  6
CONTINUOUS
 62
     7
100
AcDbLine
 10
11.402875
 20
108.90005
 30
0.0
 11
11.402875
 21
34.900051
 31
0.0
  0
INSERT
  5
47F
100
AcDbEntity
  8
0
  6
CONTINUOUS
 62
     7
100
AcDbBlockReference
  2
_OPEN30
 10
11.402875
 20
111.90005
 30
0.0
 50
90.0
  0
INSERT
  5
480
100
AcDbEntity
  8
0
  6
CONTINUOUS
 62
     7
100
AcDbBlockReference
  2
_OPEN30
 10
11.402875
 20
31.900051
 30
0.0
 50
270.0
  0
LINE
  5
481
100
AcDbEntity
  8
0
  6
CONTINUOUS
 62
     7
100
AcDbLine
 10
-149.03507
 20
111.90005
 30
0.0
 11
12.402875
 21
111.90005
 31
0.0
  0
LINE
  5
482
100
AcDbEntity
  8
0
  6
CONTINUOUS
 62
     7
100
AcDbLine
 10
-9.035069
 20
31.900051
 30
0.0
 11
12.402875
 21
31.900051
 31
0.0
  0
TEXT
  5
483
100
AcDbEntity
  8
0
  6
CONTINUOUS
 62
     7
100
AcDbText
 10
10.602875
 20
65.957047
 30
0.0
 40
3.2
  1
80
 50
90.000003
 41
1.102098
100
AcDbText
  0
TEXT
  5
484
100
AcDbEntity
  8
0
  6
CONTINUOUS
 62
     7
100
AcDbText
 10
9.402875
 20
72.357047
 30
0.0
 40
1.6
  1
%%P0.2
 50
90.000003
 41
1.22857
100
AcDbText
  0
POINT
  5
485
100
AcDbEntity
  8
0
  6
CONTINUOUS
 62
     7
100
AcDbPoint
 10
-151.57507
 20
111.90005
 30
0.0
  0
POINT
  5
486
100
AcDbEntity
  8
0
  6
CONTINUOUS
 62
     7
100
AcDbPoint
 10
-11.575069
 20
31.900051
 30
0.0
  0
POINT
  5
487
100
AcDbEntity
  8
0
  6
CONTINUOUS
 62
     7
100
AcDbPoint
 10
11.402875
 20
31.900051
 30
0.0
  0
LINE
  5
488
100
AcDbEntity
  8
0
  6
CONTINUOUS
 62
     7
100
AcDbLine
 10
-148.57507
 20
6.900051
 30
0.0
 11
-14.575069
 21
6.900051
 31
0.0
  0
INSERT
  5
489
100
AcDbEntity
  8
0
  6
CONTINUOUS
 62
     7
100
AcDbBlockReference
  2
_OPEN30
 10
-151.57507
 20
6.900051
 30
0.0
 50
180.0
  0
INSERT
  5
48A
100
AcDbEntity
  8
0
  6
CONTINUOUS
 62
     7
100
AcDbBlockReference
  2
_OPEN30
 10
-11.575069
 20
6.900051
 30
0.0
  0
LINE
  5
48B
100
AcDbEntity
  8
0
  6
CONTINUOUS
 62
     7
100
AcDbLine
 10
-151.57507
 20
109.36005
 30
0.0
 11
-151.57507
 21
5.900051
 31
0.0
  0
LINE
  5
48C
100
AcDbEntity
  8
0
  6
CONTINUOUS
 62
     7
100
AcDbLine
 10
-11.575069
 20
29.360051
 30
0.0
 11
-11.575069
 21
5.900051
 31
0.0
  0
TEXT
  5
48D
100
AcDbEntity
  8
0
  6
CONTINUOUS
 62
     7
100
AcDbText
 10
-89.118073
 20
7.700051
 30
0.0
 40
3.2
  1
140
 41
1.221469
100
AcDbText
  0
TEXT
  5
48E
100
AcDbEntity
  8
0
  6
CONTINUOUS
 62
     7
100
AcDbText
 10
-79.518073
 20
8.900051
 30
0.0
 40
1.6
  1
%%P0.2
 41
1.22857
100
AcDbText
  0
POINT
  5
48F
100
AcDbEntity
  8
0
  6
CONTINUOUS
 62
     7
100
AcDbPoint
 10
-151.57507
 20
111.90005
 30
0.0
  0
POINT
  5
490
100
AcDbEntity
  8
0
  6
CONTINUOUS
 62
     7
100
AcDbPoint
 10
-11.575069
 20
31.900051
 30
0.0
  0
POINT
  5
491
100
AcDbEntity
  8
0
  6
CONTINUOUS
 62
     7
100
AcDbPoint
 10
-11.575069
 20
6.900051
 30
0.0
  0
LINE
  5
492
100
AcDbEntity
  8
0
  6
CONTINUOUS
 62
     7
100
AcDbLine
 10
-153.57507
 20
-132.18799
 30
0.0
 11
-9.57507
 21
-132.18799
 31
0.0
  0
INSERT
  5
493
100
AcDbEntity
  8
0
  6
CONTINUOUS
 62
     7
100
AcDbBlockReference
  2
_OPEN30
 10
-156.57507
 20
-132.18799
 30
0.0
 50
180.0
  0
INSERT
  5
494
100
AcDbEntity
  8
0
  6
CONTINUOUS
 62
     7
100
AcDbBlockReference
  2
_OPEN30
 10
-6.57507
 20
-132.18799
 30
0.0
  0
LINE
  5
495
100
AcDbEntity
  8
0
  6
CONTINUOUS
 62
     7
100
AcDbLine
 10
-156.57507
 20
-114.72798
 30
0.0
 11
-156.57507
 21
-133.18799
 31
0.0
  0
LINE
  5
496
100
AcDbEntity
  8
0
  6
CONTINUOUS
 62
     7
100
AcDbLine
 10
-6.57507
 20
-114.72798
 30
0.0
 11
-6.57507
 21
-133.18799
 31
0.0
  0
TEXT
  5
497
100
AcDbEntity
  8
0
  6
CONTINUOUS
 62
     7
100
AcDbText
 10
-89.118073
 20
-131.38799
 30
0.0
 40
3.2
  1
150
 41
1.221469
100
AcDbText
  0
TEXT
  5
498
100
AcDbEntity
  8
0
  6
CONTINUOUS
 62
     7
100
AcDbText
 10
-79.518073
 20
-130.18799
 30
0.0
 40
1.6
  1
%%P0.2
 41
1.22857
100
AcDbText
  0
POINT
  5
499
100
AcDbEntity
  8
0
  6
CONTINUOUS
 62
     7
100
AcDbPoint
 10
-156.57507
 20
-112.18798
 30
0.0
  0
POINT
  5
49A
100
AcDbEntity
  8
0
  6
CONTINUOUS
 62
     7
100
AcDbPoint
 10
-6.57507
 20
-112.18798
 30
0.0
  0
POINT
  5
49B
100
AcDbEntity
  8
0
  6
CONTINUOUS
 62
     7
100
AcDbPoint
 10
-6.57507
 20
-132.18799
 30
0.0
  0
LINE
  5
49C
100
AcDbEntity
  8
0
  6
CONTINUOUS
 62
     7
100
AcDbLine
 10
11.402875
 20
-106.18798
 30
0.0
 11
11.402875
 21
-109.18798
 31
0.0
  0
INSERT
  5
49D
100
AcDbEntity
  8
0
  6
CONTINUOUS
 62
     7
100
AcDbBlockReference
  2
_OPEN30
 10
11.402875
 20
-103.18798
 30
0.0
 50
90.0
  0
INSERT
  5
49E
100
AcDbEntity
  8
0
  6
CONTINUOUS
 62
     7
100
AcDbBlockReference
  2
_OPEN30
 10
11.402875
 20
-112.18798
 30
0.0
 50
270.0
  0
LINE
  5
49F
100
AcDbEntity
  8
0
  6
CONTINUOUS
 62
     7
100
AcDbLine
 10
-4.03507
 20
-103.18798
 30
0.0
 11
12.402875
 21
-103.18798
 31
0.0
  0
LINE
  5
4A0
100
AcDbEntity
  8
0
  6
CONTINUOUS
 62
     7
100
AcDbLine
 10
-4.03507
 20
-112.18798
 30
0.0
 11
12.402875
 21
-112.18798
 31
0.0
  0
TEXT
  5
4A1
100
AcDbEntity
  8
0
  6
CONTINUOUS
 62
     7
100
AcDbText
 10
10.602875
 20
-108.83098
 30
0.0
 40
3.2
  1
9
 50
90.000003
100
AcDbText
  0
POINT
  5
4A2
100
AcDbEntity
  8
0
  6
CONTINUOUS
 62
     7
100
AcDbPoint
 10
-6.57507
 20
-103.18798
 30
0.0
  0
POINT
  5
4A3
100
AcDbEntity
  8
0
  6
CONTINUOUS
 62
     7
100
AcDbPoint
 10
-6.57507
 20
-112.18798
 30
0.0
  0
POINT
  5
4A4
100
AcDbEntity
  8
0
  6
CONTINUOUS
 62
     7
100
AcDbPoint
 10
11.402875
 20
-112.18798
 30
0.0
  0
ARC
  5
4A5
100
AcDbEntity
  8
0
  6
CONTINUOUS
 62
     7
100
AcDbCircle
 10
-84.741286
 20
84.12737
 30
0.0
 40
1.233074
100
AcDbArc
 50
179.719112
 51
185.344112
  0
ARC
  5
4A6
100
AcDbEntity
  8
0
  6
CONTINUOUS
 62
     7
100
AcDbCircle
 10
-84.742458
 20
84.115342
 30
0.0
 40
1.230843
100
AcDbArc
 50
184.791735
 51
190.416735
  0
ARC
  5
4A7
100
AcDbEntity
  8
0
  6
CONTINUOUS
 62
     7
100
AcDbCircle
 10
-84.744824
 20
84.103488
 30
0.0
 40
1.226425
100
AcDbArc
 50
189.892023
 51
195.517023
  0
ARC
  5
4A8
100
AcDbEntity
  8
0
  6
CONTINUOUS
 62
     7
100
AcDbCircle
 10
-84.748333
 20
84.091911
 30
0.0
 40
1.219989
100
AcDbArc
 50
195.037224
 51
200.662224
  0
ARC
  5
4A9
100
AcDbEntity
  8
0
  6
CONTINUOUS
 62
     7
100
AcDbCircle
 10
-84.752955
 20
84.080748
 30
0.0
 40
1.211758
100
AcDbArc
 50
200.245451
 51
205.870451
  0
ARC
  5
4AA
100
AcDbEntity
  8
0
  6
CONTINUOUS
 62
     7
100
AcDbCircle
 10
-84.758661
 20
84.070077
 30
0.0
 40
1.201988
100
AcDbArc
 50
205.531484
 51
211.156484
  0
ARC
  5
4AB
100
AcDbEntity
  8
0
  6
CONTINUOUS
 62
     7
100
AcDbCircle
 10
-84.765377
 20
84.060041
 30
0.0
 40
1.19106
100
AcDbArc
 50
210.910468
 51
216.535468
  0
ARC
  5
4AC
100
AcDbEntity
  8
0
  6
CONTINUOUS
 62
     7
100
AcDbCircle
 10
-84.773043
 20
84.05068
 30
0.0
 40
1.179331
100
AcDbArc
 50
216.391776
 51
222.016776
  0
ARC
  5
4AD
100
AcDbEntity
  8
0
  6
CONTINUOUS
 62
     7
100
AcDbCircle
 10
-84.781582
 20
84.042141
 30
0.0
 40
1.167271
100
AcDbArc
 50
221.985902
 51
227.610902
  0
ARC
  5
4AE
100
AcDbEntity
  8
0
  6
CONTINUOUS
 62
     7
100
AcDbCircle
 10
-84.790939
 20
84.034474
 30
0.0
 40
1.155302
100
AcDbArc
 50
227.697302
 51
233.322302
  0
ARC
  5
4AF
100
AcDbEntity
  8
0
  6
CONTINUOUS
 62
     7
100
AcDbCircle
 10
-84.800989
 20
84.027756
 30
0.0
 40
1.143919
100
AcDbArc
 50
233.525036
 51
239.150036
  0
ARC
  5
4B0
100
AcDbEntity
  8
0
  6
CONTINUOUS
 62
     7
100
AcDbCircle
 10
-84.811646
 20
84.022054
 30
0.0
 40
1.133576
100
AcDbArc
 50
239.464702
 51
245.089702
  0
ARC
  5
4B1
100
AcDbEntity
  8
0
  6
CONTINUOUS
 62
     7
100
AcDbCircle
 10
-84.822817
 20
84.017428
 30
0.0
 40
1.124705
100
AcDbArc
 50
245.506586
 51
251.131586
  0
ARC
  5
4B2
100
AcDbEntity
  8
0
  6
CONTINUOUS
 62
     7
100
AcDbCircle
 10
-84.834391
 20
84.013917
 30
0.0
 40
1.117683
100
AcDbArc
 50
251.634812
 51
257.259812
  0
ARC
  5
4B3
100
AcDbEntity
  8
0
  6
CONTINUOUS
 62
     7
100
AcDbCircle
 10
-84.84624
 20
84.011564
 30
0.0
 40
1.112828
100
AcDbArc
 50
257.828163
 51
263.453162
  0
ARC
  5
4B4
100
AcDbEntity
  8
0
  6
CONTINUOUS
 62
     7
100
AcDbCircle
 10
-84.858274
 20
84.01037
 30
0.0
 40
1.110334
100
AcDbArc
 50
264.063059
 51
269.688059
  0
ARC
  5
4B5
100
AcDbEntity
  8
0
  6
CONTINUOUS
 62
     7
100
AcDbCircle
 10
-84.260827
 20
84.01043
 30
0.0
 40
1.110397
100
AcDbArc
 50
270.361613
 51
275.983807
  0
ARC
  5
4B6
100
AcDbEntity
  8
0
  6
CONTINUOUS
 62
     7
100
AcDbCircle
 10
-84.272841
 20
84.011711
 30
0.0
 40
1.112986
100
AcDbArc
 50
276.592035
 51
282.21423
  0
ARC
  5
4B7
100
AcDbEntity
  8
0
  6
CONTINUOUS
 62
     7
100
AcDbCircle
 10
-84.284668
 20
84.014154
 30
0.0
 40
1.117931
100
AcDbArc
 50
282.780169
 51
288.402363
  0
ARC
  5
4B8
100
AcDbEntity
  8
0
  6
CONTINUOUS
 62
     7
100
AcDbCircle
 10
-84.296204
 20
84.017746
 30
0.0
 40
1.125024
100
AcDbArc
 50
288.902091
 51
294.524285
  0
ARC
  5
4B9
100
AcDbEntity
  8
0
  6
CONTINUOUS
 62
     7
100
AcDbCircle
 10
-84.30734
 20
84.022465
 30
0.0
 40
1.133969
100
AcDbArc
 50
294.937223
 51
300.559417
  0
ARC
  5
4BA
100
AcDbEntity
  8
0
  6
CONTINUOUS
 62
     7
100
AcDbCircle
 10
-84.317943
 20
84.028231
 30
0.0
 40
1.144342
100
AcDbArc
 50
300.869768
 51
306.491962
  0
ARC
  5
4BB
100
AcDbEntity
  8
0
  6
CONTINUOUS
 62
     7
100
AcDbCircle
 10
-84.327948
 20
84.035026
 30
0.0
 40
1.155762
100
AcDbArc
 50
306.690394
 51
312.312588
  0
ARC
  5
4BC
100
AcDbEntity
  8
0
  6
CONTINUOUS
 62
     7
100
AcDbCircle
 10
-84.337217
 20
84.042763
 30
0.0
 40
1.167724
100
AcDbArc
 50
312.393353
 51
318.015547
  0
ARC
  5
4BD
100
AcDbEntity
  8
0
  6
CONTINUOUS
 62
     7
100
AcDbCircle
 10
-84.345704
 20
84.051366
 30
0.0
 40
1.179787
100
AcDbArc
 50
317.9807
 51
323.602894
  0
ARC
  5
4BE
100
AcDbEntity
  8
0
  6
CONTINUOUS
 62
     7
100
AcDbCircle
 10
-84.353304
 20
84.060767
 30
0.0
 40
1.191487
100
AcDbArc
 50
323.455868
 51
329.078062
  0
ARC
  5
4BF
100
AcDbEntity
  8
0
  6
CONTINUOUS
 62
     7
100
AcDbCircle
 10
-84.359936
 20
84.070871
 30
0.0
 40
1.20238
100
AcDbArc
 50
328.82744
 51
334.449634
  0
ARC
  5
4C0
100
AcDbEntity
  8
0
  6
CONTINUOUS
 62
     7
100
AcDbCircle
 10
-84.365563
 20
84.081556
 30
0.0
 40
1.212087
100
AcDbArc
 50
334.108646
 51
339.73084
  0
ARC
  5
4C1
100
AcDbEntity
  8
0
  6
CONTINUOUS
 62
     7
100
AcDbCircle
 10
-84.370098
 20
84.092755
 30
0.0
 40
1.220253
100
AcDbArc
 50
339.311338
 51
344.933532
  0
ARC
  5
4C2
100
AcDbEntity
  8
0
  6
CONTINUOUS
 62
     7
100
AcDbCircle
 10
-84.373523
 20
84.104349
 30
0.0
 40
1.226617
100
AcDbArc
 50
344.45214
 51
350.074334
  0
ARC
  5
4C3
100
AcDbEntity
  8
0
  6
CONTINUOUS
 62
     7
100
AcDbCircle
 10
-84.375797
 20
84.116206
 30
0.0
 40
1.230953
100
AcDbArc
 50
349.548978
 51
355.171172
  0
ARC
  5
4C4
100
AcDbEntity
  8
0
  6
CONTINUOUS
 62
     7
100
AcDbCircle
 10
-84.37689
 20
84.128252
 30
0.0
 40
1.233114
100
AcDbArc
 50
354.617702
 51
0.239897
  0
ARC
  5
4C5
100
AcDbEntity
  8
0
  6
CONTINUOUS
 62
     7
100
AcDbCircle
 10
-84.367846
 20
84.071901
 30
0.0
 40
0.555185
100
AcDbArc
 50
270.312392
 51
275.937367
  0
ARC
  5
4C6
100
AcDbEntity
  8
0
  6
CONTINUOUS
 62
     7
100
AcDbCircle
 10
-84.373867
 20
84.072484
 30
0.0
 40
0.556418
100
AcDbArc
 50
276.547885
 51
282.172861
  0
ARC
  5
4C7
100
AcDbEntity
  8
0
  6
CONTINUOUS
 62
     7
100
AcDbCircle
 10
-84.379787
 20
84.073671
 30
0.0
 40
0.558855
100
AcDbArc
 50
282.740423
 51
288.365399
  0
ARC
  5
4C8
100
AcDbEntity
  8
0
  6
CONTINUOUS
 62
     7
100
AcDbCircle
 10
-84.385568
 20
84.075422
 30
0.0
 40
0.56236
100
AcDbArc
 50
288.868235
 51
294.49321
  0
ARC
  5
4C9
100
AcDbEntity
  8
0
  6
CONTINUOUS
 62
     7
100
AcDbCircle
 10
-84.391164
 20
84.07773
 30
0.0
 40
0.566795
100
AcDbArc
 50
294.911222
 51
300.536198
  0
ARC
  5
4CA
100
AcDbEntity
  8
0
  6
CONTINUOUS
 62
     7
100
AcDbCircle
 10
-84.396487
 20
84.080587
 30
0.0
 40
0.571969
100
AcDbArc
 50
300.850118
 51
306.475094
  0
ARC
  5
4CB
100
AcDbEntity
  8
0
  6
CONTINUOUS
 62
     7
100
AcDbCircle
 10
-84.401512
 20
84.083941
 30
0.0
 40
0.577657
100
AcDbArc
 50
306.6781
 51
312.303076
  0
ARC
  5
4CC
100
AcDbEntity
  8
0
  6
CONTINUOUS
 62
     7
100
AcDbCircle
 10
-84.406186
 20
84.087775
 30
0.0
 40
0.583638
100
AcDbArc
 50
312.38911
 51
318.014086
  0
ARC
  5
4CD
100
AcDbEntity
  8
0
  6
CONTINUOUS
 62
     7
100
AcDbCircle
 10
-84.410465
 20
84.092055
 30
0.0
 40
0.589682
100
AcDbArc
 50
317.983095
 51
323.60807
  0
ARC
  5
4CE
100
AcDbEntity
  8
0
  6
CONTINUOUS
 62
     7
100
AcDbCircle
 10
-84.414293
 20
84.096716
 30
0.0
 40
0.595531
100
AcDbArc
 50
323.465631
 51
329.090607
  0
ARC
  5
4CF
100
AcDbEntity
  8
0
  6
CONTINUOUS
 62
     7
100
AcDbCircle
 10
-84.417656
 20
84.101755
 30
0.0
 40
0.601011
100
AcDbArc
 50
328.843135
 51
334.46811
  0
ARC
  5
4D0
100
AcDbEntity
  8
0
  6
CONTINUOUS
 62
     7
100
AcDbCircle
 10
-84.420499
 20
84.107075
 30
0.0
 40
0.60588
100
AcDbArc
 50
334.130004
 51
339.75498
  0
ARC
  5
4D1
100
AcDbEntity
  8
0
  6
CONTINUOUS
 62
     7
100
AcDbCircle
 10
-84.422815
 20
84.112672
 30
0.0
 40
0.610005
100
AcDbArc
 50
339.337024
 51
344.962
  0
ARC
  5
4D2
100
AcDbEntity
  8
0
  6
CONTINUOUS
 62
     7
100
AcDbCircle
 10
-84.42458
 20
84.118446
 30
0.0
 40
0.613229
100
AcDbArc
 50
344.483768
 51
350.108743
  0
ARC
  5
4D3
100
AcDbEntity
  8
0
  6
CONTINUOUS
 62
     7
100
AcDbCircle
 10
-84.425742
 20
84.124378
 30
0.0
 40
0.615419
100
AcDbArc
 50
349.583214
 51
355.20819
  0
ARC
  5
4D4
100
AcDbEntity
  8
0
  6
CONTINUOUS
 62
     7
100
AcDbCircle
 10
-84.426344
 20
84.130387
 30
0.0
 40
0.616549
100
AcDbArc
 50
354.656415
 51
0.28139
  0
ARC
  5
4D5
100
AcDbEntity
  8
0
  6
CONTINUOUS
 62
     7
100
AcDbCircle
 10
-84.69179
 20
84.130397
 30
0.0
 40
0.61655
100
AcDbArc
 50
179.719556
 51
185.344531
  0
ARC
  5
4D6
100
AcDbEntity
  8
0
  6
CONTINUOUS
 62
     7
100
AcDbCircle
 10
-84.692391
 20
84.124378
 30
0.0
 40
0.615419
100
AcDbArc
 50
184.79181
 51
190.416786
  0
ARC
  5
4D7
100
AcDbEntity
  8
0
  6
CONTINUOUS
 62
     7
100
AcDbCircle
 10
-84.693553
 20
84.118446
 30
0.0
 40
0.613229
100
AcDbArc
 50
189.891257
 51
195.516232
  0
ARC
  5
4D8
100
AcDbEntity
  8
0
  6
CONTINUOUS
 62
     7
100
AcDbCircle
 10
-84.695319
 20
84.112662
 30
0.0
 40
0.610002
100
AcDbArc
 50
195.037089
 51
200.662065
  0
ARC
  5
4D9
100
AcDbEntity
  8
0
  6
CONTINUOUS
 62
     7
100
AcDbCircle
 10
-84.697634
 20
84.107085
 30
0.0
 40
0.605884
100
AcDbArc
 50
200.245907
 51
205.870882
  0
ARC
  5
4DA
100
AcDbEntity
  8
0
  6
CONTINUOUS
 62
     7
100
AcDbCircle
 10
-84.700477
 20
84.101744
 30
0.0
 40
0.601006
100
AcDbArc
 50
205.531035
 51
211.15601
  0
ARC
  5
4DB
100
AcDbEntity
  8
0
  6
CONTINUOUS
 62
     7
100
AcDbCircle
 10
-84.70384
 20
84.096726
 30
0.0
 40
0.595537
100
AcDbArc
 50
210.910209
 51
216.535184
  0
ARC
  5
4DC
100
AcDbEntity
  8
0
  6
CONTINUOUS
 62
     7
100
AcDbCircle
 10
-84.707668
 20
84.092055
 30
0.0
 40
0.589682
100
AcDbArc
 50
216.39193
 51
222.016905
  0
ARC
  5
4DD
100
AcDbEntity
  8
0
  6
CONTINUOUS
 62
     7
100
AcDbCircle
 10
-84.711947
 20
84.087775
 30
0.0
 40
0.583638
100
AcDbArc
 50
221.985914
 51
227.61089
  0
ARC
  5
4DE
100
AcDbEntity
  8
0
  6
CONTINUOUS
 62
     7
100
AcDbCircle
 10
-84.716621
 20
84.083941
 30
0.0
 40
0.577657
100
AcDbArc
 50
227.696924
 51
233.3219
  0
ARC
  5
4DF
100
AcDbEntity
  8
0
  6
CONTINUOUS
 62
     7
100
AcDbCircle
 10
-84.721646
 20
84.080587
 30
0.0
 40
0.571969
100
AcDbArc
 50
233.524906
 51
239.149882
  0
ARC
  5
4E0
100
AcDbEntity
  8
0
  6
CONTINUOUS
 62
     7
100
AcDbCircle
 10
-84.726969
 20
84.07773
 30
0.0
 40
0.566795
100
AcDbArc
 50
239.463802
 51
245.088778
  0
ARC
  5
4E1
100
AcDbEntity
  8
0
  6
CONTINUOUS
 62
     7
100
AcDbCircle
 10
-84.732565
 20
84.075422
 30
0.0
 40
0.56236
100
AcDbArc
 50
245.50679
 51
251.131765
  0
ARC
  5
4E2
100
AcDbEntity
  8
0
  6
CONTINUOUS
 62
     7
100
AcDbCircle
 10
-84.738347
 20
84.073661
 30
0.0
 40
0.558845
100
AcDbArc
 50
251.634321
 51
257.259296
  0
ARC
  5
4E3
100
AcDbEntity
  8
0
  6
CONTINUOUS
 62
     7
100
AcDbCircle
 10
-84.744266
 20
84.072494
 30
0.0
 40
0.556428
100
AcDbArc
 50
257.82731
 51
263.452286
  0
ARC
  5
4E4
100
AcDbEntity
  8
0
  6
CONTINUOUS
 62
     7
100
AcDbCircle
 10
-84.750287
 20
84.071891
 30
0.0
 40
0.555175
100
AcDbArc
 50
264.062575
 51
269.687551
  0
ARC
  5
4E5
100
AcDbEntity
  8
0
  6
CONTINUOUS
 62
     7
100
AcDbCircle
 10
-87.988104
 20
84.12737
 30
0.0
 40
1.233074
100
AcDbArc
 50
179.719112
 51
185.344112
  0
ARC
  5
4E6
100
AcDbEntity
  8
0
  6
CONTINUOUS
 62
     7
100
AcDbCircle
 10
-87.989276
 20
84.115342
 30
0.0
 40
1.230843
100
AcDbArc
 50
184.791735
 51
190.416735
  0
ARC
  5
4E7
100
AcDbEntity
  8
0
  6
CONTINUOUS
 62
     7
100
AcDbCircle
 10
-87.991642
 20
84.103478
 30
0.0
 40
1.226423
100
AcDbArc
 50
189.891559
 51
195.516558
  0
ARC
  5
4E8
100
AcDbEntity
  8
0
  6
CONTINUOUS
 62
     7
100
AcDbCircle
 10
-87.995152
 20
84.091911
 30
0.0
 40
1.219989
100
AcDbArc
 50
195.037224
 51
200.662224
  0
ARC
  5
4E9
100
AcDbEntity
  8
0
  6
CONTINUOUS
 62
     7
100
AcDbCircle
 10
-87.999774
 20
84.080748
 30
0.0
 40
1.211758
100
AcDbArc
 50
200.245451
 51
205.870451
  0
ARC
  5
4EA
100
AcDbEntity
  8
0
  6
CONTINUOUS
 62
     7
100
AcDbCircle
 10
-88.00548
 20
84.070088
 30
0.0
 40
1.201993
100
AcDbArc
 50
205.531911
 51
211.156911
  0
ARC
  5
4EB
100
AcDbEntity
  8
0
  6
CONTINUOUS
 62
     7
100
AcDbCircle
 10
-88.012196
 20
84.060031
 30
0.0
 40
1.191054
100
AcDbArc
 50
210.910061
 51
216.535061
  0
ARC
  5
4EC
100
AcDbEntity
  8
0
  6
CONTINUOUS
 62
     7
100
AcDbCircle
 10
-88.019862
 20
84.05069
 30
0.0
 40
1.179337
100
AcDbArc
 50
216.39216
 51
222.01716
  0
ARC
  5
4ED
100
AcDbEntity
  8
0
  6
CONTINUOUS
 62
     7
100
AcDbCircle
 10
-88.0284
 20
84.042141
 30
0.0
 40
1.167271
100
AcDbArc
 50
221.985902
 51
227.610902
  0
ARC
  5
4EE
100
AcDbEntity
  8
0
  6
CONTINUOUS
 62
     7
100
AcDbCircle
 10
-88.037758
 20
84.034463
 30
0.0
 40
1.155294
100
AcDbArc
 50
227.696981
 51
233.321981
  0
ARC
  5
4EF
100
AcDbEntity
  8
0
  6
CONTINUOUS
 62
     7
100
AcDbCircle
 10
-88.047808
 20
84.027756
 30
0.0
 40
1.143919
100
AcDbArc
 50
233.525036
 51
239.150036
  0
ARC
  5
4F0
100
AcDbEntity
  8
0
  6
CONTINUOUS
 62
     7
100
AcDbCircle
 10
-88.058465
 20
84.022054
 30
0.0
 40
1.133576
100
AcDbArc
 50
239.464702
 51
245.089702
  0
ARC
  5
4F1
100
AcDbEntity
  8
0
  6
CONTINUOUS
 62
     7
100
AcDbCircle
 10
-88.069636
 20
84.017428
 30
0.0
 40
1.124705
100
AcDbArc
 50
245.506586
 51
251.131586
  0
ARC
  5
4F2
100
AcDbEntity
  8
0
  6
CONTINUOUS
 62
     7
100
AcDbCircle
 10
-88.08121
 20
84.013917
 30
0.0
 40
1.117683
100
AcDbArc
 50
251.634812
 51
257.259812
  0
ARC
  5
4F3
100
AcDbEntity
  8
0
  6
CONTINUOUS
 62
     7
100
AcDbCircle
 10
-88.093059
 20
84.011564
 30
0.0
 40
1.112828
100
AcDbArc
 50
257.828163
 51
263.453162
  0
ARC
  5
4F4
100
AcDbEntity
  8
0
  6
CONTINUOUS
 62
     7
100
AcDbCircle
 10
-88.105092
 20
84.01038
 30
0.0
 40
1.110344
100
AcDbArc
 50
264.063088
 51
269.688088
  0
ARC
  5
4F5
100
AcDbEntity
  8
0
  6
CONTINUOUS
 62
     7
100
AcDbCircle
 10
-87.340167
 20
84.01038
 30
0.0
 40
1.110344
100
AcDbArc
 50
270.311912
 51
275.936912
  0
ARC
  5
4F6
100
AcDbEntity
  8
0
  6
CONTINUOUS
 62
     7
100
AcDbCircle
 10
-87.3522
 20
84.011564
 30
0.0
 40
1.112828
100
AcDbArc
 50
276.546838
 51
282.171837
  0
ARC
  5
4F7
100
AcDbEntity
  8
0
  6
CONTINUOUS
 62
     7
100
AcDbCircle
 10
-87.364049
 20
84.013917
 30
0.0
 40
1.117683
100
AcDbArc
 50
282.740188
 51
288.365188
  0
ARC
  5
4F8
100
AcDbEntity
  8
0
  6
CONTINUOUS
 62
     7
100
AcDbCircle
 10
-87.375623
 20
84.017428
 30
0.0
 40
1.124705
100
AcDbArc
 50
288.868414
 51
294.493414
  0
ARC
  5
4F9
100
AcDbEntity
  8
0
  6
CONTINUOUS
 62
     7
100
AcDbCircle
 10
-87.386794
 20
84.022054
 30
0.0
 40
1.133576
100
AcDbArc
 50
294.910298
 51
300.535298
  0
ARC
  5
4FA
100
AcDbEntity
  8
0
  6
CONTINUOUS
 62
     7
100
AcDbCircle
 10
-87.397451
 20
84.027756
 30
0.0
 40
1.143919
100
AcDbArc
 50
300.849964
 51
306.474964
  0
ARC
  5
4FB
100
AcDbEntity
  8
0
  6
CONTINUOUS
 62
     7
100
AcDbCircle
 10
-87.407501
 20
84.034463
 30
0.0
 40
1.155294
100
AcDbArc
 50
306.678019
 51
312.303019
  0
ARC
  5
4FC
100
AcDbEntity
  8
0
  6
CONTINUOUS
 62
     7
100
AcDbCircle
 10
-87.416859
 20
84.042141
 30
0.0
 40
1.167271
100
AcDbArc
 50
312.389098
 51
318.014098
  0
ARC
  5
4FD
100
AcDbEntity
  8
0
  6
CONTINUOUS
 62
     7
100
AcDbCircle
 10
-87.425397
 20
84.05069
 30
0.0
 40
1.179337
100
AcDbArc
 50
317.98284
 51
323.60784
  0
ARC
  5
4FE
100
AcDbEntity
  8
0
  6
CONTINUOUS
 62
     7
100
AcDbCircle
 10
-87.433063
 20
84.060031
 30
0.0
 40
1.191054
100
AcDbArc
 50
323.464939
 51
329.089939
  0
ARC
  5
4FF
100
AcDbEntity
  8
0
  6
CONTINUOUS
 62
     7
100
AcDbCircle
 10
-87.439779
 20
84.070088
 30
0.0
 40
1.201993
100
AcDbArc
 50
328.843089
 51
334.468089
  0
ARC
  5
500
100
AcDbEntity
  8
0
  6
CONTINUOUS
 62
     7
100
AcDbCircle
 10
-87.445486
 20
84.080738
 30
0.0
 40
1.211754
100
AcDbArc
 50
334.129992
 51
339.754992
  0
ARC
  5
501
100
AcDbEntity
  8
0
  6
CONTINUOUS
 62
     7
100
AcDbCircle
 10
-87.450107
 20
84.091921
 30
0.0
 40
1.219992
100
AcDbArc
 50
339.337321
 51
344.962321
  0
ARC
  5
502
100
AcDbEntity
  8
0
  6
CONTINUOUS
 62
     7
100
AcDbCircle
 10
-87.453617
 20
84.103478
 30
0.0
 40
1.226423
100
AcDbArc
 50
344.483442
 51
350.108441
  0
ARC
  5
503
100
AcDbEntity
  8
0
  6
CONTINUOUS
 62
     7
100
AcDbCircle
 10
-87.455983
 20
84.115342
 30
0.0
 40
1.230843
100
AcDbArc
 50
349.583265
 51
355.208265
  0
ARC
  5
504
100
AcDbEntity
  8
0
  6
CONTINUOUS
 62
     7
100
AcDbCircle
 10
-87.457155
 20
84.12737
 30
0.0
 40
1.233074
100
AcDbArc
 50
354.655888
 51
0.280888
  0
ARC
  5
505
100
AcDbEntity
  8
0
  6
CONTINUOUS
 62
     7
100
AcDbCircle
 10
-87.93866
 20
84.13668
 30
0.0
 40
0.616526
100
AcDbArc
 50
174.576352
 51
180.557281
  0
ARC
  5
506
100
AcDbEntity
  8
0
  6
CONTINUOUS
 62
     7
100
AcDbCircle
 10
-87.938649
 20
84.130244
 30
0.0
 40
0.616509
100
AcDbArc
 50
179.959076
 51
185.940006
  0
ARC
  5
507
100
AcDbEntity
  8
0
  6
CONTINUOUS
 62
     7
100
AcDbCircle
 10
-87.939313
 20
84.123851
 30
0.0
 40
0.615219
100
AcDbArc
 50
185.354228
 51
191.335157
  0
ARC
  5
508
100
AcDbEntity
  8
0
  6
CONTINUOUS
 62
     7
100
AcDbCircle
 10
-87.940645
 20
84.117566
 30
0.0
 40
0.612706
100
AcDbArc
 50
190.783414
 51
196.764343
  0
ARC
  5
509
100
AcDbEntity
  8
0
  6
CONTINUOUS
 62
     7
100
AcDbCircle
 10
-87.942615
 20
84.111452
 30
0.0
 40
0.609078
100
AcDbArc
 50
196.267032
 51
202.247962
  0
ARC
  5
50A
100
AcDbEntity
  8
0
  6
CONTINUOUS
 62
     7
100
AcDbCircle
 10
-87.94522
 20
84.105578
 30
0.0
 40
0.60446
100
AcDbArc
 50
201.826109
 51
207.807038
  0
ARC
  5
50B
100
AcDbEntity
  8
0
  6
CONTINUOUS
 62
     7
100
AcDbCircle
 10
-87.948421
 20
84.100009
 30
0.0
 40
0.599041
100
AcDbArc
 50
207.478706
 51
213.459635
  0
ARC
  5
50C
100
AcDbEntity
  8
0
  6
CONTINUOUS
 62
     7
100
AcDbCircle
 10
-87.95218
 20
84.094794
 30
0.0
 40
0.593034
100
AcDbArc
 50
213.239578
 51
219.220507
  0
ARC
  5
50D
100
AcDbEntity
  8
0
  6
CONTINUOUS
 62
     7
100
AcDbCircle
 10
-87.956467
 20
84.090011
 30
0.0
 40
0.586689
100
AcDbArc
 50
219.123367
 51
225.104296
  0
ARC
  5
50E
100
AcDbEntity
  8
0
  6
CONTINUOUS
 62
     7
100
AcDbCircle
 10
-87.961227
 20
84.08569
 30
0.0
 40
0.580268
100
AcDbArc
 50
225.136064
 51
231.116993
  0
ARC
  5
50F
100
AcDbEntity
  8
0
  6
CONTINUOUS
 62
     7
100
AcDbCircle
 10
-87.96642
 20
84.081897
 30
0.0
 40
0.574058
100
AcDbArc
 50
231.282818
 51
237.263748
  0
ARC
  5
510
100
AcDbEntity
  8
0
  6
CONTINUOUS
 62
     7
100
AcDbCircle
 10
-87.971964
 20
84.078658
 30
0.0
 40
0.568343
100
AcDbArc
 50
237.557308
 51
243.538237
  0
ARC
  5
511
100
AcDbEntity
  8
0
  6
CONTINUOUS
 62
     7
100
AcDbCircle
 10
-87.97782
 20
84.076026
 30
0.0
 40
0.563392
100
AcDbArc
 50
243.952109
 51
249.933038
  0
ARC
  5
512
100
AcDbEntity
  8
0
  6
CONTINUOUS
 62
     7
100
AcDbCircle
 10
-87.983922
 20
84.074008
 30
0.0
 40
0.559426
100
AcDbArc
 50
250.449158
 51
256.430087
  0
ARC
  5
513
100
AcDbEntity
  8
0
  6
CONTINUOUS
 62
     7
100
AcDbCircle
 10
-87.9902
 20
84.072637
 30
0.0
 40
0.55665
100
AcDbArc
 50
257.025157
 51
263.006086
  0
ARC
  5
514
100
AcDbEntity
  8
0
  6
CONTINUOUS
 62
     7
100
AcDbCircle
 10
-87.99659
 20
84.071936
 30
0.0
 40
0.555211
100
AcDbArc
 50
263.651786
 51
269.632716
  0
ARC
  5
515
100
AcDbEntity
  8
0
  6
CONTINUOUS
 62
     7
100
AcDbCircle
 10
-87.448107
 20
84.071885
 30
0.0
 40
0.555168
100
AcDbArc
 50
270.306904
 51
275.835531
  0
ARC
  5
516
100
AcDbEntity
  8
0
  6
CONTINUOUS
 62
     7
100
AcDbCircle
 10
-87.454013
 20
84.072462
 30
0.0
 40
0.556373
100
AcDbArc
 50
276.434551
 51
281.963178
  0
ARC
  5
517
100
AcDbEntity
  8
0
  6
CONTINUOUS
 62
     7
100
AcDbCircle
 10
-87.459844
 20
84.073605
 30
0.0
 40
0.558727
100
AcDbArc
 50
282.523907
 51
288.052534
  0
ARC
  5
518
100
AcDbEntity
  8
0
  6
CONTINUOUS
 62
     7
100
AcDbCircle
 10
-87.465541
 20
84.075301
 30
0.0
 40
0.562125
100
AcDbArc
 50
288.55103
 51
294.079657
  0
ARC
  5
519
100
AcDbEntity
  8
0
  6
CONTINUOUS
 62
     7
100
AcDbCircle
 10
-87.471041
 20
84.077526
 30
0.0
 40
0.566416
100
AcDbArc
 50
294.495818
 51
300.024445
  0
ARC
  5
51A
100
AcDbEntity
  8
0
  6
CONTINUOUS
 62
     7
100
AcDbCircle
 10
-87.476309
 20
84.08029
 30
0.0
 40
0.571454
100
AcDbArc
 50
300.343092
 51
305.871718
  0
ARC
  5
51B
100
AcDbEntity
  8
0
  6
CONTINUOUS
 62
     7
100
AcDbCircle
 10
-87.481278
 20
84.083544
 30
0.0
 40
0.577006
100
AcDbArc
 50
306.082157
 51
311.610784
  0
ARC
  5
51C
100
AcDbEntity
  8
0
  6
CONTINUOUS
 62
     7
100
AcDbCircle
 10
-87.485918
 20
84.087254
 30
0.0
 40
0.582863
100
AcDbArc
 50
311.709616
 51
317.238243
  0
ARC
  5
51D
100
AcDbEntity
  8
0
  6
CONTINUOUS
 62
     7
100
AcDbCircle
 10
-87.490173
 20
84.091407
 30
0.0
 40
0.588806
100
AcDbArc
 50
317.222669
 51
322.751296
  0
ARC
  5
51E
100
AcDbEntity
  8
0
  6
CONTINUOUS
 62
     7
100
AcDbCircle
 10
-87.494005
 20
84.095937
 30
0.0
 40
0.594599
100
AcDbArc
 50
322.627347
 51
328.155974
  0
ARC
  5
51F
100
AcDbEntity
  8
0
  6
CONTINUOUS
 62
     7
100
AcDbCircle
 10
-87.497395
 20
84.100816
 30
0.0
 40
0.600058
100
AcDbArc
 50
327.930995
 51
333.459622
  0
ARC
  5
520
100
AcDbEntity
  8
0
  6
CONTINUOUS
 62
     7
100
AcDbCircle
 10
-87.500294
 20
84.106005
 30
0.0
 40
0.60498
100
AcDbArc
 50
333.142698
 51
338.671325
  0
ARC
  5
521
100
AcDbEntity
  8
0
  6
CONTINUOUS
 62
     7
100
AcDbCircle
 10
-87.502676
 20
84.111455
 30
0.0
 40
0.609195
100
AcDbArc
 50
338.275307
 51
343.803934
  0
ARC
  5
522
100
AcDbEntity
  8
0
  6
CONTINUOUS
 62
     7
100
AcDbCircle
 10
-87.504533
 20
84.117085
 30
0.0
 40
0.612569
100
AcDbArc
 50
343.346672
 51
348.875299
  0
ARC
  5
523
100
AcDbEntity
  8
0
  6
CONTINUOUS
 62
     7
100
AcDbCircle
 10
-87.505814
 20
84.122897
 30
0.0
 40
0.614971
100
AcDbArc
 50
348.366957
 51
353.895584
  0
ARC
  5
524
100
AcDbEntity
  8
0
  6
CONTINUOUS
 62
     7
100
AcDbCircle
 10
-87.506552
 20
84.128787
 30
0.0
 40
0.616359
100
AcDbArc
 50
353.358466
 51
358.887093
  0
ARC
  5
525
100
AcDbEntity
  8
0
  6
CONTINUOUS
 62
     7
100
AcDbCircle
 10
-87.642891
 20
85.692884
 30
0.0
 40
0.611793
100
AcDbArc
 50
12.816367
 51
17.540615
  0
ARC
  5
526
100
AcDbEntity
  8
0
  6
CONTINUOUS
 62
     7
100
AcDbCircle
 10
-87.641222
 20
85.69768
 30
0.0
 40
0.608769
100
AcDbArc
 50
17.157523
 51
21.88177
  0
ARC
  5
527
100
AcDbEntity
  8
0
  6
CONTINUOUS
 62
     7
100
AcDbCircle
 10
-87.639168
 20
85.702324
 30
0.0
 40
0.605143
100
AcDbArc
 50
21.546251
 51
26.270499
  0
ARC
  5
528
100
AcDbEntity
  8
0
  6
CONTINUOUS
 62
     7
100
AcDbCircle
 10
-87.636736
 20
85.70679
 30
0.0
 40
0.600993
100
AcDbArc
 50
25.991271
 51
30.715518
  0
ARC
  5
529
100
AcDbEntity
  8
0
  6
CONTINUOUS
 62
     7
100
AcDbCircle
 10
-87.633948
 20
85.711043
 30
0.0
 40
0.596428
100
AcDbArc
 50
30.501104
 51
35.225351
  0
ARC
  5
52A
100
AcDbEntity
  8
0
  6
CONTINUOUS
 62
     7
100
AcDbCircle
 10
-87.630815
 20
85.715024
 30
0.0
 40
0.591575
100
AcDbArc
 50
35.085398
 51
39.809645
  0
ARC
  5
52B
100
AcDbEntity
  8
0
  6
CONTINUOUS
 62
     7
100
AcDbCircle
 10
-87.627377
 20
85.718765
 30
0.0
 40
0.586539
100
AcDbArc
 50
39.744003
 51
44.46825
  0
ARC
  5
52C
100
AcDbEntity
  8
0
  6
CONTINUOUS
 62
     7
100
AcDbCircle
 10
-87.623627
 20
85.722193
 30
0.0
 40
0.581461
100
AcDbArc
 50
44.485977
 51
49.210224
  0
ARC
  5
52D
100
AcDbEntity
  8
0
  6
CONTINUOUS
 62
     7
100
AcDbCircle
 10
-87.619616
 20
85.725307
 30
0.0
 40
0.576484
100
AcDbArc
 50
49.309859
 51
54.034106
  0
ARC
  5
52E
100
AcDbEntity
  8
0
  6
CONTINUOUS
 62
     7
100
AcDbCircle
 10
-87.615353
 20
85.728088
 30
0.0
 40
0.571733
100
AcDbArc
 50
54.216211
 51
58.940458
  0
ARC
  5
52F
100
AcDbEntity
  8
0
  6
CONTINUOUS
 62
     7
100
AcDbCircle
 10
-87.610881
 20
85.730493
 30
0.0
 40
0.567371
100
AcDbArc
 50
59.202039
 51
63.926287
  0
ARC
  5
530
100
AcDbEntity
  8
0
  6
CONTINUOUS
 62
     7
100
AcDbCircle
 10
-87.606242
 20
85.732516
 30
0.0
 40
0.563524
100
AcDbArc
 50
64.259509
 51
68.983757
  0
ARC
  5
531
100
AcDbEntity
  8
0
  6
CONTINUOUS
 62
     7
100
AcDbCircle
 10
-87.60143
 20
85.734178
 30
0.0
 40
0.56026
100
AcDbArc
 50
69.38222
 51
74.106467
  0
ARC
  5
532
100
AcDbEntity
  8
0
  6
CONTINUOUS
 62
     7
100
AcDbCircle
 10
-87.596501
 20
85.735414
 30
0.0
 40
0.55774
100
AcDbArc
 50
74.55863
 51
79.282877
  0
ARC
  5
533
100
AcDbEntity
  8
0
  6
CONTINUOUS
 62
     7
100
AcDbCircle
 10
-87.591496
 20
85.736248
 30
0.0
 40
0.55601
100
AcDbArc
 50
79.773674
 51
84.497921
  0
ARC
  5
534
100
AcDbEntity
  8
0
  6
CONTINUOUS
 62
     7
100
AcDbCircle
 10
-87.586423
 20
85.736661
 30
0.0
 40
0.555135
100
AcDbArc
 50
85.015074
 51
89.739321
  0
ARC
  5
535
100
AcDbEntity
  8
0
  6
CONTINUOUS
 62
     7
100
AcDbCircle
 10
-87.849261
 20
85.736584
 30
0.0
 40
0.555218
100
AcDbArc
 50
90.391792
 51
95.81393
  0
ARC
  5
536
100
AcDbEntity
  8
0
  6
CONTINUOUS
 62
     7
100
AcDbCircle
 10
-87.843471
 20
85.735957
 30
0.0
 40
0.556457
100
AcDbArc
 50
96.400531
 51
101.822669
  0
ARC
  5
537
100
AcDbEntity
  8
0
  6
CONTINUOUS
 62
     7
100
AcDbCircle
 10
-87.83776
 20
85.734774
 30
0.0
 40
0.558811
100
AcDbArc
 50
102.370944
 51
107.793082
  0
ARC
  5
538
100
AcDbEntity
  8
0
  6
CONTINUOUS
 62
     7
100
AcDbCircle
 10
-87.832196
 20
85.733059
 30
0.0
 40
0.562164
100
AcDbArc
 50
108.279644
 51
113.701782
  0
ARC
  5
539
100
AcDbEntity
  8
0
  6
CONTINUOUS
 62
     7
100
AcDbCircle
 10
-87.826803
 20
85.730833
 30
0.0
 40
0.566385
100
AcDbArc
 50
114.110794
 51
119.532932
  0
ARC
  5
53A
100
AcDbEntity
  8
0
  6
CONTINUOUS
 62
     7
100
AcDbCircle
 10
-87.821663
 20
85.728098
 30
0.0
 40
0.571307
100
AcDbArc
 50
119.846312
 51
125.26845
  0
ARC
  5
53B
100
AcDbEntity
  8
0
  6
CONTINUOUS
 62
     7
100
AcDbCircle
 10
-87.81679
 20
85.724893
 30
0.0
 40
0.576742
100
AcDbArc
 50
125.479837
 51
130.901975
  0
ARC
  5
53C
100
AcDbEntity
  8
0
  6
CONTINUOUS
 62
     7
100
AcDbCircle
 10
-87.812253
 20
85.721245
 30
0.0
 40
0.58247
100
AcDbArc
 50
131.004303
 51
136.426441
  0
ARC
  5
53D
100
AcDbEntity
  8
0
  6
CONTINUOUS
 62
     7
100
AcDbCircle
 10
-87.808073
 20
85.717191
 30
0.0
 40
0.588293
100
AcDbArc
 50
136.420969
 51
141.843107
  0
ARC
  5
53E
100
AcDbEntity
  8
0
  6
CONTINUOUS
 62
     7
100
AcDbCircle
 10
-87.8043
 20
85.71274
 30
0.0
 40
0.594011
100
AcDbArc
 50
141.730392
 51
147.15253
  0
ARC
  5
53F
100
AcDbEntity
  8
0
  6
CONTINUOUS
 62
     7
100
AcDbCircle
 10
-87.800963
 20
85.707969
 30
0.0
 40
0.599406
100
AcDbArc
 50
146.942449
 51
152.364587
  0
ARC
  5
540
100
AcDbEntity
  8
0
  6
CONTINUOUS
 62
     7
100
AcDbCircle
 10
-87.798082
 20
85.7029
 30
0.0
 40
0.604318
100
AcDbArc
 50
152.06551
 51
157.487648
  0
ARC
  5
541
100
AcDbEntity
  8
0
  6
CONTINUOUS
 62
     7
100
AcDbCircle
 10
-87.795705
 20
85.697582
 30
0.0
 40
0.608563
100
AcDbArc
 50
157.110766
 51
162.532904
  0
ARC
  5
542
100
AcDbEntity
  8
0
  6
CONTINUOUS
 62
     7
100
AcDbCircle
 10
-87.793836
 20
85.692066
 30
0.0
 40
0.61202
100
AcDbArc
 50
162.092834
 51
167.514972
  0
ARC
  5
543
100
AcDbEntity
  8
0
  6
CONTINUOUS
 62
     7
100
AcDbCircle
 10
-87.792507
 20
85.68639
 30
0.0
 40
0.614567
100
AcDbArc
 50
167.025073
 51
172.447211
  0
ARC
  5
544
100
AcDbEntity
  8
0
  6
CONTINUOUS
 62
     7
100
AcDbCircle
 10
-87.7917
 20
85.680615
 30
0.0
 40
0.616152
100
AcDbArc
 50
171.924787
 51
177.346925
  0
ARC
  5
545
100
AcDbEntity
  8
0
  6
CONTINUOUS
 62
     7
100
AcDbCircle
 10
-87.966384
 20
85.798139
 30
0.0
 40
1.110341
100
AcDbArc
 50
90.309885
 51
95.904797
  0
ARC
  5
546
100
AcDbEntity
  8
0
  6
CONTINUOUS
 62
     7
100
AcDbCircle
 10
-87.95441
 20
85.796976
 30
0.0
 40
1.112792
100
AcDbArc
 50
96.511895
 51
102.106807
  0
ARC
  5
547
100
AcDbEntity
  8
0
  6
CONTINUOUS
 62
     7
100
AcDbCircle
 10
-87.942613
 20
85.794638
 30
0.0
 40
1.117607
100
AcDbArc
 50
102.673014
 51
108.267925
  0
ARC
  5
548
100
AcDbEntity
  8
0
  6
CONTINUOUS
 62
     7
100
AcDbCircle
 10
-87.931097
 20
85.791164
 30
0.0
 40
1.124559
100
AcDbArc
 50
108.769584
 51
114.364496
  0
ARC
  5
549
100
AcDbEntity
  8
0
  6
CONTINUOUS
 62
     7
100
AcDbCircle
 10
-87.919981
 20
85.786587
 30
0.0
 40
1.133344
100
AcDbArc
 50
114.78099
 51
120.375902
  0
ARC
  5
54A
100
AcDbEntity
  8
0
  6
CONTINUOUS
 62
     7
100
AcDbCircle
 10
-87.909363
 20
85.780956
 30
0.0
 40
1.143588
100
AcDbArc
 50
120.692171
 51
126.287082
  0
ARC
  5
54B
100
AcDbEntity
  8
0
  6
CONTINUOUS
 62
     7
100
AcDbCircle
 10
-87.899348
 20
85.774297
 30
0.0
 40
1.154891
100
AcDbArc
 50
126.492058
 51
132.08697
  0
ARC
  5
54C
100
AcDbEntity
  8
0
  6
CONTINUOUS
 62
     7
100
AcDbCircle
 10
-87.890018
 20
85.766699
 30
0.0
 40
1.166785
100
AcDbArc
 50
132.176932
 51
137.771843
  0
ARC
  5
54D
100
AcDbEntity
  8
0
  6
CONTINUOUS
 62
     7
100
AcDbCircle
 10
-87.881482
 20
85.758242
 30
0.0
 40
1.178789
100
AcDbArc
 50
137.746296
 51
143.341208
  0
ARC
  5
54E
100
AcDbEntity
  8
0
  6
CONTINUOUS
 62
     7
100
AcDbCircle
 10
-87.873808
 20
85.748976
 30
0.0
 40
1.190481
100
AcDbArc
 50
143.203965
 51
148.798877
  0
ARC
  5
54F
100
AcDbEntity
  8
0
  6
CONTINUOUS
 62
     7
100
AcDbCircle
 10
-87.867084
 20
85.739015
 30
0.0
 40
1.201403
100
AcDbArc
 50
148.558667
 51
154.153579
  0
ARC
  5
550
100
AcDbEntity
  8
0
  6
CONTINUOUS
 62
     7
100
AcDbCircle
 10
-87.861348
 20
85.728449
 30
0.0
 40
1.211192
100
AcDbArc
 50
153.822084
 51
159.416996
  0
ARC
  5
551
100
AcDbEntity
  8
0
  6
CONTINUOUS
 62
     7
100
AcDbCircle
 10
-87.856669
 20
85.717365
 30
0.0
 40
1.2195
100
AcDbArc
 50
159.006718
 51
164.601629
  0
ARC
  5
552
100
AcDbEntity
  8
0
  6
CONTINUOUS
 62
     7
100
AcDbCircle
 10
-87.85311
 20
85.705876
 30
0.0
 40
1.226024
100
AcDbArc
 50
164.128154
 51
169.723066
  0
ARC
  5
553
100
AcDbEntity
  8
0
  6
CONTINUOUS
 62
     7
100
AcDbCircle
 10
-87.85068
 20
85.694105
 30
0.0
 40
1.230566
100
AcDbArc
 50
169.203985
 51
174.798897
  0
ARC
  5
554
100
AcDbEntity
  8
0
  6
CONTINUOUS
 62
     7
100
AcDbCircle
 10
-87.849396
 20
85.68215
 30
0.0
 40
1.232984
100
AcDbArc
 50
174.251059
 51
179.845971
  0
ARC
  5
555
100
AcDbEntity
  8
0
  6
CONTINUOUS
 62
     7
100
AcDbCircle
 10
-87.594148
 20
85.696923
 30
0.0
 40
1.229854
100
AcDbArc
 50
6.151192
 51
11.332199
  0
ARC
  5
556
100
AcDbEntity
  8
0
  6
CONTINUOUS
 62
     7
100
AcDbCircle
 10
-87.591694
 20
85.70777
 30
0.0
 40
1.225358
100
AcDbArc
 50
10.857466
 51
16.038473
  0
ARC
  5
557
100
AcDbEntity
  8
0
  6
CONTINUOUS
 62
     7
100
AcDbCircle
 10
-87.588239
 20
85.718377
 30
0.0
 40
1.219142
100
AcDbArc
 50
15.604244
 51
20.78525
  0
ARC
  5
558
100
AcDbEntity
  8
0
  6
CONTINUOUS
 62
     7
100
AcDbCircle
 10
-87.583879
 20
85.728606
 30
0.0
 40
1.211463
100
AcDbArc
 50
20.406109
 51
25.587116
  0
ARC
  5
559
100
AcDbEntity
  8
0
  6
CONTINUOUS
 62
     7
100
AcDbCircle
 10
-87.578577
 20
85.738414
 30
0.0
 40
1.202463
100
AcDbArc
 50
25.274733
 51
30.45574
  0
ARC
  5
55A
100
AcDbEntity
  8
0
  6
CONTINUOUS
 62
     7
100
AcDbCircle
 10
-87.572435
 20
85.747702
 30
0.0
 40
1.19247
100
AcDbArc
 50
30.220605
 51
35.401612
  0
ARC
  5
55B
100
AcDbEntity
  8
0
  6
CONTINUOUS
 62
     7
100
AcDbCircle
 10
-87.565472
 20
85.756394
 30
0.0
 40
1.181763
100
AcDbArc
 50
35.253668
 51
40.434675
  0
ARC
  5
55C
100
AcDbEntity
  8
0
  6
CONTINUOUS
 62
     7
100
AcDbCircle
 10
-87.557755
 20
85.764428
 30
0.0
 40
1.17068
100
AcDbArc
 50
40.380362
 51
45.561369
  0
ARC
  5
55D
100
AcDbEntity
  8
0
  6
CONTINUOUS
 62
     7
100
AcDbCircle
 10
-87.549342
 20
85.771727
 30
0.0
 40
1.159577
100
AcDbArc
 50
45.605685
 51
50.786692
  0
ARC
  5
55E
100
AcDbEntity
  8
0
  6
CONTINUOUS
 62
     7
100
AcDbCircle
 10
-87.540303
 20
85.778231
 30
0.0
 40
1.148827
100
AcDbArc
 50
50.930887
 51
56.111894
  0
ARC
  5
55F
100
AcDbEntity
  8
0
  6
CONTINUOUS
 62
     7
100
AcDbCircle
 10
-87.530719
 20
85.78389
 30
0.0
 40
1.138796
100
AcDbArc
 50
56.353436
 51
61.534443
  0
ARC
  5
560
100
AcDbEntity
  8
0
  6
CONTINUOUS
 62
     7
100
AcDbCircle
 10
-87.52065
 20
85.788686
 30
0.0
 40
1.1298
100
AcDbArc
 50
61.867399
 51
67.048406
  0
ARC
  5
561
100
AcDbEntity
  8
0
  6
CONTINUOUS
 62
     7
100
AcDbCircle
 10
-87.5102
 20
85.792521
 30
0.0
 40
1.122224
100
AcDbArc
 50
67.463353
 51
72.64436
  0
ARC
  5
562
100
AcDbEntity
  8
0
  6
CONTINUOUS
 62
     7
100
AcDbCircle
 10
-87.499443
 20
85.795416
 30
0.0
 40
1.116291
100
AcDbArc
 50
73.12702
 51
78.308027
  0
ARC
  5
563
100
AcDbEntity
  8
0
  6
CONTINUOUS
 62
     7
100
AcDbCircle
 10
-87.488474
 20
85.797317
 30
0.0
 40
1.112255
100
AcDbArc
 50
78.841536
 51
84.022543
  0
ARC
  5
564
100
AcDbEntity
  8
0
  6
CONTINUOUS
 62
     7
100
AcDbCircle
 10
-87.477381
 20
85.798237
 30
0.0
 40
1.110238
100
AcDbArc
 50
84.586948
 51
89.767955
  0
ARC
  5
565
100
AcDbEntity
  8
0
  6
CONTINUOUS
 62
     7
100
AcDbCircle
 10
-88.100053
 20
85.72995
 30
0.0
 40
0.307854
100
AcDbArc
 50
183.817806
 51
188.536029
  0
ARC
  5
566
100
AcDbEntity
  8
0
  6
CONTINUOUS
 62
     7
100
AcDbCircle
 10
-88.100501
 20
85.727448
 30
0.0
 40
0.307049
100
AcDbArc
 50
188.086635
 51
192.804858
  0
ARC
  5
567
100
AcDbEntity
  8
0
  6
CONTINUOUS
 62
     7
100
AcDbCircle
 10
-88.101158
 20
85.724992
 30
0.0
 40
0.305872
100
AcDbArc
 50
192.383525
 51
197.101748
  0
ARC
  5
568
100
AcDbEntity
  8
0
  6
CONTINUOUS
 62
     7
100
AcDbCircle
 10
-88.102015
 20
85.722615
 30
0.0
 40
0.304361
100
AcDbArc
 50
196.721582
 51
201.439805
  0
ARC
  5
569
100
AcDbEntity
  8
0
  6
CONTINUOUS
 62
     7
100
AcDbCircle
 10
-88.103058
 20
85.720299
 30
0.0
 40
0.302549
100
AcDbArc
 50
201.103775
 51
205.821998
  0
ARC
  5
56A
100
AcDbEntity
  8
0
  6
CONTINUOUS
 62
     7
100
AcDbCircle
 10
-88.104302
 20
85.718092
 30
0.0
 40
0.300471
100
AcDbArc
 50
205.546468
 51
210.264691
  0
ARC
  5
56B
100
AcDbEntity
  8
0
  6
CONTINUOUS
 62
     7
100
AcDbCircle
 10
-88.105711
 20
85.715975
 30
0.0
 40
0.29819
100
AcDbArc
 50
210.049786
 51
214.768009
  0
ARC
  5
56C
100
AcDbEntity
  8
0
  6
CONTINUOUS
 62
     7
100
AcDbCircle
 10
-88.107294
 20
85.713996
 30
0.0
 40
0.295762
100
AcDbArc
 50
214.627973
 51
219.346196
  0
ARC
  5
56D
100
AcDbEntity
  8
0
  6
CONTINUOUS
 62
     7
100
AcDbCircle
 10
-88.109025
 20
85.712145
 30
0.0
 40
0.293249
100
AcDbArc
 50
219.280932
 51
223.999155
  0
ARC
  5
56E
100
AcDbEntity
  8
0
  6
CONTINUOUS
 62
     7
100
AcDbCircle
 10
-88.110923
 20
85.710452
 30
0.0
 40
0.290708
100
AcDbArc
 50
224.019
 51
228.737223
  0
ARC
  5
56F
100
AcDbEntity
  8
0
  6
CONTINUOUS
 62
     7
100
AcDbCircle
 10
-88.112931
 20
85.708925
 30
0.0
 40
0.288236
100
AcDbArc
 50
228.83703
 51
233.555253
  0
ARC
  5
570
100
AcDbEntity
  8
0
  6
CONTINUOUS
 62
     7
100
AcDbCircle
 10
-88.115061
 20
85.707548
 30
0.0
 40
0.285865
100
AcDbArc
 50
233.734744
 51
238.452967
  0
ARC
  5
571
100
AcDbEntity
  8
0
  6
CONTINUOUS
 62
     7
100
AcDbCircle
 10
-88.117321
 20
85.706369
 30
0.0
 40
0.28368
100
AcDbArc
 50
238.717344
 51
243.435568
  0
ARC
  5
572
100
AcDbEntity
  8
0
  6
CONTINUOUS
 62
     7
100
AcDbCircle
 10
-88.11964
 20
85.705372
 30
0.0
 40
0.281757
100
AcDbArc
 50
243.766681
 51
248.484905
  0
ARC
  5
573
100
AcDbEntity
  8
0
  6
CONTINUOUS
 62
     7
100
AcDbCircle
 10
-88.122049
 20
85.704568
 30
0.0
 40
0.280132
100
AcDbArc
 50
248.883037
 51
253.60126
  0
ARC
  5
574
100
AcDbEntity
  8
0
  6
CONTINUOUS
 62
     7
100
AcDbCircle
 10
-88.124526
 20
85.703965
 30
0.0
 40
0.278863
100
AcDbArc
 50
254.054392
 51
258.772615
  0
ARC
  5
575
100
AcDbEntity
  8
0
  6
CONTINUOUS
 62
     7
100
AcDbCircle
 10
-87.35247
 20
84.104555
 30
0.0
 40
0.462274
100
AcDbArc
 50
1.350854
 51
6.2396
  0
ARC
  5
576
100
AcDbEntity
  8
0
  6
CONTINUOUS
 62
     7
100
AcDbCircle
 10
-87.352004
 20
84.108472
 30
0.0
 40
0.461402
100
AcDbArc
 50
5.762317
 51
10.651063
  0
ARC
  5
577
100
AcDbEntity
  8
0
  6
CONTINUOUS
 62
     7
100
AcDbCircle
 10
-87.351224
 20
84.112326
 30
0.0
 40
0.459937
100
AcDbArc
 50
10.19722
 51
15.085966
  0
ARC
  5
578
100
AcDbEntity
  8
0
  6
CONTINUOUS
 62
     7
100
AcDbCircle
 10
-87.350099
 20
84.116117
 30
0.0
 40
0.457877
100
AcDbArc
 50
14.664612
 51
19.553358
  0
ARC
  5
579
100
AcDbEntity
  8
0
  6
CONTINUOUS
 62
     7
100
AcDbCircle
 10
-87.348664
 20
84.119779
 30
0.0
 40
0.455308
100
AcDbArc
 50
19.179515
 51
24.068261
  0
ARC
  5
57A
100
AcDbEntity
  8
0
  6
CONTINUOUS
 62
     7
100
AcDbCircle
 10
-87.34694
 20
84.123329
 30
0.0
 40
0.452294
100
AcDbArc
 50
23.746753
 51
28.635499
  0
ARC
  5
57B
100
AcDbEntity
  8
0
  6
CONTINUOUS
 62
     7
100
AcDbCircle
 10
-87.344885
 20
84.126694
 30
0.0
 40
0.448881
100
AcDbArc
 50
28.384139
 51
33.272885
  0
ARC
  5
57C
100
AcDbEntity
  8
0
  6
CONTINUOUS
 62
     7
100
AcDbCircle
 10
-87.342576
 20
84.129877
 30
0.0
 40
0.445207
100
AcDbArc
 50
33.09348
 51
37.982226
  0
ARC
  5
57D
100
AcDbEntity
  8
0
  6
CONTINUOUS
 62
     7
100
AcDbCircle
 10
-87.340002
 20
84.132867
 30
0.0
 40
0.441339
100
AcDbArc
 50
37.881895
 51
42.770641
  0
ARC
  5
57E
100
AcDbEntity
  8
0
  6
CONTINUOUS
 62
     7
100
AcDbCircle
 10
-87.337169
 20
84.135612
 30
0.0
 40
0.437395
100
AcDbArc
 50
42.758691
 51
47.647437
  0
ARC
  5
57F
100
AcDbEntity
  8
0
  6
CONTINUOUS
 62
     7
100
AcDbCircle
 10
-87.334127
 20
84.13811
 30
0.0
 40
0.4335
100
AcDbArc
 50
47.722083
 51
52.610829
  0
ARC
  5
580
100
AcDbEntity
  8
0
  6
CONTINUOUS
 62
     7
100
AcDbCircle
 10
-87.330864
 20
84.140344
 30
0.0
 40
0.429745
100
AcDbArc
 50
52.775656
 51
57.664402
  0
ARC
  5
581
100
AcDbEntity
  8
0
  6
CONTINUOUS
 62
     7
100
AcDbCircle
 10
-87.327448
 20
84.142281
 30
0.0
 40
0.426286
100
AcDbArc
 50
57.913158
 51
62.801904
  0
ARC
  5
582
100
AcDbEntity
  8
0
  6
CONTINUOUS
 62
     7
100
AcDbCircle
 10
-87.323865
 20
84.143942
 30
0.0
 40
0.423177
100
AcDbArc
 50
63.130589
 51
68.019335
  0
ARC
  5
583
100
AcDbEntity
  8
0
  6
CONTINUOUS
 62
     7
100
AcDbCircle
 10
-87.320161
 20
84.145256
 30
0.0
 40
0.420583
100
AcDbArc
 50
68.420167
 51
73.308913
  0
ARC
  5
584
100
AcDbEntity
  8
0
  6
CONTINUOUS
 62
     7
100
AcDbCircle
 10
-87.316341
 20
84.146289
 30
0.0
 40
0.41851
100
AcDbArc
 50
73.769295
 51
78.658041
  0
ARC
  5
585
100
AcDbEntity
  8
0
  6
CONTINUOUS
 62
     7
100
AcDbCircle
 10
-88.157663
 20
85.689111
 30
0.0
 40
0.924724
100
AcDbArc
 50
180.208642
 51
185.176247
  0
ARC
  5
586
100
AcDbEntity
  8
0
  6
CONTINUOUS
 62
     7
100
AcDbCircle
 10
-88.158531
 20
85.681151
 30
0.0
 40
0.923175
100
AcDbArc
 50
184.689086
 51
189.656691
  0
ARC
  5
587
100
AcDbEntity
  8
0
  6
CONTINUOUS
 62
     7
100
AcDbCircle
 10
-88.160057
 20
85.673284
 30
0.0
 40
0.920381
100
AcDbArc
 50
189.189827
 51
194.157431
  0
ARC
  5
588
100
AcDbEntity
  8
0
  6
CONTINUOUS
 62
     7
100
AcDbCircle
 10
-88.162272
 20
85.665583
 30
0.0
 40
0.916376
100
AcDbArc
 50
193.724377
 51
198.691982
  0
ARC
  5
589
100
AcDbEntity
  8
0
  6
CONTINUOUS
 62
     7
100
AcDbCircle
 10
-88.165146
 20
85.658108
 30
0.0
 40
0.911279
100
AcDbArc
 50
198.304707
 51
203.272312
  0
ARC
  5
58A
100
AcDbEntity
  8
0
  6
CONTINUOUS
 62
     7
100
AcDbCircle
 10
-88.168659
 20
85.650905
 30
0.0
 40
0.905221
100
AcDbArc
 50
202.941396
 51
207.909001
  0
ARC
  5
58B
100
AcDbEntity
  8
0
  6
CONTINUOUS
 62
     7
100
AcDbCircle
 10
-88.172768
 20
85.644046
 30
0.0
 40
0.898389
100
AcDbArc
 50
207.645041
 51
212.612646
  0
ARC
  5
58C
100
AcDbEntity
  8
0
  6
CONTINUOUS
 62
     7
100
AcDbCircle
 10
-88.177467
 20
85.637553
 30
0.0
 40
0.890936
100
AcDbArc
 50
212.423788
 51
217.391393
  0
ARC
  5
58D
100
AcDbEntity
  8
0
  6
CONTINUOUS
 62
     7
100
AcDbCircle
 10
-88.182715
 20
85.63149
 30
0.0
 40
0.883087
100
AcDbArc
 50
217.285635
 51
222.25324
  0
ARC
  5
58E
100
AcDbEntity
  8
0
  6
CONTINUOUS
 62
     7
100
AcDbCircle
 10
-88.188467
 20
85.625915
 30
0.0
 40
0.87508
100
AcDbArc
 50
222.236297
 51
227.203901
  0
ARC
  5
58F
100
AcDbEntity
  8
0
  6
CONTINUOUS
 62
     7
100
AcDbCircle
 10
-88.19466
 20
85.620857
 30
0.0
 40
0.867162
100
AcDbArc
 50
227.277064
 51
232.244669
  0
ARC
  5
590
100
AcDbEntity
  8
0
  6
CONTINUOUS
 62
     7
100
AcDbCircle
 10
-88.201293
 20
85.616343
 30
0.0
 40
0.859535
100
AcDbArc
 50
232.410075
 51
237.377679
  0
ARC
  5
591
100
AcDbEntity
  8
0
  6
CONTINUOUS
 62
     7
100
AcDbCircle
 10
-88.208282
 20
85.612442
 30
0.0
 40
0.852491
100
AcDbArc
 50
237.63195
 51
242.599555
  0
ARC
  5
592
100
AcDbEntity
  8
0
  6
CONTINUOUS
 62
     7
100
AcDbCircle
 10
-88.215577
 20
85.609141
 30
0.0
 40
0.846217
100
AcDbArc
 50
242.935182
 51
247.902787
  0
ARC
  5
593
100
AcDbEntity
  8
0
  6
CONTINUOUS
 62
     7
100
AcDbCircle
 10
-88.223139
 20
85.606485
 30
0.0
 40
0.840933
100
AcDbArc
 50
248.312107
 51
253.279712
  0
ARC
  5
594
100
AcDbEntity
  8
0
  6
CONTINUOUS
 62
     7
100
AcDbCircle
 10
-88.230901
 20
85.604506
 30
0.0
 40
0.836833
100
AcDbArc
 50
253.749713
 51
258.717318
  0
ARC
  5
595
100
AcDbEntity
  8
0
  6
CONTINUOUS
 62
     7
100
AcDbCircle
 10
-87.303112
 20
84.146175
 30
0.0
 40
1.079026
100
AcDbArc
 50
359.779437
 51
4.776908
  0
ARC
  5
596
100
AcDbEntity
  8
0
  6
CONTINUOUS
 62
     7
100
AcDbCircle
 10
-87.302338
 20
84.155557
 30
0.0
 40
1.077513
100
AcDbArc
 50
4.283174
 51
9.280645
  0
ARC
  5
597
100
AcDbEntity
  8
0
  6
CONTINUOUS
 62
     7
100
AcDbCircle
 10
-87.300753
 20
84.164821
 30
0.0
 40
1.074492
100
AcDbArc
 50
8.806759
 51
13.804231
  0
ARC
  5
598
100
AcDbEntity
  8
0
  6
CONTINUOUS
 62
     7
100
AcDbCircle
 10
-87.298361
 20
84.173915
 30
0.0
 40
1.070031
100
AcDbArc
 50
13.361886
 51
18.359357
  0
ARC
  5
599
100
AcDbEntity
  8
0
  6
CONTINUOUS
 62
     7
100
AcDbCircle
 10
-87.295202
 20
84.182757
 30
0.0
 40
1.064274
100
AcDbArc
 50
17.961127
 51
22.958598
  0
ARC
  5
59A
100
AcDbEntity
  8
0
  6
CONTINUOUS
 62
     7
100
AcDbCircle
 10
-87.291274
 20
84.191306
 30
0.0
 40
1.057341
100
AcDbArc
 50
22.615097
 51
27.612568
  0
ARC
  5
59B
100
AcDbEntity
  8
0
  6
CONTINUOUS
 62
     7
100
AcDbCircle
 10
-87.2866
 20
84.199473
 30
0.0
 40
1.049426
100
AcDbArc
 50
27.335693
 51
32.333164
  0
ARC
  5
59C
100
AcDbEntity
  8
0
  6
CONTINUOUS
 62
     7
100
AcDbCircle
 10
-87.281262
 20
84.207203
 30
0.0
 40
1.040788
100
AcDbArc
 50
32.130813
 51
37.128284
  0
ARC
  5
59D
100
AcDbEntity
  8
0
  6
CONTINUOUS
 62
     7
100
AcDbCircle
 10
-87.275256
 20
84.214425
 30
0.0
 40
1.031643
100
AcDbArc
 50
37.009819
 51
42.007291
  0
ARC
  5
59E
100
AcDbEntity
  8
0
  6
CONTINUOUS
 62
     7
100
AcDbCircle
 10
-87.26864
 20
84.221118
 30
0.0
 40
1.022247
100
AcDbArc
 50
41.976731
 51
46.974202
  0
ARC
  5
59F
100
AcDbEntity
  8
0
  6
CONTINUOUS
 62
     7
100
AcDbCircle
 10
-87.261483
 20
84.2272
 30
0.0
 40
1.012918
100
AcDbArc
 50
47.03535
 51
52.032821
  0
ARC
  5
5A0
100
AcDbEntity
  8
0
  6
CONTINUOUS
 62
     7
100
AcDbCircle
 10
-87.253799
 20
84.232637
 30
0.0
 40
1.003909
100
AcDbArc
 50
52.18767
 51
57.185141
  0
ARC
  5
5A1
100
AcDbEntity
  8
0
  6
CONTINUOUS
 62
     7
100
AcDbCircle
 10
-87.24569
 20
84.237384
 30
0.0
 40
0.995534
100
AcDbArc
 50
57.429314
 51
62.426786
  0
ARC
  5
5A2
100
AcDbEntity
  8
0
  6
CONTINUOUS
 62
     7
100
AcDbCircle
 10
-87.237185
 20
84.241392
 30
0.0
 40
0.98806
100
AcDbArc
 50
62.756408
 51
67.75388
  0
ARC
  5
5A3
100
AcDbEntity
  8
0
  6
CONTINUOUS
 62
     7
100
AcDbCircle
 10
-87.228374
 20
84.24467
 30
0.0
 40
0.981715
100
AcDbArc
 50
68.157392
 51
73.154863
  0
ARC
  5
5A4
100
AcDbEntity
  8
0
  6
CONTINUOUS
 62
     7
100
AcDbCircle
 10
-87.219308
 20
84.247143
 30
0.0
 40
0.976753
100
AcDbArc
 50
73.621821
 51
78.619293
  0
ARC
  5
5A5
100
AcDbEntity
  8
0
  6
CONTINUOUS
 62
     7
100
AcDbCircle
 10
-77.503436
 20
85.798094
 30
0.0
 40
1.11039
100
AcDbArc
 50
90.359879
 51
95.951961
  0
ARC
  5
5A6
100
AcDbEntity
  8
0
  6
CONTINUOUS
 62
     7
100
AcDbCircle
 10
-77.49147
 20
85.796823
 30
0.0
 40
1.112957
100
AcDbArc
 50
96.557845
 51
102.149927
  0
ARC
  5
5A7
100
AcDbEntity
  8
0
  6
CONTINUOUS
 62
     7
100
AcDbCircle
 10
-77.479706
 20
85.794405
 30
0.0
 40
1.117851
100
AcDbArc
 50
102.713334
 51
108.305416
  0
ARC
  5
5A8
100
AcDbEntity
  8
0
  6
CONTINUOUS
 62
     7
100
AcDbCircle
 10
-77.468227
 20
85.79085
 30
0.0
 40
1.124874
100
AcDbArc
 50
108.803618
 51
114.3957
  0
ARC
  5
5A9
100
AcDbEntity
  8
0
  6
CONTINUOUS
 62
     7
100
AcDbCircle
 10
-77.457145
 20
85.78618
 30
0.0
 40
1.133734
100
AcDbArc
 50
114.808287
 51
120.400369
  0
ARC
  5
5AA
100
AcDbEntity
  8
0
  6
CONTINUOUS
 62
     7
100
AcDbCircle
 10
-77.446582
 20
85.780464
 30
0.0
 40
1.144026
100
AcDbArc
 50
120.711785
 51
126.303867
  0
ARC
  5
5AB
100
AcDbEntity
  8
0
  6
CONTINUOUS
 62
     7
100
AcDbCircle
 10
-77.436611
 20
85.773747
 30
0.0
 40
1.15535
100
AcDbArc
 50
126.505132
 51
132.097214
  0
ARC
  5
5AC
100
AcDbEntity
  8
0
  6
CONTINUOUS
 62
     7
100
AcDbCircle
 10
-77.427357
 20
85.766088
 30
0.0
 40
1.167237
100
AcDbArc
 50
132.182257
 51
137.774339
  0
ARC
  5
5AD
100
AcDbEntity
  8
0
  6
CONTINUOUS
 62
     7
100
AcDbCircle
 10
-77.418882
 20
85.757557
 30
0.0
 40
1.179247
100
AcDbArc
 50
137.744118
 51
143.336199
  0
ARC
  5
5AE
100
AcDbEntity
  8
0
  6
CONTINUOUS
 62
     7
100
AcDbCircle
 10
-77.411284
 20
85.748241
 30
0.0
 40
1.190908
100
AcDbArc
 50
143.19494
 51
148.787022
  0
ARC
  5
5AF
100
AcDbEntity
  8
0
  6
CONTINUOUS
 62
     7
100
AcDbCircle
 10
-77.404622
 20
85.738243
 30
0.0
 40
1.201798
100
AcDbArc
 50
148.54397
 51
154.136052
  0
ARC
  5
5B0
100
AcDbEntity
  8
0
  6
CONTINUOUS
 62
     7
100
AcDbCircle
 10
-77.398974
 20
85.727631
 30
0.0
 40
1.21153
100
AcDbArc
 50
153.800989
 51
159.393071
  0
ARC
  5
5B1
100
AcDbEntity
  8
0
  6
CONTINUOUS
 62
     7
100
AcDbCircle
 10
-77.394392
 20
85.716521
 30
0.0
 40
1.219761
100
AcDbArc
 50
158.98034
 51
164.572421
  0
ARC
  5
5B2
100
AcDbEntity
  8
0
  6
CONTINUOUS
 62
     7
100
AcDbCircle
 10
-77.390905
 20
85.705025
 30
0.0
 40
1.226223
100
AcDbArc
 50
164.097952
 51
169.690034
  0
ARC
  5
5B3
100
AcDbEntity
  8
0
  6
CONTINUOUS
 62
     7
100
AcDbCircle
 10
-77.388565
 20
85.693232
 30
0.0
 40
1.230686
100
AcDbArc
 50
169.169349
 51
174.761431
  0
ARC
  5
5B4
100
AcDbEntity
  8
0
  6
CONTINUOUS
 62
     7
100
AcDbCircle
 10
-77.387369
 20
85.681279
 30
0.0
 40
1.233025
100
AcDbArc
 50
174.213401
 51
179.805483
  0
ARC
  5
5B5
100
AcDbEntity
  8
0
  6
CONTINUOUS
 62
     7
100
AcDbCircle
 10
-77.695633
 20
85.69003
 30
0.0
 40
0.924764
100
AcDbArc
 50
180.265524
 51
185.229291
  0
ARC
  5
5B6
100
AcDbEntity
  8
0
  6
CONTINUOUS
 62
     7
100
AcDbCircle
 10
-77.696403
 20
85.682059
 30
0.0
 40
0.923304
100
AcDbArc
 50
184.741071
 51
189.704838
  0
ARC
  5
5B7
100
AcDbEntity
  8
0
  6
CONTINUOUS
 62
     7
100
AcDbCircle
 10
-77.697872
 20
85.67419
 30
0.0
 40
0.92056
100
AcDbArc
 50
189.23748
 51
194.201247
  0
ARC
  5
5B8
100
AcDbEntity
  8
0
  6
CONTINUOUS
 62
     7
100
AcDbCircle
 10
-77.699998
 20
85.666482
 30
0.0
 40
0.916635
100
AcDbArc
 50
193.766774
 51
198.730541
  0
ARC
  5
5B9
100
AcDbEntity
  8
0
  6
CONTINUOUS
 62
     7
100
AcDbCircle
 10
-77.702787
 20
85.658971
 30
0.0
 40
0.911603
100
AcDbArc
 50
198.339764
 51
203.303531
  0
ARC
  5
5BA
100
AcDbEntity
  8
0
  6
CONTINUOUS
 62
     7
100
AcDbCircle
 10
-77.70622
 20
85.651747
 30
0.0
 40
0.905607
100
AcDbArc
 50
202.969715
 51
207.933482
  0
ARC
  5
5BB
100
AcDbEntity
  8
0
  6
CONTINUOUS
 62
     7
100
AcDbCircle
 10
-77.710275
 20
85.644835
 30
0.0
 40
0.898796
100
AcDbArc
 50
207.665251
 51
212.629018
  0
ARC
  5
5BC
100
AcDbEntity
  8
0
  6
CONTINUOUS
 62
     7
100
AcDbCircle
 10
-77.714891
 20
85.638312
 30
0.0
 40
0.891397
100
AcDbArc
 50
212.4359
 51
217.399667
  0
ARC
  5
5BD
100
AcDbEntity
  8
0
  6
CONTINUOUS
 62
     7
100
AcDbCircle
 10
-77.720068
 20
85.632196
 30
0.0
 40
0.883571
100
AcDbArc
 50
217.288505
 51
222.252272
  0
ARC
  5
5BE
100
AcDbEntity
  8
0
  6
CONTINUOUS
 62
     7
100
AcDbCircle
 10
-77.725753
 20
85.626564
 30
0.0
 40
0.875577
100
AcDbArc
 50
222.22961
 51
227.193377
  0
ARC
  5
5BF
100
AcDbEntity
  8
0
  6
CONTINUOUS
 62
     7
100
AcDbCircle
 10
-77.7319
 20
85.621447
 30
0.0
 40
0.867646
100
AcDbArc
 50
227.26161
 51
232.225377
  0
ARC
  5
5C0
100
AcDbEntity
  8
0
  6
CONTINUOUS
 62
     7
100
AcDbCircle
 10
-77.738477
 20
85.616872
 30
0.0
 40
0.860005
100
AcDbArc
 50
232.384995
 51
237.348762
  0
ARC
  5
5C1
100
AcDbEntity
  8
0
  6
CONTINUOUS
 62
     7
100
AcDbCircle
 10
-77.745419
 20
85.612882
 30
0.0
 40
0.852907
100
AcDbArc
 50
237.596789
 51
242.560557
  0
ARC
  5
5C2
100
AcDbEntity
  8
0
  6
CONTINUOUS
 62
     7
100
AcDbCircle
 10
-77.752664
 20
85.609521
 30
0.0
 40
0.8466
100
AcDbArc
 50
242.890881
 51
247.854648
  0
ARC
  5
5C3
100
AcDbEntity
  8
0
  6
CONTINUOUS
 62
     7
100
AcDbCircle
 10
-77.760205
 20
85.606788
 30
0.0
 40
0.841247
100
AcDbArc
 50
248.260247
 51
253.224014
  0
ARC
  5
5C4
100
AcDbEntity
  8
0
  6
CONTINUOUS
 62
     7
100
AcDbCircle
 10
-77.767929
 20
85.604716
 30
0.0
 40
0.837061
100
AcDbArc
 50
253.689277
 51
258.653044
  0
ARC
  5
5C5
100
AcDbEntity
  8
0
  6
CONTINUOUS
 62
     7
100
AcDbCircle
 10
-76.890495
 20
84.104555
 30
0.0
 40
0.462274
100
AcDbArc
 50
1.350854
 51
6.2396
  0
ARC
  5
5C6
100
AcDbEntity
  8
0
  6
CONTINUOUS
 62
     7
100
AcDbCircle
 10
-76.890029
 20
84.108472
 30
0.0
 40
0.461402
100
AcDbArc
 50
5.762317
 51
10.651063
  0
ARC
  5
5C7
100
AcDbEntity
  8
0
  6
CONTINUOUS
 62
     7
100
AcDbCircle
 10
-76.889249
 20
84.112326
 30
0.0
 40
0.459937
100
AcDbArc
 50
10.19722
 51
15.085966
  0
ARC
  5
5C8
100
AcDbEntity
  8
0
  6
CONTINUOUS
 62
     7
100
AcDbCircle
 10
-76.888124
 20
84.116117
 30
0.0
 40
0.457877
100
AcDbArc
 50
14.664612
 51
19.553358
  0
ARC
  5
5C9
100
AcDbEntity
  8
0
  6
CONTINUOUS
 62
     7
100
AcDbCircle
 10
-76.886689
 20
84.119779
 30
0.0
 40
0.455308
100
AcDbArc
 50
19.179515
 51
24.068261
  0
ARC
  5
5CA
100
AcDbEntity
  8
0
  6
CONTINUOUS
 62
     7
100
AcDbCircle
 10
-76.884965
 20
84.123329
 30
0.0
 40
0.452294
100
AcDbArc
 50
23.746753
 51
28.635499
  0
ARC
  5
5CB
100
AcDbEntity
  8
0
  6
CONTINUOUS
 62
     7
100
AcDbCircle
 10
-76.88291
 20
84.126694
 30
0.0
 40
0.448881
100
AcDbArc
 50
28.384139
 51
33.272885
  0
ARC
  5
5CC
100
AcDbEntity
  8
0
  6
CONTINUOUS
 62
     7
100
AcDbCircle
 10
-76.880601
 20
84.129877
 30
0.0
 40
0.445207
100
AcDbArc
 50
33.09348
 51
37.982226
  0
ARC
  5
5CD
100
AcDbEntity
  8
0
  6
CONTINUOUS
 62
     7
100
AcDbCircle
 10
-76.878027
 20
84.132867
 30
0.0
 40
0.441339
100
AcDbArc
 50
37.881895
 51
42.770641
  0
ARC
  5
5CE
100
AcDbEntity
  8
0
  6
CONTINUOUS
 62
     7
100
AcDbCircle
 10
-76.875194
 20
84.135612
 30
0.0
 40
0.437395
100
AcDbArc
 50
42.758691
 51
47.647437
  0
ARC
  5
5CF
100
AcDbEntity
  8
0
  6
CONTINUOUS
 62
     7
100
AcDbCircle
 10
-76.872152
 20
84.13811
 30
0.0
 40
0.4335
100
AcDbArc
 50
47.722083
 51
52.610829
  0
ARC
  5
5D0
100
AcDbEntity
  8
0
  6
CONTINUOUS
 62
     7
100
AcDbCircle
 10
-76.868889
 20
84.140344
 30
0.0
 40
0.429745
100
AcDbArc
 50
52.775656
 51
57.664402
  0
ARC
  5
5D1
100
AcDbEntity
  8
0
  6
CONTINUOUS
 62
     7
100
AcDbCircle
 10
-76.865472
 20
84.142292
 30
0.0
 40
0.426276
100
AcDbArc
 50
57.912379
 51
62.801125
  0
ARC
  5
5D2
100
AcDbEntity
  8
0
  6
CONTINUOUS
 62
     7
100
AcDbCircle
 10
-76.861889
 20
84.143931
 30
0.0
 40
0.423188
100
AcDbArc
 50
63.131245
 51
68.019991
  0
ARC
  5
5D3
100
AcDbEntity
  8
0
  6
CONTINUOUS
 62
     7
100
AcDbCircle
 10
-76.858186
 20
84.145268
 30
0.0
 40
0.420572
100
AcDbArc
 50
68.419644
 51
73.308389
  0
ARC
  5
5D4
100
AcDbEntity
  8
0
  6
CONTINUOUS
 62
     7
100
AcDbCircle
 10
-76.854365
 20
84.146277
 30
0.0
 40
0.418522
100
AcDbArc
 50
73.769677
 51
78.658423
  0
ARC
  5
5D5
100
AcDbEntity
  8
0
  6
CONTINUOUS
 62
     7
100
AcDbCircle
 10
-76.986135
 20
84.07188
 30
0.0
 40
0.555163
100
AcDbArc
 50
270.308054
 51
275.836632
  0
ARC
  5
5D6
100
AcDbEntity
  8
0
  6
CONTINUOUS
 62
     7
100
AcDbCircle
 10
-76.992032
 20
84.072468
 30
0.0
 40
0.556378
100
AcDbArc
 50
276.434575
 51
281.963153
  0
ARC
  5
5D7
100
AcDbEntity
  8
0
  6
CONTINUOUS
 62
     7
100
AcDbCircle
 10
-76.997874
 20
84.073601
 30
0.0
 40
0.558724
100
AcDbArc
 50
282.525238
 51
288.053815
  0
ARC
  5
5D8
100
AcDbEntity
  8
0
  6
CONTINUOUS
 62
     7
100
AcDbCircle
 10
-77.003562
 20
84.075297
 30
0.0
 40
0.562121
100
AcDbArc
 50
288.551438
 51
294.080016
  0
ARC
  5
5D9
100
AcDbEntity
  8
0
  6
CONTINUOUS
 62
     7
100
AcDbCircle
 10
-77.009074
 20
84.077533
 30
0.0
 40
0.566426
100
AcDbArc
 50
294.496774
 51
300.025352
  0
ARC
  5
5DA
100
AcDbEntity
  8
0
  6
CONTINUOUS
 62
     7
100
AcDbCircle
 10
-77.014322
 20
84.080297
 30
0.0
 40
0.571454
100
AcDbArc
 50
300.342245
 51
305.870823
  0
ARC
  5
5DB
100
AcDbEntity
  8
0
  6
CONTINUOUS
 62
     7
100
AcDbCircle
 10
-77.019312
 20
84.08354
 30
0.0
 40
0.57701
100
AcDbArc
 50
306.083629
 51
311.612207
  0
ARC
  5
5DC
100
AcDbEntity
  8
0
  6
CONTINUOUS
 62
     7
100
AcDbCircle
 10
-77.023943
 20
84.087251
 30
0.0
 40
0.58286
100
AcDbArc
 50
311.710354
 51
317.238932
  0
ARC
  5
5DD
100
AcDbEntity
  8
0
  6
CONTINUOUS
 62
     7
100
AcDbCircle
 10
-77.028199
 20
84.091403
 30
0.0
 40
0.588804
100
AcDbArc
 50
317.223466
 51
322.752044
  0
ARC
  5
5DE
100
AcDbEntity
  8
0
  6
CONTINUOUS
 62
     7
100
AcDbCircle
 10
-77.032033
 20
84.095932
 30
0.0
 40
0.594599
100
AcDbArc
 50
322.628194
 51
328.156771
  0
ARC
  5
5DF
100
AcDbEntity
  8
0
  6
CONTINUOUS
 62
     7
100
AcDbCircle
 10
-77.035423
 20
84.100822
 30
0.0
 40
0.600063
100
AcDbArc
 50
327.93102
 51
333.459597
  0
ARC
  5
5E0
100
AcDbEntity
  8
0
  6
CONTINUOUS
 62
     7
100
AcDbCircle
 10
-77.038313
 20
84.106009
 30
0.0
 40
0.604976
100
AcDbArc
 50
333.142322
 51
338.670899
  0
ARC
  5
5E1
100
AcDbEntity
  8
0
  6
CONTINUOUS
 62
     7
100
AcDbCircle
 10
-77.040706
 20
84.111448
 30
0.0
 40
0.609197
100
AcDbArc
 50
338.276254
 51
343.804831
  0
ARC
  5
5E2
100
AcDbEntity
  8
0
  6
CONTINUOUS
 62
     7
100
AcDbCircle
 10
-77.042553
 20
84.117098
 30
0.0
 40
0.612567
100
AcDbArc
 50
343.345522
 51
348.8741
  0
ARC
  5
5E3
100
AcDbEntity
  8
0
  6
CONTINUOUS
 62
     7
100
AcDbCircle
 10
-77.043844
 20
84.122889
 30
0.0
 40
0.614975
100
AcDbArc
 50
348.367936
 51
353.896513
  0
ARC
  5
5E4
100
AcDbEntity
  8
0
  6
CONTINUOUS
 62
     7
100
AcDbCircle
 10
-77.044573
 20
84.128788
 30
0.0
 40
0.616354
100
AcDbArc
 50
353.358425
 51
358.887003
  0
ARC
  5
5E5
100
AcDbEntity
  8
0
  6
CONTINUOUS
 62
     7
100
AcDbCircle
 10
-77.476651
 20
84.136038
 30
0.0
 40
0.616558
100
AcDbArc
 50
174.517304
 51
180.502276
  0
ARC
  5
5E6
100
AcDbEntity
  8
0
  6
CONTINUOUS
 62
     7
100
AcDbCircle
 10
-77.47671
 20
84.129605
 30
0.0
 40
0.616476
100
AcDbArc
 50
179.904414
 51
185.889386
  0
ARC
  5
5E7
100
AcDbEntity
  8
0
  6
CONTINUOUS
 62
     7
100
AcDbCircle
 10
-77.477451
 20
84.123217
 30
0.0
 40
0.615116
100
AcDbArc
 50
185.304659
 51
191.289631
  0
ARC
  5
5E8
100
AcDbEntity
  8
0
  6
CONTINUOUS
 62
     7
100
AcDbCircle
 10
-77.478836
 20
84.116942
 30
0.0
 40
0.612557
100
AcDbArc
 50
190.739354
 51
196.724326
  0
ARC
  5
5E9
100
AcDbEntity
  8
0
  6
CONTINUOUS
 62
     7
100
AcDbCircle
 10
-77.480875
 20
84.11085
 30
0.0
 40
0.608874
100
AcDbArc
 50
196.230527
 51
202.2155
  0
ARC
  5
5EA
100
AcDbEntity
  8
0
  6
CONTINUOUS
 62
     7
100
AcDbCircle
 10
-77.483544
 20
84.104996
 30
0.0
 40
0.604206
100
AcDbArc
 50
201.797308
 51
207.78228
  0
ARC
  5
5EB
100
AcDbEntity
  8
0
  6
CONTINUOUS
 62
     7
100
AcDbCircle
 10
-77.486805
 20
84.099447
 30
0.0
 40
0.598743
100
AcDbArc
 50
207.45791
 51
213.442882
  0
ARC
  5
5EC
100
AcDbEntity
  8
0
  6
CONTINUOUS
 62
     7
100
AcDbCircle
 10
-77.490632
 20
84.094281
 30
0.0
 40
0.592707
100
AcDbArc
 50
213.230044
 51
219.215016
  0
ARC
  5
5ED
100
AcDbEntity
  8
0
  6
CONTINUOUS
 62
     7
100
AcDbCircle
 10
-77.494965
 20
84.089538
 30
0.0
 40
0.586352
100
AcDbArc
 50
219.123628
 51
225.1086
  0
ARC
  5
5EE
100
AcDbEntity
  8
0
  6
CONTINUOUS
 62
     7
100
AcDbCircle
 10
-77.499778
 20
84.085269
 30
0.0
 40
0.579932
100
AcDbArc
 50
225.147817
 51
231.132789
  0
ARC
  5
5EF
100
AcDbEntity
  8
0
  6
CONTINUOUS
 62
     7
100
AcDbCircle
 10
-77.505005
 20
84.081522
 30
0.0
 40
0.573736
100
AcDbArc
 50
231.30439
 51
237.289363
  0
ARC
  5
5F0
100
AcDbEntity
  8
0
  6
CONTINUOUS
 62
     7
100
AcDbCircle
 10
-77.510602
 20
84.078353
 30
0.0
 40
0.568053
100
AcDbArc
 50
237.591664
 51
243.576637
  0
ARC
  5
5F1
100
AcDbEntity
  8
0
  6
CONTINUOUS
 62
     7
100
AcDbCircle
 10
-77.516485
 20
84.075776
 30
0.0
 40
0.563143
100
AcDbArc
 50
243.99599
 51
249.980962
  0
ARC
  5
5F2
100
AcDbEntity
  8
0
  6
CONTINUOUS
 62
     7
100
AcDbCircle
 10
-77.522617
 20
84.073837
 30
0.0
 40
0.559245
100
AcDbArc
 50
250.503292
 51
256.488264
  0
ARC
  5
5F3
100
AcDbEntity
  8
0
  6
CONTINUOUS
 62
     7
100
AcDbCircle
 10
-77.528921
 20
84.072532
 30
0.0
 40
0.556534
100
AcDbArc
 50
257.087897
 51
263.07287
  0
ARC
  5
5F4
100
AcDbEntity
  8
0
  6
CONTINUOUS
 62
     7
100
AcDbCircle
 10
-77.535306
 20
84.07189
 30
0.0
 40
0.555162
100
AcDbArc
 50
263.719065
 51
269.704037
  0
ARC
  5
5F5
100
AcDbEntity
  8
0
  6
CONTINUOUS
 62
     7
100
AcDbCircle
 10
-77.526167
 20
84.126499
 30
0.0
 40
1.233034
100
AcDbArc
 50
179.678631
 51
185.306437
  0
ARC
  5
5F6
100
AcDbEntity
  8
0
  6
CONTINUOUS
 62
     7
100
AcDbCircle
 10
-77.527428
 20
84.11447
 30
0.0
 40
1.230723
100
AcDbArc
 50
184.754264
 51
190.38207
  0
ARC
  5
5F7
100
AcDbEntity
  8
0
  6
CONTINUOUS
 62
     7
100
AcDbCircle
 10
-77.529876
 20
84.102618
 30
0.0
 40
1.226231
100
AcDbArc
 50
189.857938
 51
195.485743
  0
ARC
  5
5F8
100
AcDbEntity
  8
0
  6
CONTINUOUS
 62
     7
100
AcDbCircle
 10
-77.53347
 20
84.091079
 30
0.0
 40
1.219729
100
AcDbArc
 50
195.008451
 51
200.636257
  0
ARC
  5
5F9
100
AcDbEntity
  8
0
  6
CONTINUOUS
 62
     7
100
AcDbCircle
 10
-77.538188
 20
84.079932
 30
0.0
 40
1.211417
100
AcDbArc
 50
200.221498
 51
205.849303
  0
ARC
  5
5FA
100
AcDbEntity
  8
0
  6
CONTINUOUS
 62
     7
100
AcDbCircle
 10
-77.543964
 20
84.069307
 30
0.0
 40
1.201607
100
AcDbArc
 50
205.513463
 51
211.141268
  0
ARC
  5
5FB
100
AcDbEntity
  8
0
  6
CONTINUOUS
 62
     7
100
AcDbCircle
 10
-77.550752
 20
84.059307
 30
0.0
 40
1.190636
100
AcDbArc
 50
210.898322
 51
216.526128
  0
ARC
  5
5FC
100
AcDbEntity
  8
0
  6
CONTINUOUS
 62
     7
100
AcDbCircle
 10
-77.558495
 20
84.050005
 30
0.0
 40
1.178881
100
AcDbArc
 50
216.386831
 51
222.014636
  0
ARC
  5
5FD
100
AcDbEntity
  8
0
  6
CONTINUOUS
 62
     7
100
AcDbCircle
 10
-77.567115
 20
84.041521
 30
0.0
 40
1.166798
100
AcDbArc
 50
221.988408
 51
227.616214
  0
ARC
  5
5FE
100
AcDbEntity
  8
0
  6
CONTINUOUS
 62
     7
100
AcDbCircle
 10
-77.57652
 20
84.033924
 30
0.0
 40
1.154849
100
AcDbArc
 50
227.7068
 51
233.334605
  0
ARC
  5
5FF
100
AcDbEntity
  8
0
  6
CONTINUOUS
 62
     7
100
AcDbCircle
 10
-77.586625
 20
84.027274
 30
0.0
 40
1.143487
100
AcDbArc
 50
233.541747
 51
239.169553
  0
ARC
  5
600
100
AcDbEntity
  8
0
  6
CONTINUOUS
 62
     7
100
AcDbCircle
 10
-77.597346
 20
84.021657
 30
0.0
 40
1.133187
100
AcDbArc
 50
239.489508
 51
245.117314
  0
ARC
  5
601
100
AcDbEntity
  8
0
  6
CONTINUOUS
 62
     7
100
AcDbCircle
 10
-77.608541
 20
84.017114
 30
0.0
 40
1.124386
100
AcDbArc
 50
245.537443
 51
251.165249
  0
ARC
  5
602
100
AcDbEntity
  8
0
  6
CONTINUOUS
 62
     7
100
AcDbCircle
 10
-77.620153
 20
84.013684
 30
0.0
 40
1.117435
100
AcDbArc
 50
251.671966
 51
257.299771
  0
ARC
  5
603
100
AcDbEntity
  8
0
  6
CONTINUOUS
 62
     7
100
AcDbCircle
 10
-77.632024
 20
84.01143
 30
0.0
 40
1.112681
100
AcDbArc
 50
257.870608
 51
263.498414
  0
ARC
  5
604
100
AcDbEntity
  8
0
  6
CONTINUOUS
 62
     7
100
AcDbCircle
 10
-77.644076
 20
84.010334
 30
0.0
 40
1.110291
100
AcDbArc
 50
264.10994
 51
269.737745
  0
ARC
  5
605
100
AcDbEntity
  8
0
  6
CONTINUOUS
 62
     7
100
AcDbCircle
 10
-76.878192
 20
84.01038
 30
0.0
 40
1.110344
100
AcDbArc
 50
270.311912
 51
275.936912
  0
ARC
  5
606
100
AcDbEntity
  8
0
  6
CONTINUOUS
 62
     7
100
AcDbCircle
 10
-76.890225
 20
84.011564
 30
0.0
 40
1.112828
100
AcDbArc
 50
276.546838
 51
282.171837
  0
ARC
  5
607
100
AcDbEntity
  8
0
  6
CONTINUOUS
 62
     7
100
AcDbCircle
 10
-76.902074
 20
84.013917
 30
0.0
 40
1.117683
100
AcDbArc
 50
282.740188
 51
288.365188
  0
ARC
  5
608
100
AcDbEntity
  8
0
  6
CONTINUOUS
 62
     7
100
AcDbCircle
 10
-76.913648
 20
84.017428
 30
0.0
 40
1.124705
100
AcDbArc
 50
288.868414
 51
294.493414
  0
ARC
  5
609
100
AcDbEntity
  8
0
  6
CONTINUOUS
 62
     7
100
AcDbCircle
 10
-76.924819
 20
84.022054
 30
0.0
 40
1.133576
100
AcDbArc
 50
294.910298
 51
300.535298
  0
ARC
  5
60A
100
AcDbEntity
  8
0
  6
CONTINUOUS
 62
     7
100
AcDbCircle
 10
-76.935476
 20
84.027756
 30
0.0
 40
1.143919
100
AcDbArc
 50
300.849964
 51
306.474964
  0
ARC
  5
60B
100
AcDbEntity
  8
0
  6
CONTINUOUS
 62
     7
100
AcDbCircle
 10
-76.945526
 20
84.034463
 30
0.0
 40
1.155294
100
AcDbArc
 50
306.678019
 51
312.303019
  0
ARC
  5
60C
100
AcDbEntity
  8
0
  6
CONTINUOUS
 62
     7
100
AcDbCircle
 10
-76.954884
 20
84.042141
 30
0.0
 40
1.167271
100
AcDbArc
 50
312.389098
 51
318.014098
  0
ARC
  5
60D
100
AcDbEntity
  8
0
  6
CONTINUOUS
 62
     7
100
AcDbCircle
 10
-76.963422
 20
84.05069
 30
0.0
 40
1.179337
100
AcDbArc
 50
317.98284
 51
323.60784
  0
ARC
  5
60E
100
AcDbEntity
  8
0
  6
CONTINUOUS
 62
     7
100
AcDbCircle
 10
-76.971088
 20
84.060031
 30
0.0
 40
1.191054
100
AcDbArc
 50
323.464939
 51
329.089939
  0
ARC
  5
60F
100
AcDbEntity
  8
0
  6
CONTINUOUS
 62
     7
100
AcDbCircle
 10
-76.977804
 20
84.070088
 30
0.0
 40
1.201993
100
AcDbArc
 50
328.843089
 51
334.468089
  0
ARC
  5
610
100
AcDbEntity
  8
0
  6
CONTINUOUS
 62
     7
100
AcDbCircle
 10
-76.98351
 20
84.080748
 30
0.0
 40
1.211758
100
AcDbArc
 50
334.129549
 51
339.754549
  0
ARC
  5
611
100
AcDbEntity
  8
0
  6
CONTINUOUS
 62
     7
100
AcDbCircle
 10
-76.988132
 20
84.091911
 30
0.0
 40
1.219989
100
AcDbArc
 50
339.337776
 51
344.962776
  0
ARC
  5
612
100
AcDbEntity
  8
0
  6
CONTINUOUS
 62
     7
100
AcDbCircle
 10
-76.991642
 20
84.103478
 30
0.0
 40
1.226423
100
AcDbArc
 50
344.483442
 51
350.108441
  0
ARC
  5
613
100
AcDbEntity
  8
0
  6
CONTINUOUS
 62
     7
100
AcDbCircle
 10
-76.994008
 20
84.115342
 30
0.0
 40
1.230843
100
AcDbArc
 50
349.583265
 51
355.208265
  0
ARC
  5
614
100
AcDbEntity
  8
0
  6
CONTINUOUS
 62
     7
100
AcDbCircle
 10
-76.99518
 20
84.12737
 30
0.0
 40
1.233074
100
AcDbArc
 50
354.655888
 51
0.280888
  0
ARC
  5
615
100
AcDbEntity
  8
0
  6
CONTINUOUS
 62
     7
100
AcDbCircle
 10
-76.84111
 20
84.146725
 30
0.0
 40
1.079
100
AcDbArc
 50
359.750224
 51
4.749634
  0
ARC
  5
616
100
AcDbEntity
  8
0
  6
CONTINUOUS
 62
     7
100
AcDbCircle
 10
-76.840297
 20
84.156096
 30
0.0
 40
1.077454
100
AcDbArc
 50
4.256609
 51
9.256019
  0
ARC
  5
617
100
AcDbEntity
  8
0
  6
CONTINUOUS
 62
     7
100
AcDbCircle
 10
-76.838661
 20
84.165346
 30
0.0
 40
1.074388
100
AcDbArc
 50
8.78313
 51
13.78254
  0
ARC
  5
618
100
AcDbEntity
  8
0
  6
CONTINUOUS
 62
     7
100
AcDbCircle
 10
-76.836228
 20
84.174437
 30
0.0
 40
1.069891
100
AcDbArc
 50
13.340783
 51
18.340193
  0
ARC
  5
619
100
AcDbEntity
  8
0
  6
CONTINUOUS
 62
     7
100
AcDbCircle
 10
-76.833013
 20
84.183283
 30
0.0
 40
1.064082
100
AcDbArc
 50
17.942549
 51
22.941959
  0
ARC
  5
61A
100
AcDbEntity
  8
0
  6
CONTINUOUS
 62
     7
100
AcDbCircle
 10
-76.829038
 20
84.191795
 30
0.0
 40
1.057122
100
AcDbArc
 50
22.601047
 51
27.600457
  0
ARC
  5
61B
100
AcDbEntity
  8
0
  6
CONTINUOUS
 62
     7
100
AcDbCircle
 10
-76.824328
 20
84.199945
 30
0.0
 40
1.049184
100
AcDbArc
 50
27.325236
 51
32.324646
  0
ARC
  5
61C
100
AcDbEntity
  8
0
  6
CONTINUOUS
 62
     7
100
AcDbCircle
 10
-76.818939
 20
84.207649
 30
0.0
 40
1.040516
100
AcDbArc
 50
32.124821
 51
37.124231
  0
ARC
  5
61D
100
AcDbEntity
  8
0
  6
CONTINUOUS
 62
     7
100
AcDbCircle
 10
-76.812901
 20
84.214862
 30
0.0
 40
1.031352
100
AcDbArc
 50
37.007168
 51
42.006579
  0
ARC
  5
61E
100
AcDbEntity
  8
0
  6
CONTINUOUS
 62
     7
100
AcDbCircle
 10
-76.80625
 20
84.221504
 30
0.0
 40
1.021964
100
AcDbArc
 50
41.979455
 51
46.978865
  0
ARC
  5
61F
100
AcDbEntity
  8
0
  6
CONTINUOUS
 62
     7
100
AcDbCircle
 10
-76.799043
 20
84.22755
 30
0.0
 40
1.012628
100
AcDbArc
 50
47.043583
 51
52.042994
  0
ARC
  5
620
100
AcDbEntity
  8
0
  6
CONTINUOUS
 62
     7
100
AcDbCircle
 10
-76.791338
 20
84.232951
 30
0.0
 40
1.003634
100
AcDbArc
 50
52.200141
 51
57.199551
  0
ARC
  5
621
100
AcDbEntity
  8
0
  6
CONTINUOUS
 62
     7
100
AcDbCircle
 10
-76.783192
 20
84.237642
 30
0.0
 40
0.995287
100
AcDbArc
 50
57.447464
 51
62.446874
  0
ARC
  5
622
100
AcDbEntity
  8
0
  6
CONTINUOUS
 62
     7
100
AcDbCircle
 10
-76.774676
 20
84.241631
 30
0.0
 40
0.987828
100
AcDbArc
 50
62.777772
 51
67.777183
  0
ARC
  5
623
100
AcDbEntity
  8
0
  6
CONTINUOUS
 62
     7
100
AcDbCircle
 10
-76.765836
 20
84.244845
 30
0.0
 40
0.981534
100
AcDbArc
 50
68.183909
 51
73.18332
  0
ARC
  5
624
100
AcDbEntity
  8
0
  6
CONTINUOUS
 62
     7
100
AcDbCircle
 10
-76.756744
 20
84.247279
 30
0.0
 40
0.976607
100
AcDbArc
 50
73.652624
 51
78.652034
  0
ARC
  5
625
100
AcDbEntity
  8
0
  6
CONTINUOUS
 62
     7
100
AcDbCircle
 10
-77.638072
 20
85.729949
 30
0.0
 40
0.30786
100
AcDbArc
 50
183.817516
 51
188.535833
  0
ARC
  5
626
100
AcDbEntity
  8
0
  6
CONTINUOUS
 62
     7
100
AcDbCircle
 10
-77.638532
 20
85.727446
 30
0.0
 40
0.307043
100
AcDbArc
 50
188.086588
 51
192.804905
  0
ARC
  5
627
100
AcDbEntity
  8
0
  6
CONTINUOUS
 62
     7
100
AcDbCircle
 10
-77.639189
 20
85.725001
 30
0.0
 40
0.305869
100
AcDbArc
 50
192.385678
 51
197.103995
  0
ARC
  5
628
100
AcDbEntity
  8
0
  6
CONTINUOUS
 62
     7
100
AcDbCircle
 10
-77.640032
 20
85.722612
 30
0.0
 40
0.304367
100
AcDbArc
 50
196.720787
 51
201.439104
  0
ARC
  5
629
100
AcDbEntity
  8
0
  6
CONTINUOUS
 62
     7
100
AcDbCircle
 10
-77.641088
 20
85.720295
 30
0.0
 40
0.302543
100
AcDbArc
 50
201.103728
 51
205.822045
  0
ARC
  5
62A
100
AcDbEntity
  8
0
  6
CONTINUOUS
 62
     7
100
AcDbCircle
 10
-77.64232
 20
85.718087
 30
0.0
 40
0.300476
100
AcDbArc
 50
205.545337
 51
210.263654
  0
ARC
  5
62B
100
AcDbEntity
  8
0
  6
CONTINUOUS
 62
     7
100
AcDbCircle
 10
-77.643739
 20
85.715981
 30
0.0
 40
0.298191
100
AcDbArc
 50
210.05171
 51
214.770026
  0
ARC
  5
62C
100
AcDbEntity
  8
0
  6
CONTINUOUS
 62
     7
100
AcDbCircle
 10
-77.645322
 20
85.71399
 30
0.0
 40
0.295756
100
AcDbArc
 50
214.627926
 51
219.346242
  0
ARC
  5
62D
100
AcDbEntity
  8
0
  6
CONTINUOUS
 62
     7
100
AcDbCircle
 10
-77.647052
 20
85.71215
 30
0.0
 40
0.293251
100
AcDbArc
 50
219.282659
 51
224.000975
  0
ARC
  5
62E
100
AcDbEntity
  8
0
  6
CONTINUOUS
 62
     7
100
AcDbCircle
 10
-77.648937
 20
85.710456
 30
0.0
 40
0.290719
100
AcDbArc
 50
224.018871
 51
228.737188
  0
ARC
  5
62F
100
AcDbEntity
  8
0
  6
CONTINUOUS
 62
     7
100
AcDbCircle
 10
-77.650968
 20
85.708917
 30
0.0
 40
0.288223
100
AcDbArc
 50
228.838865
 51
233.557182
  0
ARC
  5
630
100
AcDbEntity
  8
0
  6
CONTINUOUS
 62
     7
100
AcDbCircle
 10
-77.653097
 20
85.707553
 30
0.0
 40
0.285862
100
AcDbArc
 50
233.738076
 51
238.456393
  0
ARC
  5
631
100
AcDbEntity
  8
0
  6
CONTINUOUS
 62
     7
100
AcDbCircle
 10
-77.655332
 20
85.706361
 30
0.0
 40
0.28368
100
AcDbArc
 50
238.71515
 51
243.433467
  0
ARC
  5
632
100
AcDbEntity
  8
0
  6
CONTINUOUS
 62
     7
100
AcDbCircle
 10
-77.657674
 20
85.705377
 30
0.0
 40
0.281758
100
AcDbArc
 50
243.769893
 51
248.48821
  0
ARC
  5
633
100
AcDbEntity
  8
0
  6
CONTINUOUS
 62
     7
100
AcDbCircle
 10
-77.660082
 20
85.704573
 30
0.0
 40
0.280134
100
AcDbArc
 50
248.886142
 51
253.604458
  0
ARC
  5
634
100
AcDbEntity
  8
0
  6
CONTINUOUS
 62
     7
100
AcDbCircle
 10
-77.662533
 20
85.703958
 30
0.0
 40
0.27886
100
AcDbArc
 50
254.051919
 51
258.770236
  0
ARC
  5
635
100
AcDbEntity
  8
0
  6
CONTINUOUS
 62
     7
100
AcDbCircle
 10
-77.388165
 20
85.73664
 30
0.0
 40
0.55516
100
AcDbArc
 50
90.301521
 51
95.728751
  0
ARC
  5
636
100
AcDbEntity
  8
0
  6
CONTINUOUS
 62
     7
100
AcDbCircle
 10
-77.382362
 20
85.736081
 30
0.0
 40
0.556325
100
AcDbArc
 50
96.317763
 51
101.744993
  0
ARC
  5
637
100
AcDbEntity
  8
0
  6
CONTINUOUS
 62
     7
100
AcDbCircle
 10
-77.376624
 20
85.734981
 30
0.0
 40
0.558595
100
AcDbArc
 50
102.298187
 51
107.725417
  0
ARC
  5
638
100
AcDbEntity
  8
0
  6
CONTINUOUS
 62
     7
100
AcDbCircle
 10
-77.37104
 20
85.733344
 30
0.0
 40
0.561876
100
AcDbArc
 50
108.217041
 51
113.644271
  0
ARC
  5
639
100
AcDbEntity
  8
0
  6
CONTINUOUS
 62
     7
100
AcDbCircle
 10
-77.36561
 20
85.73119
 30
0.0
 40
0.566041
100
AcDbArc
 50
114.060355
 51
119.487586
  0
ARC
  5
63A
100
AcDbEntity
  8
0
  6
CONTINUOUS
 62
     7
100
AcDbCircle
 10
-77.360424
 20
85.728533
 30
0.0
 40
0.570916
100
AcDbArc
 50
119.809358
 51
125.236589
  0
ARC
  5
63B
100
AcDbEntity
  8
0
  6
CONTINUOUS
 62
     7
100
AcDbCircle
 10
-77.355506
 20
85.72539
 30
0.0
 40
0.576325
100
AcDbArc
 50
125.455583
 51
130.882813
  0
ARC
  5
63C
100
AcDbEntity
  8
0
  6
CONTINUOUS
 62
     7
100
AcDbCircle
 10
-77.350915
 20
85.721799
 30
0.0
 40
0.582045
100
AcDbArc
 50
130.993201
 51
136.420431
  0
ARC
  5
63D
100
AcDbEntity
  8
0
  6
CONTINUOUS
 62
     7
100
AcDbCircle
 10
-77.346669
 20
85.717788
 30
0.0
 40
0.587887
100
AcDbArc
 50
136.422508
 51
141.849738
  0
ARC
  5
63E
100
AcDbEntity
  8
0
  6
CONTINUOUS
 62
     7
100
AcDbCircle
 10
-77.342837
 20
85.713399
 30
0.0
 40
0.593612
100
AcDbArc
 50
141.745034
 51
147.172264
  0
ARC
  5
63F
100
AcDbEntity
  8
0
  6
CONTINUOUS
 62
     7
100
AcDbCircle
 10
-77.339427
 20
85.708667
 30
0.0
 40
0.599047
100
AcDbArc
 50
146.968799
 51
152.396029
  0
ARC
  5
640
100
AcDbEntity
  8
0
  6
CONTINUOUS
 62
     7
100
AcDbCircle
 10
-77.33649
 20
85.703627
 30
0.0
 40
0.603992
100
AcDbArc
 50
152.101418
 51
157.528648
  0
ARC
  5
641
100
AcDbEntity
  8
0
  6
CONTINUOUS
 62
     7
100
AcDbCircle
 10
-77.334032
 20
85.69834
 30
0.0
 40
0.608298
100
AcDbArc
 50
157.15693
 51
162.584161
  0
ARC
  5
642
100
AcDbEntity
  8
0
  6
CONTINUOUS
 62
     7
100
AcDbCircle
 10
-77.332087
 20
85.692836
 30
0.0
 40
0.611819
100
AcDbArc
 50
162.146895
 51
167.574125
  0
ARC
  5
643
100
AcDbEntity
  8
0
  6
CONTINUOUS
 62
     7
100
AcDbCircle
 10
-77.330678
 20
85.687177
 30
0.0
 40
0.614435
100
AcDbArc
 50
167.087064
 51
172.514294
  0
ARC
  5
644
100
AcDbEntity
  8
0
  6
CONTINUOUS
 62
     7
100
AcDbCircle
 10
-77.329806
 20
85.681406
 30
0.0
 40
0.616076
100
AcDbArc
 50
171.992718
 51
177.419948
  0
ARC
  5
645
100
AcDbEntity
  8
0
  6
CONTINUOUS
 62
     7
100
AcDbCircle
 10
-77.180909
 20
85.692882
 30
0.0
 40
0.611787
100
AcDbArc
 50
12.816689
 51
17.540888
  0
ARC
  5
646
100
AcDbEntity
  8
0
  6
CONTINUOUS
 62
     7
100
AcDbCircle
 10
-77.179252
 20
85.697689
 30
0.0
 40
0.608772
100
AcDbArc
 50
17.156471
 51
21.88067
  0
ARC
  5
647
100
AcDbEntity
  8
0
  6
CONTINUOUS
 62
     7
100
AcDbCircle
 10
-77.177185
 20
85.70232
 30
0.0
 40
0.605138
100
AcDbArc
 50
21.546741
 51
26.27094
  0
ARC
  5
648
100
AcDbEntity
  8
0
  6
CONTINUOUS
 62
     7
100
AcDbCircle
 10
-77.174765
 20
85.706797
 30
0.0
 40
0.600994
100
AcDbArc
 50
25.990277
 51
30.714476
  0
ARC
  5
649
100
AcDbEntity
  8
0
  6
CONTINUOUS
 62
     7
100
AcDbCircle
 10
-77.171977
 20
85.711025
 30
0.0
 40
0.596441
100
AcDbArc
 50
30.502107
 51
35.226306
  0
ARC
  5
64A
100
AcDbEntity
  8
0
  6
CONTINUOUS
 62
     7
100
AcDbCircle
 10
-77.168844
 20
85.71503
 30
0.0
 40
0.591573
100
AcDbArc
 50
35.08449
 51
39.808688
  0
ARC
  5
64B
100
AcDbEntity
  8
0
  6
CONTINUOUS
 62
     7
100
AcDbCircle
 10
-77.165392
 20
85.71877
 30
0.0
 40
0.586528
100
AcDbArc
 50
39.743943
 51
44.468142
  0
ARC
  5
64C
100
AcDbEntity
  8
0
  6
CONTINUOUS
 62
     7
100
AcDbCircle
 10
-77.161653
 20
85.722198
 30
0.0
 40
0.581458
100
AcDbArc
 50
44.485184
 51
49.209383
  0
ARC
  5
64D
100
AcDbEntity
  8
0
  6
CONTINUOUS
 62
     7
100
AcDbCircle
 10
-77.157641
 20
85.725299
 30
0.0
 40
0.57649
100
AcDbArc
 50
49.309883
 51
54.034082
  0
ARC
  5
64E
100
AcDbEntity
  8
0
  6
CONTINUOUS
 62
     7
100
AcDbCircle
 10
-77.153378
 20
85.72808
 30
0.0
 40
0.571739
100
AcDbArc
 50
54.216235
 51
58.940434
  0
ARC
  5
64F
100
AcDbEntity
  8
0
  6
CONTINUOUS
 62
     7
100
AcDbCircle
 10
-77.148916
 20
85.730497
 30
0.0
 40
0.567372
100
AcDbArc
 50
59.200403
 51
63.924602
  0
ARC
  5
650
100
AcDbEntity
  8
0
  6
CONTINUOUS
 62
     7
100
AcDbCircle
 10
-77.144264
 20
85.732521
 30
0.0
 40
0.563519
100
AcDbArc
 50
64.259044
 51
68.983243
  0
ARC
  5
651
100
AcDbEntity
  8
0
  6
CONTINUOUS
 62
     7
100
AcDbCircle
 10
-77.13945
 20
85.734171
 30
0.0
 40
0.560266
100
AcDbArc
 50
69.382244
 51
74.106443
  0
ARC
  5
652
100
AcDbEntity
  8
0
  6
CONTINUOUS
 62
     7
100
AcDbCircle
 10
-77.134533
 20
85.735419
 30
0.0
 40
0.557737
100
AcDbArc
 50
74.557158
 51
79.281357
  0
ARC
  5
653
100
AcDbEntity
  8
0
  6
CONTINUOUS
 62
     7
100
AcDbCircle
 10
-77.129515
 20
85.736241
 30
0.0
 40
0.556015
100
AcDbArc
 50
79.773698
 51
84.497897
  0
ARC
  5
654
100
AcDbEntity
  8
0
  6
CONTINUOUS
 62
     7
100
AcDbCircle
 10
-77.124453
 20
85.736667
 30
0.0
 40
0.555129
100
AcDbArc
 50
85.01379
 51
89.737989
  0
ARC
  5
655
100
AcDbEntity
  8
0
  6
CONTINUOUS
 62
     7
100
AcDbCircle
 10
-77.132173
 20
85.696923
 30
0.0
 40
1.229854
100
AcDbArc
 50
6.151192
 51
11.332199
  0
ARC
  5
656
100
AcDbEntity
  8
0
  6
CONTINUOUS
 62
     7
100
AcDbCircle
 10
-77.129719
 20
85.70777
 30
0.0
 40
1.225358
100
AcDbArc
 50
10.857466
 51
16.038473
  0
ARC
  5
657
100
AcDbEntity
  8
0
  6
CONTINUOUS
 62
     7
100
AcDbCircle
 10
-77.126264
 20
85.718377
 30
0.0
 40
1.219142
100
AcDbArc
 50
15.604244
 51
20.78525
  0
ARC
  5
658
100
AcDbEntity
  8
0
  6
CONTINUOUS
 62
     7
100
AcDbCircle
 10
-77.121904
 20
85.728606
 30
0.0
 40
1.211463
100
AcDbArc
 50
20.406109
 51
25.587116
  0
ARC
  5
659
100
AcDbEntity
  8
0
  6
CONTINUOUS
 62
     7
100
AcDbCircle
 10
-77.116602
 20
85.738425
 30
0.0
 40
1.202458
100
AcDbArc
 50
25.274267
 51
30.455274
  0
ARC
  5
65A
100
AcDbEntity
  8
0
  6
CONTINUOUS
 62
     7
100
AcDbCircle
 10
-77.110459
 20
85.747702
 30
0.0
 40
1.19247
100
AcDbArc
 50
30.220605
 51
35.401612
  0
ARC
  5
65B
100
AcDbEntity
  8
0
  6
CONTINUOUS
 62
     7
100
AcDbCircle
 10
-77.103496
 20
85.756394
 30
0.0
 40
1.181763
100
AcDbArc
 50
35.253668
 51
40.434675
  0
ARC
  5
65C
100
AcDbEntity
  8
0
  6
CONTINUOUS
 62
     7
100
AcDbCircle
 10
-77.09578
 20
85.764417
 30
0.0
 40
1.170687
100
AcDbArc
 50
40.380759
 51
45.561765
  0
ARC
  5
65D
100
AcDbEntity
  8
0
  6
CONTINUOUS
 62
     7
100
AcDbCircle
 10
-77.087367
 20
85.771727
 30
0.0
 40
1.159577
100
AcDbArc
 50
45.605685
 51
50.786692
  0
ARC
  5
65E
100
AcDbEntity
  8
0
  6
CONTINUOUS
 62
     7
100
AcDbCircle
 10
-77.078328
 20
85.778231
 30
0.0
 40
1.148827
100
AcDbArc
 50
50.930887
 51
56.111894
  0
ARC
  5
65F
100
AcDbEntity
  8
0
  6
CONTINUOUS
 62
     7
100
AcDbCircle
 10
-77.068744
 20
85.78389
 30
0.0
 40
1.138796
100
AcDbArc
 50
56.353436
 51
61.534443
  0
ARC
  5
660
100
AcDbEntity
  8
0
  6
CONTINUOUS
 62
     7
100
AcDbCircle
 10
-77.058675
 20
85.788686
 30
0.0
 40
1.1298
100
AcDbArc
 50
61.867399
 51
67.048406
  0
ARC
  5
661
100
AcDbEntity
  8
0
  6
CONTINUOUS
 62
     7
100
AcDbCircle
 10
-77.048225
 20
85.792521
 30
0.0
 40
1.122224
100
AcDbArc
 50
67.463353
 51
72.64436
  0
ARC
  5
662
100
AcDbEntity
  8
0
  6
CONTINUOUS
 62
     7
100
AcDbCircle
 10
-77.037468
 20
85.795416
 30
0.0
 40
1.116291
100
AcDbArc
 50
73.12702
 51
78.308027
  0
ARC
  5
663
100
AcDbEntity
  8
0
  6
CONTINUOUS
 62
     7
100
AcDbCircle
 10
-77.026499
 20
85.797328
 30
0.0
 40
1.112244
100
AcDbArc
 50
78.841451
 51
84.022458
  0
ARC
  5
664
100
AcDbEntity
  8
0
  6
CONTINUOUS
 62
     7
100
AcDbCircle
 10
-77.015406
 20
85.798226
 30
0.0
 40
1.110249
100
AcDbArc
 50
84.586976
 51
89.767983
  0
ARC
  5
665
100
AcDbEntity
  8
0
  6
CONTINUOUS
 62
     7
100
AcDbCircle
 10
-81.099381
 20
84.105951
 30
0.0
 40
1.20242
100
AcDbArc
 50
359.838899
 51
3.050452
  0
ARC
  5
666
100
AcDbEntity
  8
0
  6
CONTINUOUS
 62
     7
100
AcDbCircle
 10
-81.099014
 20
84.112661
 30
0.0
 40
1.201715
100
AcDbArc
 50
2.731923
 51
5.943476
  0
ARC
  5
667
100
AcDbEntity
  8
0
  6
CONTINUOUS
 62
     7
100
AcDbCircle
 10
-81.098253
 20
84.119357
 30
0.0
 40
1.200282
100
AcDbArc
 50
5.629322
 51
8.840874
  0
ARC
  5
668
100
AcDbEntity
  8
0
  6
CONTINUOUS
 62
     7
100
AcDbCircle
 10
-81.097129
 20
84.125989
 30
0.0
 40
1.198169
100
AcDbArc
 50
8.535754
 51
11.747307
  0
ARC
  5
669
100
AcDbEntity
  8
0
  6
CONTINUOUS
 62
     7
100
AcDbCircle
 10
-81.095645
 20
84.132581
 30
0.0
 40
1.19539
100
AcDbArc
 50
11.452429
 51
14.663982
  0
ARC
  5
66A
100
AcDbEntity
  8
0
  6
CONTINUOUS
 62
     7
100
AcDbCircle
 10
-81.09376
 20
84.139034
 30
0.0
 40
1.191947
100
AcDbArc
 50
14.386863
 51
17.598415
  0
ARC
  5
66B
100
AcDbEntity
  8
0
  6
CONTINUOUS
 62
     7
100
AcDbCircle
 10
-81.091563
 20
84.145411
 30
0.0
 40
1.187937
100
AcDbArc
 50
17.337266
 51
20.548819
  0
ARC
  5
66C
100
AcDbEntity
  8
0
  6
CONTINUOUS
 62
     7
100
AcDbCircle
 10
-81.088956
 20
84.151619
 30
0.0
 40
1.183327
100
AcDbArc
 50
20.311624
 51
23.523176
  0
ARC
  5
66D
100
AcDbEntity
  8
0
  6
CONTINUOUS
 62
     7
100
AcDbCircle
 10
-81.086063
 20
84.157696
 30
0.0
 40
1.178258
100
AcDbArc
 50
23.30838
 51
26.519932
  0
ARC
  5
66E
100
AcDbEntity
  8
0
  6
CONTINUOUS
 62
     7
100
AcDbCircle
 10
-81.082783
 20
84.163593
 30
0.0
 40
1.172696
100
AcDbArc
 50
26.333689
 51
29.545241
  0
ARC
  5
66F
100
AcDbEntity
  8
0
  6
CONTINUOUS
 62
     7
100
AcDbCircle
 10
-81.07922
 20
84.169303
 30
0.0
 40
1.166785
100
AcDbArc
 50
29.387582
 51
32.599135
  0
ARC
  5
670
100
AcDbEntity
  8
0
  6
CONTINUOUS
 62
     7
100
AcDbCircle
 10
-81.075326
 20
84.174808
 30
0.0
 40
1.160541
100
AcDbArc
 50
32.473737
 51
35.685289
  0
ARC
  5
671
100
AcDbEntity
  8
0
  6
CONTINUOUS
 62
     7
100
AcDbCircle
 10
-81.071117
 20
84.18006
 30
0.0
 40
1.15406
100
AcDbArc
 50
35.59543
 51
38.806983
  0
ARC
  5
672
100
AcDbEntity
  8
0
  6
CONTINUOUS
 62
     7
100
AcDbCircle
 10
-81.066633
 20
84.185089
 30
0.0
 40
1.147415
100
AcDbArc
 50
38.751598
 51
41.963151
  0
ARC
  5
673
100
AcDbEntity
  8
0
  6
CONTINUOUS
 62
     7
100
AcDbCircle
 10
-81.061874
 20
84.189862
 30
0.0
 40
1.140685
100
AcDbArc
 50
41.944721
 51
45.156274
  0
ARC
  5
674
100
AcDbEntity
  8
0
  6
CONTINUOUS
 62
     7
100
AcDbCircle
 10
-81.056847
 20
84.194355
 30
0.0
 40
1.133954
100
AcDbArc
 50
45.176309
 51
48.387861
  0
ARC
  5
675
100
AcDbEntity
  8
0
  6
CONTINUOUS
 62
     7
100
AcDbCircle
 10
-80.985125
 20
83.982608
 30
0.0
 40
1.082573
100
AcDbArc
 50
270.311651
 51
275.936664
  0
ARC
  5
676
100
AcDbEntity
  8
0
  6
CONTINUOUS
 62
     7
100
AcDbCircle
 10
-80.996853
 20
83.983769
 30
0.0
 40
1.085002
100
AcDbArc
 50
276.546313
 51
282.171326
  0
ARC
  5
677
100
AcDbEntity
  8
0
  6
CONTINUOUS
 62
     7
100
AcDbCircle
 10
-81.008419
 20
83.986062
 30
0.0
 40
1.089736
100
AcDbArc
 50
282.740341
 51
288.365354
  0
ARC
  5
678
100
AcDbEntity
  8
0
  6
CONTINUOUS
 62
     7
100
AcDbCircle
 10
-81.019695
 20
83.989479
 30
0.0
 40
1.096574
100
AcDbArc
 50
288.868283
 51
294.493296
  0
ARC
  5
679
100
AcDbEntity
  8
0
  6
CONTINUOUS
 62
     7
100
AcDbCircle
 10
-81.03058
 20
83.993996
 30
0.0
 40
1.105226
100
AcDbArc
 50
294.909744
 51
300.534757
  0
ARC
  5
67A
100
AcDbEntity
  8
0
  6
CONTINUOUS
 62
     7
100
AcDbCircle
 10
-81.04098
 20
83.999555
 30
0.0
 40
1.115315
100
AcDbArc
 50
300.849831
 51
306.474843
  0
ARC
  5
67B
100
AcDbEntity
  8
0
  6
CONTINUOUS
 62
     7
100
AcDbCircle
 10
-81.050778
 20
84.006089
 30
0.0
 40
1.126401
100
AcDbArc
 50
306.678029
 51
312.303042
  0
ARC
  5
67C
100
AcDbEntity
  8
0
  6
CONTINUOUS
 62
     7
100
AcDbCircle
 10
-81.059898
 20
84.013579
 30
0.0
 40
1.13808
100
AcDbArc
 50
312.388821
 51
318.013833
  0
ARC
  5
67D
100
AcDbEntity
  8
0
  6
CONTINUOUS
 62
     7
100
AcDbCircle
 10
-81.068222
 20
84.021914
 30
0.0
 40
1.149843
100
AcDbArc
 50
317.982578
 51
323.607591
  0
ARC
  5
67E
100
AcDbEntity
  8
0
  6
CONTINUOUS
 62
     7
100
AcDbCircle
 10
-81.07571
 20
84.031025
 30
0.0
 40
1.16128
100
AcDbArc
 50
323.464937
 51
329.089949
  0
ARC
  5
67F
100
AcDbEntity
  8
0
  6
CONTINUOUS
 62
     7
100
AcDbCircle
 10
-81.082248
 20
84.040818
 30
0.0
 40
1.171931
100
AcDbArc
 50
328.843346
 51
334.468359
  0
ARC
  5
680
100
AcDbEntity
  8
0
  6
CONTINUOUS
 62
     7
100
AcDbCircle
 10
-81.087812
 20
84.051215
 30
0.0
 40
1.181454
100
AcDbArc
 50
334.129711
 51
339.754723
  0
ARC
  5
681
100
AcDbEntity
  8
0
  6
CONTINUOUS
 62
     7
100
AcDbCircle
 10
-81.092314
 20
84.062109
 30
0.0
 40
1.189479
100
AcDbArc
 50
339.337413
 51
344.962426
  0
ARC
  5
682
100
AcDbEntity
  8
0
  6
CONTINUOUS
 62
     7
100
AcDbCircle
 10
-81.095738
 20
84.073389
 30
0.0
 40
1.195753
100
AcDbArc
 50
344.483019
 51
350.108031
  0
ARC
  5
683
100
AcDbEntity
  8
0
  6
CONTINUOUS
 62
     7
100
AcDbCircle
 10
-81.098044
 20
84.084945
 30
0.0
 40
1.200061
100
AcDbArc
 50
349.583398
 51
355.208411
  0
ARC
  5
684
100
AcDbEntity
  8
0
  6
CONTINUOUS
 62
     7
100
AcDbCircle
 10
-81.099198
 20
84.096672
 30
0.0
 40
1.202246
100
AcDbArc
 50
354.656069
 51
0.281081
  0
ARC
  5
685
100
AcDbEntity
  8
0
  6
CONTINUOUS
 62
     7
100
AcDbCircle
 10
-81.145478
 20
85.803884
 30
0.0
 40
1.109769
100
AcDbArc
 50
359.718856
 51
5.343843
  0
ARC
  5
686
100
AcDbEntity
  8
0
  6
CONTINUOUS
 62
     7
100
AcDbCircle
 10
-81.14441
 20
85.814709
 30
0.0
 40
1.107748
100
AcDbArc
 50
4.791519
 51
10.416505
  0
ARC
  5
687
100
AcDbEntity
  8
0
  6
CONTINUOUS
 62
     7
100
AcDbCircle
 10
-81.142292
 20
85.825372
 30
0.0
 40
1.103784
100
AcDbArc
 50
9.89199
 51
15.516976
  0
ARC
  5
688
100
AcDbEntity
  8
0
  6
CONTINUOUS
 62
     7
100
AcDbCircle
 10
-81.139136
 20
85.835792
 30
0.0
 40
1.097993
100
AcDbArc
 50
15.037113
 51
20.662099
  0
ARC
  5
689
100
AcDbEntity
  8
0
  6
CONTINUOUS
 62
     7
100
AcDbCircle
 10
-81.134971
 20
85.845842
 30
0.0
 40
1.090579
100
AcDbArc
 50
20.245296
 51
25.870282
  0
ARC
  5
68A
100
AcDbEntity
  8
0
  6
CONTINUOUS
 62
     7
100
AcDbCircle
 10
-81.129835
 20
85.855438
 30
0.0
 40
1.08179
100
AcDbArc
 50
25.531688
 51
31.156674
  0
ARC
  5
68B
100
AcDbEntity
  8
0
  6
CONTINUOUS
 62
     7
100
AcDbCircle
 10
-81.123791
 20
85.86448
 30
0.0
 40
1.071949
100
AcDbArc
 50
30.910204
 51
36.53519
  0
ARC
  5
68C
100
AcDbEntity
  8
0
  6
CONTINUOUS
 62
     7
100
AcDbCircle
 10
-81.116896
 20
85.872893
 30
0.0
 40
1.061405
100
AcDbArc
 50
36.391884
 51
42.01687
  0
ARC
  5
68D
100
AcDbEntity
  8
0
  6
CONTINUOUS
 62
     7
100
AcDbCircle
 10
-81.109203
 20
85.880588
 30
0.0
 40
1.050538
100
AcDbArc
 50
41.985907
 51
47.610894
  0
ARC
  5
68E
100
AcDbEntity
  8
0
  6
CONTINUOUS
 62
     7
100
AcDbCircle
 10
-81.100788
 20
85.887486
 30
0.0
 40
1.039772
100
AcDbArc
 50
47.697123
 51
53.322109
  0
ARC
  5
68F
100
AcDbEntity
  8
0
  6
CONTINUOUS
 62
     7
100
AcDbCircle
 10
-81.091746
 20
85.893543
 30
0.0
 40
1.029519
100
AcDbArc
 50
53.524335
 51
59.149322
  0
ARC
  5
690
100
AcDbEntity
  8
0
  6
CONTINUOUS
 62
     7
100
AcDbCircle
 10
-81.082138
 20
85.898655
 30
0.0
 40
1.020219
100
AcDbArc
 50
59.465322
 51
65.090308
  0
ARC
  5
691
100
AcDbEntity
  8
0
  6
CONTINUOUS
 62
     7
100
AcDbCircle
 10
-81.072101
 20
85.902827
 30
0.0
 40
1.012234
100
AcDbArc
 50
65.506165
 51
71.131151
  0
ARC
  5
692
100
AcDbEntity
  8
0
  6
CONTINUOUS
 62
     7
100
AcDbCircle
 10
-81.061687
 20
85.905984
 30
0.0
 40
1.005917
100
AcDbArc
 50
71.634285
 51
77.259271
  0
ARC
  5
693
100
AcDbEntity
  8
0
  6
CONTINUOUS
 62
     7
100
AcDbCircle
 10
-81.051012
 20
85.908117
 30
0.0
 40
1.001532
100
AcDbArc
 50
77.828018
 51
83.453004
  0
ARC
  5
694
100
AcDbEntity
  8
0
  6
CONTINUOUS
 62
     7
100
AcDbCircle
 10
-81.04018
 20
85.909174
 30
0.0
 40
0.999304
100
AcDbArc
 50
84.063128
 51
89.688114
  0
ARC
  5
695
100
AcDbEntity
  8
0
  6
CONTINUOUS
 62
     7
100
AcDbCircle
 10
-81.118165
 20
85.725265
 30
0.0
 40
1.062786
100
AcDbArc
 50
319.969016
 51
322.655335
  0
ARC
  5
696
100
AcDbEntity
  8
0
  6
CONTINUOUS
 62
     7
100
AcDbCircle
 10
-81.121508
 20
85.729268
 30
0.0
 40
1.067873
100
AcDbArc
 50
322.593369
 51
325.279688
  0
ARC
  5
697
100
AcDbEntity
  8
0
  6
CONTINUOUS
 62
     7
100
AcDbCircle
 10
-81.124659
 20
85.733398
 30
0.0
 40
1.072816
100
AcDbArc
 50
325.194264
 51
327.880583
  0
ARC
  5
698
100
AcDbEntity
  8
0
  6
CONTINUOUS
 62
     7
100
AcDbCircle
 10
-81.127595
 20
85.737712
 30
0.0
 40
1.077599
100
AcDbArc
 50
327.76933
 51
330.455649
  0
ARC
  5
699
100
AcDbEntity
  8
0
  6
CONTINUOUS
 62
     7
100
AcDbCircle
 10
-81.130355
 20
85.742095
 30
0.0
 40
1.082164
100
AcDbArc
 50
330.325795
 51
333.012114
  0
ARC
  5
69A
100
AcDbEntity
  8
0
  6
CONTINUOUS
 62
     7
100
AcDbCircle
 10
-81.132887
 20
85.746665
 30
0.0
 40
1.086498
100
AcDbArc
 50
332.857961
 51
335.54428
  0
ARC
  5
69B
100
AcDbEntity
  8
0
  6
CONTINUOUS
 62
     7
100
AcDbCircle
 10
-81.135198
 20
85.751321
 30
0.0
 40
1.090534
100
AcDbArc
 50
335.37187
 51
338.058189
  0
ARC
  5
69C
100
AcDbEntity
  8
0
  6
CONTINUOUS
 62
     7
100
AcDbCircle
 10
-81.137314
 20
85.756069
 30
0.0
 40
1.094277
100
AcDbArc
 50
337.86903
 51
340.555349
  0
ARC
  5
69D
100
AcDbEntity
  8
0
  6
CONTINUOUS
 62
     7
100
AcDbCircle
 10
-81.139171
 20
85.760931
 30
0.0
 40
1.097654
100
AcDbArc
 50
340.348294
 51
343.034614
  0
ARC
  5
69E
100
AcDbEntity
  8
0
  6
CONTINUOUS
 62
     7
100
AcDbCircle
 10
-81.140807
 20
85.765843
 30
0.0
 40
1.10066
100
AcDbArc
 50
342.814855
 51
345.501174
  0
ARC
  5
69F
100
AcDbEntity
  8
0
  6
CONTINUOUS
 62
     7
100
AcDbCircle
 10
-81.142234
 20
85.77087
 30
0.0
 40
1.103309
100
AcDbArc
 50
345.267011
 51
347.95333
  0
ARC
  5
6A0
100
AcDbEntity
  8
0
  6
CONTINUOUS
 62
     7
100
AcDbCircle
 10
-81.143414
 20
85.775943
 30
0.0
 40
1.105532
100
AcDbArc
 50
347.708975
 51
350.395294
  0
ARC
  5
6A1
100
AcDbEntity
  8
0
  6
CONTINUOUS
 62
     7
100
AcDbCircle
 10
-81.144331
 20
85.781057
 30
0.0
 40
1.1073
100
AcDbArc
 50
350.142284
 51
352.828603
  0
ARC
  5
6A2
100
AcDbEntity
  8
0
  6
CONTINUOUS
 62
     7
100
AcDbCircle
 10
-81.145025
 20
85.786228
 30
0.0
 40
1.108646
100
AcDbArc
 50
352.567918
 51
355.254237
  0
ARC
  5
6A3
100
AcDbEntity
  8
0
  6
CONTINUOUS
 62
     7
100
AcDbCircle
 10
-81.145489
 20
85.791386
 30
0.0
 40
1.109546
100
AcDbArc
 50
354.990772
 51
357.677091
  0
ARC
  5
6A4
100
AcDbEntity
  8
0
  6
CONTINUOUS
 62
     7
100
AcDbCircle
 10
-81.14569
 20
85.796588
 30
0.0
 40
1.109971
100
AcDbArc
 50
357.409227
 51
0.095546
  0
ARC
  5
6A5
100
AcDbEntity
  8
0
  6
CONTINUOUS
 62
     7
100
AcDbCircle
 10
-81.093111
 20
84.044119
 30
0.0
 40
0.527404
100
AcDbArc
 50
270.311942
 51
275.936942
  0
ARC
  5
6A6
100
AcDbEntity
  8
0
  6
CONTINUOUS
 62
     7
100
AcDbCircle
 10
-81.098828
 20
84.044689
 30
0.0
 40
0.528592
100
AcDbArc
 50
276.546864
 51
282.171864
  0
ARC
  5
6A7
100
AcDbEntity
  8
0
  6
CONTINUOUS
 62
     7
100
AcDbCircle
 10
-81.104453
 20
84.045815
 30
0.0
 40
0.530905
100
AcDbArc
 50
282.73969
 51
288.36469
  0
ARC
  5
6A8
100
AcDbEntity
  8
0
  6
CONTINUOUS
 62
     7
100
AcDbCircle
 10
-81.109958
 20
84.047472
 30
0.0
 40
0.534233
100
AcDbArc
 50
288.868972
 51
294.493972
  0
ARC
  5
6A9
100
AcDbEntity
  8
0
  6
CONTINUOUS
 62
     7
100
AcDbCircle
 10
-81.115257
 20
84.049672
 30
0.0
 40
0.538446
100
AcDbArc
 50
294.910134
 51
300.535134
  0
ARC
  5
6AA
100
AcDbEntity
  8
0
  6
CONTINUOUS
 62
     7
100
AcDbCircle
 10
-81.120323
 20
84.052386
 30
0.0
 40
0.543365
100
AcDbArc
 50
300.849852
 51
306.474852
  0
ARC
  5
6AB
100
AcDbEntity
  8
0
  6
CONTINUOUS
 62
     7
100
AcDbCircle
 10
-81.125096
 20
84.055567
 30
0.0
 40
0.548764
100
AcDbArc
 50
306.678125
 51
312.303125
  0
ARC
  5
6AC
100
AcDbEntity
  8
0
  6
CONTINUOUS
 62
     7
100
AcDbCircle
 10
-81.129542
 20
84.059213
 30
0.0
 40
0.554454
100
AcDbArc
 50
312.389284
 51
318.014284
  0
ARC
  5
6AD
100
AcDbEntity
  8
0
  6
CONTINUOUS
 62
     7
100
AcDbCircle
 10
-81.133587
 20
84.063269
 30
0.0
 40
0.560174
100
AcDbArc
 50
317.982719
 51
323.607719
  0
ARC
  5
6AE
100
AcDbEntity
  8
0
  6
CONTINUOUS
 62
     7
100
AcDbCircle
 10
-81.137248
 20
84.06772
 30
0.0
 40
0.565763
100
AcDbArc
 50
323.464804
 51
329.089804
  0
ARC
  5
6AF
100
AcDbEntity
  8
0
  6
CONTINUOUS
 62
     7
100
AcDbCircle
 10
-81.140422
 20
84.072485
 30
0.0
 40
0.570939
100
AcDbArc
 50
328.84318
 51
334.46818
  0
ARC
  5
6B0
100
AcDbEntity
  8
0
  6
CONTINUOUS
 62
     7
100
AcDbCircle
 10
-81.143143
 20
84.077552
 30
0.0
 40
0.575588
100
AcDbArc
 50
334.129824
 51
339.754824
  0
ARC
  5
6B1
100
AcDbEntity
  8
0
  6
CONTINUOUS
 62
     7
100
AcDbCircle
 10
-81.145329
 20
84.08286
 30
0.0
 40
0.579492
100
AcDbArc
 50
339.337198
 51
344.962198
  0
ARC
  5
6B2
100
AcDbEntity
  8
0
  6
CONTINUOUS
 62
     7
100
AcDbCircle
 10
-81.147008
 20
84.088346
 30
0.0
 40
0.582557
100
AcDbArc
 50
344.483895
 51
350.108895
  0
ARC
  5
6B3
100
AcDbEntity
  8
0
  6
CONTINUOUS
 62
     7
100
AcDbCircle
 10
-81.148121
 20
84.093992
 30
0.0
 40
0.584648
100
AcDbArc
 50
349.582628
 51
355.207628
  0
ARC
  5
6B4
100
AcDbEntity
  8
0
  6
CONTINUOUS
 62
     7
100
AcDbCircle
 10
-81.148684
 20
84.09969
 30
0.0
 40
0.585712
100
AcDbArc
 50
354.65677
 51
0.28177
  0
ARC
  5
6B5
100
AcDbEntity
  8
0
  6
CONTINUOUS
 62
     7
100
AcDbCircle
 10
-81.148684
 20
84.10545
 30
0.0
 40
0.585712
100
AcDbArc
 50
359.71823
 51
5.34323
  0
ARC
  5
6B6
100
AcDbEntity
  8
0
  6
CONTINUOUS
 62
     7
100
AcDbCircle
 10
-81.148121
 20
84.111148
 30
0.0
 40
0.584648
100
AcDbArc
 50
4.792372
 51
10.417372
  0
ARC
  5
6B7
100
AcDbEntity
  8
0
  6
CONTINUOUS
 62
     7
100
AcDbCircle
 10
-81.146998
 20
84.116793
 30
0.0
 40
0.582547
100
AcDbArc
 50
9.891326
 51
15.516326
  0
ARC
  5
6B8
100
AcDbEntity
  8
0
  6
CONTINUOUS
 62
     7
100
AcDbCircle
 10
-81.145329
 20
84.122279
 30
0.0
 40
0.579492
100
AcDbArc
 50
15.037802
 51
20.662802
  0
ARC
  5
6B9
100
AcDbEntity
  8
0
  6
CONTINUOUS
 62
     7
100
AcDbCircle
 10
-81.143143
 20
84.127587
 30
0.0
 40
0.575588
100
AcDbArc
 50
20.245176
 51
25.870176
  0
ARC
  5
6BA
100
AcDbEntity
  8
0
  6
CONTINUOUS
 62
     7
100
AcDbCircle
 10
-81.140422
 20
84.132654
 30
0.0
 40
0.570939
100
AcDbArc
 50
25.53182
 51
31.15682
  0
ARC
  5
6BB
100
AcDbEntity
  8
0
  6
CONTINUOUS
 62
     7
100
AcDbCircle
 10
-81.137248
 20
84.137419
 30
0.0
 40
0.565763
100
AcDbArc
 50
30.910196
 51
36.535196
  0
ARC
  5
6BC
100
AcDbEntity
  8
0
  6
CONTINUOUS
 62
     7
100
AcDbCircle
 10
-81.133597
 20
84.141871
 30
0.0
 40
0.560182
100
AcDbArc
 50
36.391622
 51
42.016622
  0
ARC
  5
6BD
100
AcDbEntity
  8
0
  6
CONTINUOUS
 62
     7
100
AcDbCircle
 10
-81.129532
 20
84.145926
 30
0.0
 40
0.554446
100
AcDbArc
 50
41.986458
 51
47.611458
  0
ARC
  5
6BE
100
AcDbEntity
  8
0
  6
CONTINUOUS
 62
     7
100
AcDbCircle
 10
-81.125096
 20
84.149572
 30
0.0
 40
0.548764
100
AcDbArc
 50
47.696875
 51
53.321875
  0
ARC
  5
6BF
100
AcDbEntity
  8
0
  6
CONTINUOUS
 62
     7
100
AcDbCircle
 10
-81.120323
 20
84.152753
 30
0.0
 40
0.543365
100
AcDbArc
 50
53.525148
 51
59.150148
  0
ARC
  5
6C0
100
AcDbEntity
  8
0
  6
CONTINUOUS
 62
     7
100
AcDbCircle
 10
-81.115257
 20
84.155467
 30
0.0
 40
0.538446
100
AcDbArc
 50
59.464866
 51
65.089866
  0
ARC
  5
6C1
100
AcDbEntity
  8
0
  6
CONTINUOUS
 62
     7
100
AcDbCircle
 10
-81.109958
 20
84.157667
 30
0.0
 40
0.534233
100
AcDbArc
 50
65.506028
 51
71.131028
  0
ARC
  5
6C2
100
AcDbEntity
  8
0
  6
CONTINUOUS
 62
     7
100
AcDbCircle
 10
-81.104453
 20
84.159324
 30
0.0
 40
0.530905
100
AcDbArc
 50
71.63531
 51
77.26031
  0
ARC
  5
6C3
100
AcDbEntity
  8
0
  6
CONTINUOUS
 62
     7
100
AcDbCircle
 10
-81.098828
 20
84.16045
 30
0.0
 40
0.528592
100
AcDbArc
 50
77.828136
 51
83.453136
  0
ARC
  5
6C4
100
AcDbEntity
  8
0
  6
CONTINUOUS
 62
     7
100
AcDbCircle
 10
-81.093111
 20
84.16102
 30
0.0
 40
0.527404
100
AcDbArc
 50
84.063058
 51
89.688058
  0
ARC
  5
6C5
100
AcDbEntity
  8
0
  6
CONTINUOUS
 62
     7
100
AcDbCircle
 10
-81.148157
 20
85.749217
 30
0.0
 40
0.444119
100
AcDbArc
 50
270.311253
 51
275.936253
  0
ARC
  5
6C6
100
AcDbEntity
  8
0
  6
CONTINUOUS
 62
     7
100
AcDbCircle
 10
-81.152977
 20
85.749703
 30
0.0
 40
0.445125
100
AcDbArc
 50
276.546966
 51
282.171965
  0
ARC
  5
6C7
100
AcDbEntity
  8
0
  6
CONTINUOUS
 62
     7
100
AcDbCircle
 10
-81.157712
 20
85.750638
 30
0.0
 40
0.44706
100
AcDbArc
 50
282.739853
 51
288.364853
  0
ARC
  5
6C8
100
AcDbEntity
  8
0
  6
CONTINUOUS
 62
     7
100
AcDbCircle
 10
-81.162344
 20
85.752044
 30
0.0
 40
0.449871
100
AcDbArc
 50
288.868411
 51
294.493411
  0
ARC
  5
6C9
100
AcDbEntity
  8
0
  6
CONTINUOUS
 62
     7
100
AcDbCircle
 10
-81.166818
 20
85.753898
 30
0.0
 40
0.453425
100
AcDbArc
 50
294.910658
 51
300.535658
  0
ARC
  5
6CA
100
AcDbEntity
  8
0
  6
CONTINUOUS
 62
     7
100
AcDbCircle
 10
-81.171071
 20
85.756174
 30
0.0
 40
0.457553
100
AcDbArc
 50
300.849609
 51
306.474609
  0
ARC
  5
6CB
100
AcDbEntity
  8
0
  6
CONTINUOUS
 62
     7
100
AcDbCircle
 10
-81.175098
 20
85.758866
 30
0.0
 40
0.462115
100
AcDbArc
 50
306.677629
 51
312.302629
  0
ARC
  5
6CC
100
AcDbEntity
  8
0
  6
CONTINUOUS
 62
     7
100
AcDbCircle
 10
-81.178839
 20
85.761931
 30
0.0
 40
0.4669
100
AcDbArc
 50
312.389102
 51
318.014102
  0
ARC
  5
6CD
100
AcDbEntity
  8
0
  6
CONTINUOUS
 62
     7
100
AcDbCircle
 10
-81.182253
 20
85.765346
 30
0.0
 40
0.471722
100
AcDbArc
 50
317.983174
 51
323.608174
  0
ARC
  5
6CE
100
AcDbEntity
  8
0
  6
CONTINUOUS
 62
     7
100
AcDbCircle
 10
-81.18532
 20
85.769087
 30
0.0
 40
0.476413
100
AcDbArc
 50
323.464803
 51
329.089803
  0
ARC
  5
6CF
100
AcDbEntity
  8
0
  6
CONTINUOUS
 62
     7
100
AcDbCircle
 10
-81.188011
 20
85.773111
 30
0.0
 40
0.480793
100
AcDbArc
 50
328.843072
 51
334.468072
  0
ARC
  5
6D0
100
AcDbEntity
  8
0
  6
CONTINUOUS
 62
     7
100
AcDbCircle
 10
-81.190284
 20
85.777367
 30
0.0
 40
0.484686
100
AcDbArc
 50
334.129997
 51
339.754997
  0
ARC
  5
6D1
100
AcDbEntity
  8
0
  6
CONTINUOUS
 62
     7
100
AcDbCircle
 10
-81.192143
 20
85.781839
 30
0.0
 40
0.487991
100
AcDbArc
 50
339.337857
 51
344.962857
  0
ARC
  5
6D2
100
AcDbEntity
  8
0
  6
CONTINUOUS
 62
     7
100
AcDbCircle
 10
-81.193535
 20
85.786465
 30
0.0
 40
0.490553
100
AcDbArc
 50
344.483255
 51
350.108255
  0
ARC
  5
6D3
100
AcDbEntity
  8
0
  6
CONTINUOUS
 62
     7
100
AcDbCircle
 10
-81.19449
 20
85.791215
 30
0.0
 40
0.49233
100
AcDbArc
 50
349.582669
 51
355.207669
  0
ARC
  5
6D4
100
AcDbEntity
  8
0
  6
CONTINUOUS
 62
     7
100
AcDbCircle
 10
-81.194956
 20
85.796021
 30
0.0
 40
0.493219
100
AcDbArc
 50
354.655835
 51
0.280835
  0
ARC
  5
6D5
100
AcDbEntity
  8
0
  6
CONTINUOUS
 62
     7
100
AcDbCircle
 10
-81.194962
 20
85.800858
 30
0.0
 40
0.49324
100
AcDbArc
 50
359.71906
 51
5.34406
  0
ARC
  5
6D6
100
AcDbEntity
  8
0
  6
CONTINUOUS
 62
     7
100
AcDbCircle
 10
-81.194484
 20
85.805675
 30
0.0
 40
0.492339
100
AcDbArc
 50
4.790998
 51
10.415998
  0
ARC
  5
6D7
100
AcDbEntity
  8
0
  6
CONTINUOUS
 62
     7
100
AcDbCircle
 10
-81.19354
 20
85.810407
 30
0.0
 40
0.490575
100
AcDbArc
 50
9.892383
 51
15.517383
  0
ARC
  5
6D8
100
AcDbEntity
  8
0
  6
CONTINUOUS
 62
     7
100
AcDbCircle
 10
-81.192149
 20
85.815045
 30
0.0
 40
0.488011
100
AcDbArc
 50
15.036409
 51
20.661409
  0
ARC
  5
6D9
100
AcDbEntity
  8
0
  6
CONTINUOUS
 62
     7
100
AcDbCircle
 10
-81.19028
 20
85.819499
 30
0.0
 40
0.484704
100
AcDbArc
 50
20.246748
 51
25.871748
  0
ARC
  5
6DA
100
AcDbEntity
  8
0
  6
CONTINUOUS
 62
     7
100
AcDbCircle
 10
-81.188018
 20
85.823776
 30
0.0
 40
0.480811
100
AcDbArc
 50
25.530775
 51
31.155775
  0
ARC
  5
6DB
100
AcDbEntity
  8
0
  6
CONTINUOUS
 62
     7
100
AcDbCircle
 10
-81.185318
 20
85.827791
 30
0.0
 40
0.476427
100
AcDbArc
 50
30.910536
 51
36.535536
  0
ARC
  5
6DC
100
AcDbEntity
  8
0
  6
CONTINUOUS
 62
     7
100
AcDbCircle
 10
-81.182252
 20
85.831534
 30
0.0
 40
0.471736
100
AcDbArc
 50
36.392003
 51
42.017003
  0
ARC
  5
6DD
100
AcDbEntity
  8
0
  6
CONTINUOUS
 62
     7
100
AcDbCircle
 10
-81.178839
 20
85.83495
 30
0.0
 40
0.466914
100
AcDbArc
 50
41.985905
 51
47.610905
  0
ARC
  5
6DE
100
AcDbEntity
  8
0
  6
CONTINUOUS
 62
     7
100
AcDbCircle
 10
-81.175099
 20
85.838015
 30
0.0
 40
0.462129
100
AcDbArc
 50
47.697199
 51
53.322199
  0
ARC
  5
6DF
100
AcDbEntity
  8
0
  6
CONTINUOUS
 62
     7
100
AcDbCircle
 10
-81.171073
 20
85.840708
 30
0.0
 40
0.457567
100
AcDbArc
 50
53.525036
 51
59.150036
  0
ARC
  5
6E0
100
AcDbEntity
  8
0
  6
CONTINUOUS
 62
     7
100
AcDbCircle
 10
-81.166821
 20
85.842975
 30
0.0
 40
0.453448
100
AcDbArc
 50
59.464401
 51
65.0894
  0
ARC
  5
6E1
100
AcDbEntity
  8
0
  6
CONTINUOUS
 62
     7
100
AcDbCircle
 10
-81.162339
 20
85.84484
 30
0.0
 40
0.44988
100
AcDbArc
 50
65.507068
 51
71.132068
  0
ARC
  5
6E2
100
AcDbEntity
  8
0
  6
CONTINUOUS
 62
     7
100
AcDbCircle
 10
-81.157718
 20
85.846237
 30
0.0
 40
0.447082
100
AcDbArc
 50
71.634589
 51
77.259589
  0
ARC
  5
6E3
100
AcDbEntity
  8
0
  6
CONTINUOUS
 62
     7
100
AcDbCircle
 10
-81.152975
 20
85.847182
 30
0.0
 40
0.445135
100
AcDbArc
 50
77.828248
 51
83.453248
  0
ARC
  5
6E4
100
AcDbEntity
  8
0
  6
CONTINUOUS
 62
     7
100
AcDbCircle
 10
-81.148166
 20
85.847658
 30
0.0
 40
0.44414
100
AcDbArc
 50
84.062577
 51
89.687577
  0
ENDSEC
  0
SECTION
  2
OBJECTS
  0
DICTIONARY
  5
C
100
AcDbDictionary
  3
ACAD_GROUP
350
D
  3
ACAD_MLINESTYLE
350
E
  0
DICTIONARY
  5
D
102
{ACAD_REACTORS
330
C
102
}
100
AcDbDictionary
  0
DICTIONARY
  5
E
102
{ACAD_REACTORS
330
C
102
}
100
AcDbDictionary
  3
STANDARD
350
1C
  0
MLINESTYLE
  5
1C
102
{ACAD_REACTORS
330
E
102
}
100
AcDbMlineStyle
  2
STANDARD
 70
     0
  3

 62
     0
 51
90.0
 52
90.0
 71
     2
 49
0.5
 62
   256
  6
BYLAYER
 49
-0.5
 62
   256
  6
BYLAYER
  0
ENDSEC
  0
EOF
