999
DXF file: c-170324-1-p-2d.dxf
999
Pro/ENGINEER 2016050 by Parametric Technology Corporation
  0
SECTION
  2
HEADER
  9
$ACADVER
  1
AC1014
  9
$DWGCODEPAGE
  3
ANSI_1252
  9
$EXTMAX
 10
420.0
 20
297.0
 30
0.0
  9
$EXTMIN
 10
0.0
 20
0.0
 30
0.0
  9
$LIMMIN
 10
0.0
 20
0.0
  9
$LIMMAX
 10
420.0
 20
297.0
  9
$VIEWCTR
 10
210.0
 20
148.5
  9
$VIEWSIZE
 40
297.0
  9
$CLAYER
  8
0
  9
$LTSCALE
 40
23.1
  9
$CELTYPE
  6
BYLAYER
  9
$DIMSCALE
 40
1.0
  9
$DIMASZ
 40
4.5
  9
$DIMEXO
 40
1.5
  9
$DIMDLI
 40
15.96
  9
$DIMEXE
 40
3.0
  9
$DIMCEN
 40
3.78
  9
$DIMLFAC
 40
0.3333333333
  9
$DIMBLK
  1
_CLOSED
  9
$DIMALT
 70
0
  9
$DIMALTF
 40
0.0393700787
  9
$DIMTXT
 40
3.0
  9
$DIMTOL
 70
1
  9
$DIMLIM
 70
0
  9
$DIMTFAC
 40
1.0
  9
$DIMTP
 40
0.01
  9
$DIMTM
 40
0.01
  9
$DIMGAP
 40
0.625
  9
$AUNITS
 70
0
  9
$PDMODE
 70
3
  9
$PDSIZE
 40
0.3125
  9
$HANDSEED
  5
44B
  9
$TILEMODE
 70
1
  9
$MEASUREMENT
 70
1
  0
ENDSEC
  0
SECTION
  2
CLASSES
  0
ENDSEC
  0
SECTION
  2
TABLES
  0
TABLE
  2
VPORT
  5
8
100
AcDbSymbolTable
 70
2
  0
VPORT
  5
1F4
100
AcDbSymbolTableRecord
100
AcDbViewportTableRecord
  2
*ACTIVE
 70
0
 10
0.0
 20
0.0
 11
1.0
 21
1.0
 12
210.0
 22
148.5
 13
0.0
 23
0.0
 14
1.0
 24
1.0
 15
0.0
 25
0.0
 16
0.0
 26
0.0
 36
1.0
 17
0.0
 27
0.0
 37
0.0
 40
297.0
 41
1.4141414141
 42
50.0
 43
0.0
 44
0.0
 50
0.0
 51
0.0
 71
0
 72
100
 73
1
 74
1
 75
0
 76
0
 77
0
 78
0
  0
ENDTAB
  0
TABLE
  2
LTYPE
  5
5
100
AcDbSymbolTable
 70
6
  0
LTYPE
  5
14
100
AcDbSymbolTableRecord
100
AcDbLinetypeTableRecord
  2
BYBLOCK
 70
0
  3

 72
65
 73
0
 40
0.0
  0
LTYPE
  5
15
100
AcDbSymbolTableRecord
100
AcDbLinetypeTableRecord
  2
BYLAYER
 70
0
  3

 72
65
 73
0
 40
0.0
  0
LTYPE
  5
16
100
AcDbSymbolTableRecord
100
AcDbLinetypeTableRecord
  2
CONTINUOUS
 70
64
  3
Solid line
 72
65
 73
0
 40
0.0
  0
LTYPE
  5
1F5
100
AcDbSymbolTableRecord
100
AcDbLinetypeTableRecord
  2
CENTER
 70
64
  3
____ _ ____ _ ____ _ ____ _ ____ _ ____ _ ____
 72
65
 73
4
 40
0.6
 49
0.375
 74
0
 49
-0.075
 74
0
 49
0.075
 74
0
 49
-0.075
 74
0
  0
LTYPE
  5
1F6
100
AcDbSymbolTableRecord
100
AcDbLinetypeTableRecord
  2
HIDDEN
 70
64
  3
- - - - - - - - - - - - - - - - - - - -
 72
65
 73
2
 40
0.2
 49
0.1
 74
0
 49
-0.1
 74
0
  0
LTYPE
  5
1F7
100
AcDbSymbolTableRecord
100
AcDbLinetypeTableRecord
  2
PHANTOM
 70
64
  3
_____ _ _ _____ _ _ _____ _ _ _____
 72
65
 73
6
 40
0.8
 49
0.45
 74
0
 49
-0.05
 74
0
 49
0.1
 74
0
 49
-0.05
 74
0
 49
0.1
 74
0
 49
-0.05
 74
0
  0
LTYPE
  5
1F8
100
AcDbSymbolTableRecord
100
AcDbLinetypeTableRecord
  2
DOT
 70
64
  3
. . . . . . . . . . . . . . . . . . . .
 72
65
 73
2
 40
0.2
 49
0.1
 74
0
 49
-0.1
 74
0
  0
LTYPE
  5
1F9
100
AcDbSymbolTableRecord
100
AcDbLinetypeTableRecord
  2
DASHED
 70
64
  3
- - - - - - - - - - - - - - - - - - - -
 72
65
 73
2
 40
0.2
 49
0.1
 74
0
 49
-0.1
 74
0
  0
ENDTAB
  0
TABLE
  2
LAYER
  5
2
100
AcDbSymbolTable
 70
36
  0
LAYER
  5
10
100
AcDbSymbolTableRecord
100
AcDbLayerTableRecord
  2
0
 70
0
 62
7
  6
CONTINUOUS
  0
LAYER
  5
1FA
100
AcDbSymbolTableRecord
100
AcDbLayerTableRecord
  2
DEFAULT_1
 70
0
 62
7
  6
CENTER
  0
LAYER
  5
1FB
100
AcDbSymbolTableRecord
100
AcDbLayerTableRecord
  2
DEFAULT_2
 70
0
 62
8
  6
HIDDEN
  0
LAYER
  5
1FC
100
AcDbSymbolTableRecord
100
AcDbLayerTableRecord
  2
DEFAULT_3
 70
0
 62
7
  6
PHANTOM
  0
LAYER
  5
1FD
100
AcDbSymbolTableRecord
100
AcDbLayerTableRecord
  2
DRAFT_ENTITY
 70
0
 62
7
  6
CONTINUOUS
  0
LAYER
  5
1FE
100
AcDbSymbolTableRecord
100
AcDbLayerTableRecord
  2
DRAFT_GEOM
 70
0
 62
7
  6
CONTINUOUS
  0
LAYER
  5
1FF
100
AcDbSymbolTableRecord
100
AcDbLayerTableRecord
  2
DRAFT_GRP
 70
0
 62
7
  6
CONTINUOUS
  0
LAYER
  5
200
100
AcDbSymbolTableRecord
100
AcDbLayerTableRecord
  2
DRAFT_OTHER
 70
0
 62
7
  6
CONTINUOUS
  0
LAYER
  5
201
100
AcDbSymbolTableRecord
100
AcDbLayerTableRecord
  2
DTM_ALL
 70
0
 62
7
  6
CONTINUOUS
  0
LAYER
  5
202
100
AcDbSymbolTableRecord
100
AcDbLayerTableRecord
  2
DTM_MAJOR
 70
0
 62
7
  6
CONTINUOUS
  0
LAYER
  5
203
100
AcDbSymbolTableRecord
100
AcDbLayerTableRecord
  2
NOTE
 70
0
 62
7
  6
CONTINUOUS
  0
ENDTAB
  0
TABLE
  2
STYLE
  5
3
100
AcDbSymbolTable
 70
1
  0
STYLE
  5
11
100
AcDbSymbolTableRecord
100
AcDbTextStyleTableRecord
  2
STANDARD
 70
0
 40
0.0
 41
0.95
 50
0.0
 71
0
 42
0.2
  3
txt
  4

  0
STYLE
  5
204
100
AcDbSymbolTableRecord
100
AcDbTextStyleTableRecord
  2
TEXTSTYLE_1
 70
0
 40
0.0
 41
0.8
 50
0.0
 71
0
 42
0.2
  3
gdt
  4

  0
STYLE
  5
205
100
AcDbSymbolTableRecord
100
AcDbTextStyleTableRecord
  2
TEXTSTYLE_2
 70
0
 40
0.0
 41
0.8
 50
0.0
 71
0
 42
0.2
  3
txt
  4

  0
ENDTAB
  0
TABLE
  2
VIEW
  5
6
100
AcDbSymbolTable
 70
0
  0
ENDTAB
  0
TABLE
  2
UCS
  5
7
100
AcDbSymbolTable
 70
0
  0
ENDTAB
  0
TABLE
  2
APPID
  5
9
100
AcDbSymbolTable
 70
1
  0
APPID
  5
206
100
AcDbSymbolTableRecord
100
AcDbRegAppTableRecord
  2
ACAD
 70
0
  0
ENDTAB
  0
TABLE
  2
BLOCK_RECORD
  5
1
100
AcDbSymbolTable
 70
0
  0
BLOCK_RECORD
  5
1F
100
AcDbSymbolTableRecord
100
AcDbBlockTableRecord
  2
*MODEL_SPACE
  0
BLOCK_RECORD
  5
1B
100
AcDbSymbolTableRecord
100
AcDbBlockTableRecord
  2
*PAPER_SPACE
  0
BLOCK_RECORD
  5
207
100
AcDbSymbolTableRecord
100
AcDbBlockTableRecord
  2
TE_CONNECTIVITY_BL0
  0
ENDTAB
  0
TABLE
  2
DIMSTYLE
  5
A
100
AcDbSymbolTable
 70
1
  0
DIMSTYLE
105
208
100
AcDbSymbolTableRecord
100
AcDbDimStyleTableRecord
  2
STANDARD
 70
0
  3

  4

  5
_CLOSED
  6
_CLOSED
  7
_CLOSED
 40
1.0
 41
4.5
 42
1.5
 43
0.38
 44
3.0
 45
0.0
 46
0.0
 47
0.01
 48
0.01
140
3.0
141
0.09
142
0.0
143
25.4
144
1.0
145
0.0
146
1.0
147
0.625
 71
1.0
 72
0.0
 73
1
 74
1
 75
0
 76
0
 77
0
 78
8
170
0
171
2
172
0
173
0
174
0
175
0
176
0
177
0
178
0
270
2
271
2
272
2
273
2
274
2
275
0
280
0
281
0
282
0
283
1
284
8
285
0
286
0
287
3
288
0
340
11
  0
ENDTAB
  0
ENDSEC
  0
SECTION
  2
BLOCKS
  0
BLOCK
  5
20
100
AcDbEntity
  8
0
100
AcDbBlockBegin
  2
*MODEL_SPACE
 70
0
 10
0.0
 20
0.0
 30
0.0
  3
*MODEL_SPACE
  1

  0
ENDBLK
  5
21
100
AcDbEntity
  8
0
100
AcDbBlockEnd
  0
BLOCK
  5
1C
100
AcDbEntity
  8
0
100
AcDbBlockBegin
  2
*PAPER_SPACE
 70
0
 10
0.0
 20
0.0
 30
0.0
  3
*PAPER_SPACE
  1

  0
ENDBLK
  5
1D
100
AcDbEntity
  8
0
100
AcDbBlockEnd
  0
BLOCK
  5
209
100
AcDbEntity
  8
0
100
AcDbBlockBegin
 62
2
  6
CONTINUOUS
  2
TE_CONNECTIVITY_BL0
 70
64
 10
315.0
 20
36.0
  3
TE_CONNECTIVITY_BL0
  1

  0
LINE
  5
20A
100
AcDbEntity
  8
0
100
AcDbLine
 62
2
  6
CONTINUOUS
 10
303.4442621268
 20
31.975
 11
311.2931594095
 21
31.975
  0
LINE
  5
20B
100
AcDbEntity
  8
0
100
AcDbLine
 62
2
  6
CONTINUOUS
 10
316.3319775183
 20
31.975
 11
318.4139164045
 21
31.975
  0
LINE
  5
20C
100
AcDbEntity
  8
0
100
AcDbLine
 62
2
  6
CONTINUOUS
 10
321.4865647769
 20
31.975
 11
327.8504615515
 21
31.975
  0
LINE
  5
20D
100
AcDbEntity
  8
0
100
AcDbLine
 62
2
  6
CONTINUOUS
 10
328.3338139487
 20
33.7788957044
 11
324.0176749741
 21
33.7788957044
  0
LINE
  5
20E
100
AcDbEntity
  8
0
100
AcDbLine
 62
2
  6
CONTINUOUS
 10
311.2931594095
 20
34.2561326711
 11
303.4442621268
 21
34.2561326711
  0
LINE
  5
20F
100
AcDbEntity
  8
0
100
AcDbLine
 62
2
  6
CONTINUOUS
 10
301.1331145522
 20
34.8594322328
 11
308.9820118349
 21
34.8594322328
  0
LINE
  5
210
100
AcDbEntity
  8
0
100
AcDbLine
 62
2
  6
CONTINUOUS
 10
316.0776474878
 20
40.0249971366
 11
315.5942950906
 21
38.2211014322
  0
LINE
  5
211
100
AcDbEntity
  8
0
100
AcDbLine
 62
2
  6
CONTINUOUS
 10
324.4045177413
 20
35.2226125659
 11
328.2576583666
 21
35.2226125659
  0
LINE
  5
212
100
AcDbEntity
  8
0
100
AcDbLine
 62
2
  6
CONTINUOUS
 10
328.6887347141
 20
36.8314113971
 11
324.8355940889
 21
36.8314113971
  0
LINE
  5
213
100
AcDbEntity
  8
0
100
AcDbLine
 62
2
  6
CONTINUOUS
 10
308.9820118349
 20
37.1405649038
 11
301.1331145522
 21
37.1405649038
  0
LINE
  5
214
100
AcDbEntity
  8
0
100
AcDbLine
 62
2
  6
CONTINUOUS
 10
304.9810251894
 20
37.7438644655
 11
312.8299224721
 21
37.7438644655
  0
LINE
  5
215
100
AcDbEntity
  8
0
100
AcDbLine
 62
2
  6
CONTINUOUS
 10
318.0056153529
 20
38.2211014322
 11
316.3319775183
 21
31.975
  0
LINE
  5
216
100
AcDbEntity
  8
0
100
AcDbLine
 62
2
  6
CONTINUOUS
 10
315.5942950906
 20
38.2211014322
 11
318.0056153529
 21
38.2211014322
  0
LINE
  5
217
100
AcDbEntity
  8
0
100
AcDbLine
 62
2
  6
CONTINUOUS
 10
320.0875542391
 20
38.2211014322
 11
322.4988745014
 21
38.2211014322
  0
LINE
  5
218
100
AcDbEntity
  8
0
100
AcDbLine
 62
2
  6
CONTINUOUS
 10
325.2079604115
 20
38.2211014322
 11
329.5240993861
 21
38.2211014322
  0
LINE
  5
219
100
AcDbEntity
  8
0
100
AcDbLine
 62
2
  6
CONTINUOUS
 10
330.0074517833
 20
40.0249971366
 11
323.6435550087
 21
40.0249971366
  0
LINE
  5
21A
100
AcDbEntity
  8
0
100
AcDbLine
 62
2
  6
CONTINUOUS
 10
322.9822268986
 20
40.0249971366
 11
316.0776474878
 21
40.0249971366
  0
LINE
  5
21B
100
AcDbEntity
  8
0
100
AcDbLine
 62
2
  6
CONTINUOUS
 10
312.8299224721
 20
40.0249971366
 11
304.9810251894
 21
40.0249971366
  0
LINE
  5
21C
100
AcDbEntity
  8
0
100
AcDbLine
 62
2
  6
CONTINUOUS
 10
318.4139164045
 20
31.975
 11
320.0875542391
 21
38.2211014322
  0
LINE
  5
21D
100
AcDbEntity
  8
0
100
AcDbLine
 62
2
  6
CONTINUOUS
 10
322.4988745014
 20
38.2211014322
 11
322.9822268986
 21
40.0249971366
  0
LINE
  5
21E
100
AcDbEntity
  8
0
100
AcDbLine
 62
2
  6
CONTINUOUS
 10
323.6435550087
 20
40.0249971366
 11
321.4865647769
 21
31.975
  0
LINE
  5
21F
100
AcDbEntity
  8
0
100
AcDbLine
 62
2
  6
CONTINUOUS
 10
324.0176749741
 20
33.7788957044
 11
324.4045177413
 21
35.2226125659
  0
LINE
  5
220
100
AcDbEntity
  8
0
100
AcDbLine
 62
2
  6
CONTINUOUS
 10
324.8355940889
 20
36.8314113971
 11
325.2079604115
 21
38.2211014322
  0
LINE
  5
221
100
AcDbEntity
  8
0
100
AcDbLine
 62
2
  6
CONTINUOUS
 10
328.2576583666
 20
35.2226125659
 11
328.6887347141
 21
36.8314113971
  0
LINE
  5
222
100
AcDbEntity
  8
0
100
AcDbLine
 62
2
  6
CONTINUOUS
 10
327.8504615515
 20
31.975
 11
328.3338139487
 21
33.7788957044
  0
LINE
  5
223
100
AcDbEntity
  8
0
100
AcDbLine
 62
2
  6
CONTINUOUS
 10
329.5240993861
 20
38.2211014322
 11
330.0074517833
 21
40.0249971366
  0
ARC
  5
224
100
AcDbEntity
  8
0
100
AcDbCircle
 62
2
  6
CONTINUOUS
 10
304.9810251894
 20
38.884430801
 40
1.1405663355
100
AcDbArc
 50
90.0
 51
270.0
  0
ARC
  5
225
100
AcDbEntity
  8
0
100
AcDbCircle
 62
2
  6
CONTINUOUS
 10
312.8299224721
 20
38.884430801
 40
1.1405663355
100
AcDbArc
 50
270.0
 51
90.0
  0
ARC
  5
226
100
AcDbEntity
  8
0
100
AcDbCircle
 62
2
  6
CONTINUOUS
 10
311.2931594095
 20
33.1155663355
 40
1.1405663355
100
AcDbArc
 50
270.0
 51
90.0
  0
ARC
  5
227
100
AcDbEntity
  8
0
100
AcDbCircle
 62
2
  6
CONTINUOUS
 10
303.4442621268
 20
33.1155663355
 40
1.1405663355
100
AcDbArc
 50
90.0
 51
270.0
  0
ARC
  5
228
100
AcDbEntity
  8
0
100
AcDbCircle
 62
2
  6
CONTINUOUS
 10
308.9820118349
 20
35.9999985683
 40
1.1405663355
100
AcDbArc
 50
270.0
 51
90.0
  0
ARC
  5
229
100
AcDbEntity
  8
0
100
AcDbCircle
 62
2
  6
CONTINUOUS
 10
301.1331145522
 20
35.9999985683
 40
1.1405663355
100
AcDbArc
 50
90.0
 51
270.0
  0
LWPOLYLINE
  5
22A
100
AcDbEntity
  8
0
100
AcDbPolyline
 62
2
  6
CONTINUOUS
 90
50
 70
0
 10
304.8321514087
 20
40.0152434035
 10
304.9810251894
 20
40.025
 10
312.8299224721
 20
40.025
 10
312.9787962529
 20
40.0152434035
 10
313.125122762
 20
39.9861346138
 10
313.2663983123
 20
39.9381727309
 10
313.4002056399
 20
39.8721869044
 10
313.5242552644
 20
39.7893041338
 10
313.6364246624
 20
39.6909331688
 10
313.7347945842
 20
39.5787645087
 10
313.8176818934
 20
39.4547140529
 10
313.883668365
 20
39.3209070004
 10
313.9316249522
 20
39.1796295507
 10
313.9607311046
 20
39.0333047528
 10
313.9704888077
 20
38.8844281057
 10
313.9607311046
 20
38.7355595087
 10
313.9316249522
 20
38.5892266607
 10
313.883668365
 20
38.447957261
 10
313.8176818934
 20
38.3141502086
 10
313.7347945842
 20
38.1900997527
 10
313.6364246624
 20
38.0779310926
 10
313.5242552644
 20
37.9795601276
 10
313.4002056399
 20
37.8966693071
 10
313.2663983123
 20
37.8306834805
 10
313.125122762
 20
37.7827296476
 10
312.9787962529
 20
37.7536208579
 10
304.9810251894
 20
37.7438642614
 10
304.8321514087
 20
37.7536208579
 10
304.6858248996
 20
37.7827296476
 10
304.5445493493
 20
37.8306834805
 10
304.4107420217
 20
37.8966693071
 10
304.2866923972
 20
37.9795601276
 10
304.1745229992
 20
38.0779310926
 10
304.0761530773
 20
38.1900997527
 10
303.9932657682
 20
38.3141502086
 10
303.9272792966
 20
38.447957261
 10
303.8793227094
 20
38.5892266607
 10
303.850216557
 20
38.7355595087
 10
303.8404588539
 20
38.8844281057
 10
303.850216557
 20
39.0333047528
 10
303.8793227094
 20
39.1796295507
 10
303.9272792966
 20
39.3209070004
 10
303.9932657682
 20
39.4547140529
 10
304.0761530773
 20
39.5787645087
 10
304.1745229992
 20
39.6909331688
 10
304.2866923972
 20
39.7893041338
 10
304.4107420217
 20
39.8721869044
 10
304.5445493493
 20
39.9381727309
 10
304.6858248996
 20
39.9861346138
 10
304.8321514087
 20
40.0152434035
  0
HATCH
  5
22B
100
AcDbEntity
  8
0
100
AcDbHatch
 62
2
  6
CONTINUOUS
 10
0.0
 20
0.0
 30
0.0
210
0.0
220
0.0
230
1.0
  2
SOLID
 70
1
 71
1
 91
1
 92
1
 93
49
 72
1
 10
304.8321514087
 20
40.0152434035
 11
304.9810251894
 21
40.025
 72
1
 10
304.9810251894
 20
40.025
 11
312.8299224721
 21
40.025
 72
1
 10
312.8299224721
 20
40.025
 11
312.9787962529
 21
40.0152434035
 72
1
 10
312.9787962529
 20
40.0152434035
 11
313.125122762
 21
39.9861346138
 72
1
 10
313.125122762
 20
39.9861346138
 11
313.2663983123
 21
39.9381727309
 72
1
 10
313.2663983123
 20
39.9381727309
 11
313.4002056399
 21
39.8721869044
 72
1
 10
313.4002056399
 20
39.8721869044
 11
313.5242552644
 21
39.7893041338
 72
1
 10
313.5242552644
 20
39.7893041338
 11
313.6364246624
 21
39.6909331688
 72
1
 10
313.6364246624
 20
39.6909331688
 11
313.7347945842
 21
39.5787645087
 72
1
 10
313.7347945842
 20
39.5787645087
 11
313.8176818934
 21
39.4547140529
 72
1
 10
313.8176818934
 20
39.4547140529
 11
313.883668365
 21
39.3209070004
 72
1
 10
313.883668365
 20
39.3209070004
 11
313.9316249522
 21
39.1796295507
 72
1
 10
313.9316249522
 20
39.1796295507
 11
313.9607311046
 21
39.0333047528
 72
1
 10
313.9607311046
 20
39.0333047528
 11
313.9704888077
 21
38.8844281057
 72
1
 10
313.9704888077
 20
38.8844281057
 11
313.9607311046
 21
38.7355595087
 72
1
 10
313.9607311046
 20
38.7355595087
 11
313.9316249522
 21
38.5892266607
 72
1
 10
313.9316249522
 20
38.5892266607
 11
313.883668365
 21
38.447957261
 72
1
 10
313.883668365
 20
38.447957261
 11
313.8176818934
 21
38.3141502086
 72
1
 10
313.8176818934
 20
38.3141502086
 11
313.7347945842
 21
38.1900997527
 72
1
 10
313.7347945842
 20
38.1900997527
 11
313.6364246624
 21
38.0779310926
 72
1
 10
313.6364246624
 20
38.0779310926
 11
313.5242552644
 21
37.9795601276
 72
1
 10
313.5242552644
 20
37.9795601276
 11
313.4002056399
 21
37.8966693071
 72
1
 10
313.4002056399
 20
37.8966693071
 11
313.2663983123
 21
37.8306834805
 72
1
 10
313.2663983123
 20
37.8306834805
 11
313.125122762
 21
37.7827296476
 72
1
 10
313.125122762
 20
37.7827296476
 11
312.9787962529
 21
37.7536208579
 72
1
 10
312.9787962529
 20
37.7536208579
 11
304.9810251894
 21
37.7438642614
 72
1
 10
304.9810251894
 20
37.7438642614
 11
304.8321514087
 21
37.7536208579
 72
1
 10
304.8321514087
 20
37.7536208579
 11
304.6858248996
 21
37.7827296476
 72
1
 10
304.6858248996
 20
37.7827296476
 11
304.5445493493
 21
37.8306834805
 72
1
 10
304.5445493493
 20
37.8306834805
 11
304.4107420217
 21
37.8966693071
 72
1
 10
304.4107420217
 20
37.8966693071
 11
304.2866923972
 21
37.9795601276
 72
1
 10
304.2866923972
 20
37.9795601276
 11
304.1745229992
 21
38.0779310926
 72
1
 10
304.1745229992
 20
38.0779310926
 11
304.0761530773
 21
38.1900997527
 72
1
 10
304.0761530773
 20
38.1900997527
 11
303.9932657682
 21
38.3141502086
 72
1
 10
303.9932657682
 20
38.3141502086
 11
303.9272792966
 21
38.447957261
 72
1
 10
303.9272792966
 20
38.447957261
 11
303.8793227094
 21
38.5892266607
 72
1
 10
303.8793227094
 20
38.5892266607
 11
303.850216557
 21
38.7355595087
 72
1
 10
303.850216557
 20
38.7355595087
 11
303.8404588539
 21
38.8844281057
 72
1
 10
303.8404588539
 20
38.8844281057
 11
303.850216557
 21
39.0333047528
 72
1
 10
303.850216557
 20
39.0333047528
 11
303.8793227094
 21
39.1796295507
 72
1
 10
303.8793227094
 20
39.1796295507
 11
303.9272792966
 21
39.3209070004
 72
1
 10
303.9272792966
 20
39.3209070004
 11
303.9932657682
 21
39.4547140529
 72
1
 10
303.9932657682
 20
39.4547140529
 11
304.0761530773
 21
39.5787645087
 72
1
 10
304.0761530773
 20
39.5787645087
 11
304.1745229992
 21
39.6909331688
 72
1
 10
304.1745229992
 20
39.6909331688
 11
304.2866923972
 21
39.7893041338
 72
1
 10
304.2866923972
 20
39.7893041338
 11
304.4107420217
 21
39.8721869044
 72
1
 10
304.4107420217
 20
39.8721869044
 11
304.5445493493
 21
39.9381727309
 72
1
 10
304.5445493493
 20
39.9381727309
 11
304.6858248996
 21
39.9861346138
 72
1
 10
304.6858248996
 20
39.9861346138
 11
304.8321514087
 21
40.0152434035
 97
1
330
22A
 75
0
 76
1
 98
1
 10
0.0
 20
0.0
  0
LWPOLYLINE
  5
22C
100
AcDbEntity
  8
0
100
AcDbPolyline
 62
2
  6
CONTINUOUS
 90
9
 70
0
 10
315.5942950906
 20
38.2211002917
 10
316.0776474878
 20
40.025
 10
322.9822268986
 20
40.025
 10
322.4988745014
 20
38.2211002917
 10
320.0875542391
 20
38.2211002917
 10
318.4139164045
 20
31.9750028634
 10
316.3319775183
 20
31.9750028634
 10
318.0056153529
 20
38.2211002917
 10
315.5942950906
 20
38.2211002917
  0
HATCH
  5
22D
100
AcDbEntity
  8
0
100
AcDbHatch
 62
2
  6
CONTINUOUS
 10
0.0
 20
0.0
 30
0.0
210
0.0
220
0.0
230
1.0
  2
SOLID
 70
1
 71
1
 91
1
 92
1
 93
8
 72
1
 10
315.5942950906
 20
38.2211002917
 11
316.0776474878
 21
40.025
 72
1
 10
316.0776474878
 20
40.025
 11
322.9822268986
 21
40.025
 72
1
 10
322.9822268986
 20
40.025
 11
322.4988745014
 21
38.2211002917
 72
1
 10
322.4988745014
 20
38.2211002917
 11
320.0875542391
 21
38.2211002917
 72
1
 10
320.0875542391
 20
38.2211002917
 11
318.4139164045
 21
31.9750028634
 72
1
 10
318.4139164045
 20
31.9750028634
 11
316.3319775183
 21
31.9750028634
 72
1
 10
316.3319775183
 20
31.9750028634
 11
318.0056153529
 21
38.2211002917
 72
1
 10
318.0056153529
 20
38.2211002917
 11
315.5942950906
 21
38.2211002917
 97
1
330
22C
 75
0
 76
1
 98
1
 10
0.0
 20
0.0
  0
LWPOLYLINE
  5
22E
100
AcDbEntity
  8
0
100
AcDbPolyline
 62
2
  6
CONTINUOUS
 90
6
 70
0
 10
330.0074517833
 20
40.025
 10
329.5240993861
 20
38.2211002917
 10
325.2079604115
 20
38.2211002917
 10
321.4865647769
 20
31.9750028634
 10
323.6435550087
 20
40.025
 10
330.0074517833
 20
40.025
  0
HATCH
  5
22F
100
AcDbEntity
  8
0
100
AcDbHatch
 62
2
  6
CONTINUOUS
 10
0.0
 20
0.0
 30
0.0
210
0.0
220
0.0
230
1.0
  2
SOLID
 70
1
 71
1
 91
1
 92
1
 93
5
 72
1
 10
330.0074517833
 20
40.025
 11
329.5240993861
 21
38.2211002917
 72
1
 10
329.5240993861
 20
38.2211002917
 11
325.2079604115
 21
38.2211002917
 72
1
 10
325.2079604115
 20
38.2211002917
 11
321.4865647769
 21
31.9750028634
 72
1
 10
321.4865647769
 20
31.9750028634
 11
323.6435550087
 21
40.025
 72
1
 10
323.6435550087
 20
40.025
 11
330.0074517833
 21
40.025
 97
1
330
22E
 75
0
 76
1
 98
1
 10
0.0
 20
0.0
  0
SOLID
  5
230
100
AcDbEntity
  8
0
100
AcDbTrace
 62
2
  6
CONTINUOUS
 10
312.9787962529
 20
37.7536208579
 11
312.8299224721
 21
37.7438642614
 12
304.9810251894
 22
37.7438642614
 13
304.9810251894
 23
37.7438642614
  0
LWPOLYLINE
  5
231
100
AcDbEntity
  8
0
100
AcDbPolyline
 62
2
  6
CONTINUOUS
 90
50
 70
0
 10
300.9842407715
 20
37.1308086795
 10
301.1331145522
 20
37.140565276
 10
308.9820118349
 20
37.140565276
 10
309.1308856156
 20
37.1308086795
 10
309.2772121247
 20
37.1016998898
 10
309.418487675
 20
37.0537460569
 10
309.5522950027
 20
36.9877602304
 10
309.6763446272
 20
36.9048694098
 10
309.7885140251
 20
36.8064984448
 10
309.886883947
 20
36.6943297847
 10
309.9697712562
 20
36.5702793289
 10
310.0357577278
 20
36.4364722765
 10
310.083714315
 20
36.2952028767
 10
310.1128204673
 20
36.1488700288
 10
310.1225781704
 20
36.0000014317
 10
310.1128204673
 20
35.8511247847
 10
310.083714315
 20
35.7047999867
 10
310.0357577278
 20
35.563522537
 10
309.9697712562
 20
35.4297154846
 10
309.886883947
 20
35.3056650287
 10
309.7885140251
 20
35.1934963686
 10
309.6763446272
 20
35.0951254036
 10
309.5522950027
 20
35.0122426331
 10
309.418487675
 20
34.9462487565
 10
309.2772121247
 20
34.8982949236
 10
309.1308856156
 20
34.8691861339
 10
301.1331145522
 20
34.8594295374
 10
300.9842407715
 20
34.8691861339
 10
300.8379142624
 20
34.8982949236
 10
300.6966387121
 20
34.9462487565
 10
300.5628313844
 20
35.0122426331
 10
300.4387817599
 20
35.0951254036
 10
300.326612362
 20
35.1934963686
 10
300.2282424401
 20
35.3056650287
 10
300.1453551309
 20
35.4297154846
 10
300.0793686593
 20
35.563522537
 10
300.0314120721
 20
35.7047999867
 10
300.0023059198
 20
35.8511247847
 10
299.9925482167
 20
36.0000014317
 10
300.0023059198
 20
36.1488700288
 10
300.0314120721
 20
36.2952028767
 10
300.0793686593
 20
36.4364722765
 10
300.1453551309
 20
36.5702793289
 10
300.2282424401
 20
36.6943297847
 10
300.326612362
 20
36.8064984448
 10
300.4387817599
 20
36.9048694098
 10
300.5628313844
 20
36.9877602304
 10
300.6966387121
 20
37.0537460569
 10
300.8379142624
 20
37.1016998898
 10
300.9842407715
 20
37.1308086795
  0
HATCH
  5
232
100
AcDbEntity
  8
0
100
AcDbHatch
 62
2
  6
CONTINUOUS
 10
0.0
 20
0.0
 30
0.0
210
0.0
220
0.0
230
1.0
  2
SOLID
 70
1
 71
1
 91
1
 92
1
 93
49
 72
1
 10
300.9842407715
 20
37.1308086795
 11
301.1331145522
 21
37.140565276
 72
1
 10
301.1331145522
 20
37.140565276
 11
308.9820118349
 21
37.140565276
 72
1
 10
308.9820118349
 20
37.140565276
 11
309.1308856156
 21
37.1308086795
 72
1
 10
309.1308856156
 20
37.1308086795
 11
309.2772121247
 21
37.1016998898
 72
1
 10
309.2772121247
 20
37.1016998898
 11
309.418487675
 21
37.0537460569
 72
1
 10
309.418487675
 20
37.0537460569
 11
309.5522950027
 21
36.9877602304
 72
1
 10
309.5522950027
 20
36.9877602304
 11
309.6763446272
 21
36.9048694098
 72
1
 10
309.6763446272
 20
36.9048694098
 11
309.7885140251
 21
36.8064984448
 72
1
 10
309.7885140251
 20
36.8064984448
 11
309.886883947
 21
36.6943297847
 72
1
 10
309.886883947
 20
36.6943297847
 11
309.9697712562
 21
36.5702793289
 72
1
 10
309.9697712562
 20
36.5702793289
 11
310.0357577278
 21
36.4364722765
 72
1
 10
310.0357577278
 20
36.4364722765
 11
310.083714315
 21
36.2952028767
 72
1
 10
310.083714315
 20
36.2952028767
 11
310.1128204673
 21
36.1488700288
 72
1
 10
310.1128204673
 20
36.1488700288
 11
310.1225781704
 21
36.0000014317
 72
1
 10
310.1225781704
 20
36.0000014317
 11
310.1128204673
 21
35.8511247847
 72
1
 10
310.1128204673
 20
35.8511247847
 11
310.083714315
 21
35.7047999867
 72
1
 10
310.083714315
 20
35.7047999867
 11
310.0357577278
 21
35.563522537
 72
1
 10
310.0357577278
 20
35.563522537
 11
309.9697712562
 21
35.4297154846
 72
1
 10
309.9697712562
 20
35.4297154846
 11
309.886883947
 21
35.3056650287
 72
1
 10
309.886883947
 20
35.3056650287
 11
309.7885140251
 21
35.1934963686
 72
1
 10
309.7885140251
 20
35.1934963686
 11
309.6763446272
 21
35.0951254036
 72
1
 10
309.6763446272
 20
35.0951254036
 11
309.5522950027
 21
35.0122426331
 72
1
 10
309.5522950027
 20
35.0122426331
 11
309.418487675
 21
34.9462487565
 72
1
 10
309.418487675
 20
34.9462487565
 11
309.2772121247
 21
34.8982949236
 72
1
 10
309.2772121247
 20
34.8982949236
 11
309.1308856156
 21
34.8691861339
 72
1
 10
309.1308856156
 20
34.8691861339
 11
301.1331145522
 21
34.8594295374
 72
1
 10
301.1331145522
 20
34.8594295374
 11
300.9842407715
 21
34.8691861339
 72
1
 10
300.9842407715
 20
34.8691861339
 11
300.8379142624
 21
34.8982949236
 72
1
 10
300.8379142624
 20
34.8982949236
 11
300.6966387121
 21
34.9462487565
 72
1
 10
300.6966387121
 20
34.9462487565
 11
300.5628313844
 21
35.0122426331
 72
1
 10
300.5628313844
 20
35.0122426331
 11
300.4387817599
 21
35.0951254036
 72
1
 10
300.4387817599
 20
35.0951254036
 11
300.326612362
 21
35.1934963686
 72
1
 10
300.326612362
 20
35.1934963686
 11
300.2282424401
 21
35.3056650287
 72
1
 10
300.2282424401
 20
35.3056650287
 11
300.1453551309
 21
35.4297154846
 72
1
 10
300.1453551309
 20
35.4297154846
 11
300.0793686593
 21
35.563522537
 72
1
 10
300.0793686593
 20
35.563522537
 11
300.0314120721
 21
35.7047999867
 72
1
 10
300.0314120721
 20
35.7047999867
 11
300.0023059198
 21
35.8511247847
 72
1
 10
300.0023059198
 20
35.8511247847
 11
299.9925482167
 21
36.0000014317
 72
1
 10
299.9925482167
 20
36.0000014317
 11
300.0023059198
 21
36.1488700288
 72
1
 10
300.0023059198
 20
36.1488700288
 11
300.0314120721
 21
36.2952028767
 72
1
 10
300.0314120721
 20
36.2952028767
 11
300.0793686593
 21
36.4364722765
 72
1
 10
300.0793686593
 20
36.4364722765
 11
300.1453551309
 21
36.5702793289
 72
1
 10
300.1453551309
 20
36.5702793289
 11
300.2282424401
 21
36.6943297847
 72
1
 10
300.2282424401
 20
36.6943297847
 11
300.326612362
 21
36.8064984448
 72
1
 10
300.326612362
 20
36.8064984448
 11
300.4387817599
 21
36.9048694098
 72
1
 10
300.4387817599
 20
36.9048694098
 11
300.5628313844
 21
36.9877602304
 72
1
 10
300.5628313844
 20
36.9877602304
 11
300.6966387121
 21
37.0537460569
 72
1
 10
300.6966387121
 20
37.0537460569
 11
300.8379142624
 21
37.1016998898
 72
1
 10
300.8379142624
 20
37.1016998898
 11
300.9842407715
 21
37.1308086795
 97
1
330
231
 75
0
 76
1
 98
1
 10
0.0
 20
0.0
  0
LWPOLYLINE
  5
233
100
AcDbEntity
  8
0
100
AcDbPolyline
 62
2
  6
CONTINUOUS
 90
7
 70
0
 10
328.6887347141
 20
36.831413186
 10
328.2576583666
 20
35.2226132082
 10
324.4045177413
 20
35.2226132082
 10
321.4865647769
 20
31.9750028634
 10
325.2079604115
 20
38.2211002917
 10
324.8355940889
 20
36.831413186
 10
328.6887347141
 20
36.831413186
  0
HATCH
  5
234
100
AcDbEntity
  8
0
100
AcDbHatch
 62
2
  6
CONTINUOUS
 10
0.0
 20
0.0
 30
0.0
210
0.0
220
0.0
230
1.0
  2
SOLID
 70
1
 71
1
 91
1
 92
1
 93
6
 72
1
 10
328.6887347141
 20
36.831413186
 11
328.2576583666
 21
35.2226132082
 72
1
 10
328.2576583666
 20
35.2226132082
 11
324.4045177413
 21
35.2226132082
 72
1
 10
324.4045177413
 20
35.2226132082
 11
321.4865647769
 21
31.9750028634
 72
1
 10
321.4865647769
 20
31.9750028634
 11
325.2079604115
 21
38.2211002917
 72
1
 10
325.2079604115
 20
38.2211002917
 11
324.8355940889
 21
36.831413186
 72
1
 10
324.8355940889
 20
36.831413186
 11
328.6887347141
 21
36.831413186
 97
1
330
233
 75
0
 76
1
 98
1
 10
0.0
 20
0.0
  0
SOLID
  5
235
100
AcDbEntity
  8
0
100
AcDbTrace
 62
2
  6
CONTINUOUS
 10
309.1308856156
 20
34.8691861339
 11
308.9820118349
 21
34.8594295374
 12
301.1331145522
 22
34.8594295374
 13
301.1331145522
 23
34.8594295374
  0
LWPOLYLINE
  5
236
100
AcDbEntity
  8
0
100
AcDbPolyline
 62
2
  6
CONTINUOUS
 90
50
 70
0
 10
303.2953883461
 20
34.2463739555
 10
303.4442621268
 20
34.256130552
 10
311.2931594095
 20
34.256130552
 10
311.4420331903
 20
34.2463739555
 10
311.5883596994
 20
34.2172651658
 10
311.7296352496
 20
34.1693113329
 10
311.8634425773
 20
34.1033255064
 10
311.9874922018
 20
34.0204346859
 10
312.0996615998
 20
33.9220717708
 10
312.1980315216
 20
33.8099031107
 10
312.2809188308
 20
33.6858526549
 10
312.3469053024
 20
33.5520456025
 10
312.3948618896
 20
33.4107681527
 10
312.4239680419
 20
33.2644433548
 10
312.4337257451
 20
33.1155667077
 10
312.4239680419
 20
32.9666900607
 10
312.3948618896
 20
32.8203652627
 10
312.3469053024
 20
32.679087813
 10
312.2809188308
 20
32.5452807606
 10
312.1980315216
 20
32.4212303047
 10
312.0996615998
 20
32.3090616446
 10
311.9874922018
 20
32.2106906796
 10
311.8634425773
 20
32.1278079091
 10
311.7296352496
 20
32.0618220825
 10
311.5883596994
 20
32.0138601996
 10
311.4420331903
 20
31.98475946
 10
303.4442621268
 20
31.9750028634
 10
303.2953883461
 20
31.98475946
 10
303.149061837
 20
32.0138601996
 10
303.0077862867
 20
32.0618220825
 10
302.8739789591
 20
32.1278079091
 10
302.7499293345
 20
32.2106906796
 10
302.6377599366
 20
32.3090616446
 10
302.5393900147
 20
32.4212303047
 10
302.4565027056
 20
32.5452807606
 10
302.390516234
 20
32.679087813
 10
302.3425596467
 20
32.8203652627
 10
302.3134534944
 20
32.9666900607
 10
302.3036957913
 20
33.1155667077
 10
302.3134534944
 20
33.2644433548
 10
302.3425596467
 20
33.4107681527
 10
302.390516234
 20
33.5520456025
 10
302.4565027056
 20
33.6858526549
 10
302.5393900147
 20
33.8099031107
 10
302.6377599366
 20
33.9220717708
 10
302.7499293345
 20
34.0204346859
 10
302.8739789591
 20
34.1033255064
 10
303.0077862867
 20
34.1693113329
 10
303.149061837
 20
34.2172651658
 10
303.2953883461
 20
34.2463739555
  0
HATCH
  5
237
100
AcDbEntity
  8
0
100
AcDbHatch
 62
2
  6
CONTINUOUS
 10
0.0
 20
0.0
 30
0.0
210
0.0
220
0.0
230
1.0
  2
SOLID
 70
1
 71
1
 91
1
 92
1
 93
49
 72
1
 10
303.2953883461
 20
34.2463739555
 11
303.4442621268
 21
34.256130552
 72
1
 10
303.4442621268
 20
34.256130552
 11
311.2931594095
 21
34.256130552
 72
1
 10
311.2931594095
 20
34.256130552
 11
311.4420331903
 21
34.2463739555
 72
1
 10
311.4420331903
 20
34.2463739555
 11
311.5883596994
 21
34.2172651658
 72
1
 10
311.5883596994
 20
34.2172651658
 11
311.7296352496
 21
34.1693113329
 72
1
 10
311.7296352496
 20
34.1693113329
 11
311.8634425773
 21
34.1033255064
 72
1
 10
311.8634425773
 20
34.1033255064
 11
311.9874922018
 21
34.0204346859
 72
1
 10
311.9874922018
 20
34.0204346859
 11
312.0996615998
 21
33.9220717708
 72
1
 10
312.0996615998
 20
33.9220717708
 11
312.1980315216
 21
33.8099031107
 72
1
 10
312.1980315216
 20
33.8099031107
 11
312.2809188308
 21
33.6858526549
 72
1
 10
312.2809188308
 20
33.6858526549
 11
312.3469053024
 21
33.5520456025
 72
1
 10
312.3469053024
 20
33.5520456025
 11
312.3948618896
 21
33.4107681527
 72
1
 10
312.3948618896
 20
33.4107681527
 11
312.4239680419
 21
33.2644433548
 72
1
 10
312.4239680419
 20
33.2644433548
 11
312.4337257451
 21
33.1155667077
 72
1
 10
312.4337257451
 20
33.1155667077
 11
312.4239680419
 21
32.9666900607
 72
1
 10
312.4239680419
 20
32.9666900607
 11
312.3948618896
 21
32.8203652627
 72
1
 10
312.3948618896
 20
32.8203652627
 11
312.3469053024
 21
32.679087813
 72
1
 10
312.3469053024
 20
32.679087813
 11
312.2809188308
 21
32.5452807606
 72
1
 10
312.2809188308
 20
32.5452807606
 11
312.1980315216
 21
32.4212303047
 72
1
 10
312.1980315216
 20
32.4212303047
 11
312.0996615998
 21
32.3090616446
 72
1
 10
312.0996615998
 20
32.3090616446
 11
311.9874922018
 21
32.2106906796
 72
1
 10
311.9874922018
 20
32.2106906796
 11
311.8634425773
 21
32.1278079091
 72
1
 10
311.8634425773
 20
32.1278079091
 11
311.7296352496
 21
32.0618220825
 72
1
 10
311.7296352496
 20
32.0618220825
 11
311.5883596994
 21
32.0138601996
 72
1
 10
311.5883596994
 20
32.0138601996
 11
311.4420331903
 21
31.98475946
 72
1
 10
311.4420331903
 20
31.98475946
 11
303.4442621268
 21
31.9750028634
 72
1
 10
303.4442621268
 20
31.9750028634
 11
303.2953883461
 21
31.98475946
 72
1
 10
303.2953883461
 20
31.98475946
 11
303.149061837
 21
32.0138601996
 72
1
 10
303.149061837
 20
32.0138601996
 11
303.0077862867
 21
32.0618220825
 72
1
 10
303.0077862867
 20
32.0618220825
 11
302.8739789591
 21
32.1278079091
 72
1
 10
302.8739789591
 20
32.1278079091
 11
302.7499293345
 21
32.2106906796
 72
1
 10
302.7499293345
 20
32.2106906796
 11
302.6377599366
 21
32.3090616446
 72
1
 10
302.6377599366
 20
32.3090616446
 11
302.5393900147
 21
32.4212303047
 72
1
 10
302.5393900147
 20
32.4212303047
 11
302.4565027056
 21
32.5452807606
 72
1
 10
302.4565027056
 20
32.5452807606
 11
302.390516234
 21
32.679087813
 72
1
 10
302.390516234
 20
32.679087813
 11
302.3425596467
 21
32.8203652627
 72
1
 10
302.3425596467
 20
32.8203652627
 11
302.3134534944
 21
32.9666900607
 72
1
 10
302.3134534944
 20
32.9666900607
 11
302.3036957913
 21
33.1155667077
 72
1
 10
302.3036957913
 20
33.1155667077
 11
302.3134534944
 21
33.2644433548
 72
1
 10
302.3134534944
 20
33.2644433548
 11
302.3425596467
 21
33.4107681527
 72
1
 10
302.3425596467
 20
33.4107681527
 11
302.390516234
 21
33.5520456025
 72
1
 10
302.390516234
 20
33.5520456025
 11
302.4565027056
 21
33.6858526549
 72
1
 10
302.4565027056
 20
33.6858526549
 11
302.5393900147
 21
33.8099031107
 72
1
 10
302.5393900147
 20
33.8099031107
 11
302.6377599366
 21
33.9220717708
 72
1
 10
302.6377599366
 20
33.9220717708
 11
302.7499293345
 21
34.0204346859
 72
1
 10
302.7499293345
 20
34.0204346859
 11
302.8739789591
 21
34.1033255064
 72
1
 10
302.8739789591
 20
34.1033255064
 11
303.0077862867
 21
34.1693113329
 72
1
 10
303.0077862867
 20
34.1693113329
 11
303.149061837
 21
34.2172651658
 72
1
 10
303.149061837
 20
34.2172651658
 11
303.2953883461
 21
34.2463739555
 97
1
330
236
 75
0
 76
1
 98
1
 10
0.0
 20
0.0
  0
SOLID
  5
238
100
AcDbEntity
  8
0
100
AcDbTrace
 62
2
  6
CONTINUOUS
 10
311.4420331903
 20
31.98475946
 11
311.2931594095
 21
31.9750028634
 12
303.4442621268
 22
31.9750028634
 13
303.4442621268
 23
31.9750028634
  0
LWPOLYLINE
  5
239
100
AcDbEntity
  8
0
100
AcDbPolyline
 62
2
  6
CONTINUOUS
 90
6
 70
0
 10
328.3338139487
 20
33.7788945218
 10
327.8504615515
 20
31.9750028634
 10
321.4865647769
 20
31.9750028634
 10
324.4045177413
 20
35.2226132082
 10
324.0176749741
 20
33.7788945218
 10
328.3338139487
 20
33.7788945218
  0
HATCH
  5
23A
100
AcDbEntity
  8
0
100
AcDbHatch
 62
2
  6
CONTINUOUS
 10
0.0
 20
0.0
 30
0.0
210
0.0
220
0.0
230
1.0
  2
SOLID
 70
1
 71
1
 91
1
 92
1
 93
5
 72
1
 10
328.3338139487
 20
33.7788945218
 11
327.8504615515
 21
31.9750028634
 72
1
 10
327.8504615515
 20
31.9750028634
 11
321.4865647769
 21
31.9750028634
 72
1
 10
321.4865647769
 20
31.9750028634
 11
324.4045177413
 21
35.2226132082
 72
1
 10
324.4045177413
 20
35.2226132082
 11
324.0176749741
 21
33.7788945218
 72
1
 10
324.0176749741
 20
33.7788945218
 11
328.3338139487
 21
33.7788945218
 97
1
330
239
 75
0
 76
1
 98
1
 10
0.0
 20
0.0
  0
ENDBLK
  5
23B
100
AcDbEntity
  8
0
  6
BYBLOCK
 62
0
100
AcDbBlockEnd
  0
ENDSEC
  0
SECTION
  2
ENTITIES
  0
TEXT
  5
23C
100
AcDbEntity
  8
0
100
AcDbText
 62
2
  6
CONTINUOUS
 10
273.9447944556
 20
16.2331743479
  7
STANDARD
 40
1.5200002147
  1
SIZE
 41
0.95
 72
0
100
AcDbText
  0
TEXT
  5
23D
100
AcDbEntity
  8
0
100
AcDbText
 62
2
  6
CONTINUOUS
 10
287.5144966041
 20
16.2331819773
  7
STANDARD
 40
1.5200002147
  1
DRAWING NO
 41
0.95
 72
0
100
AcDbText
  0
TEXT
  5
23E
100
AcDbEntity
  8
0
100
AcDbText
 62
2
  6
CONTINUOUS
 10
354.2964949762
 20
16.2330905319
  7
STANDARD
 40
1.52
  1
VERSION
 41
0.95
 72
0
100
AcDbText
  0
TEXT
  5
23F
100
AcDbEntity
  8
0
100
AcDbText
 62
2
  6
CONTINUOUS
 10
274.4447944556
 20
25.5657549143
  7
STANDARD
 40
1.5200002147
  1
NAME
 41
0.95
 72
0
100
AcDbText
  0
TEXT
  5
240
100
AcDbEntity
  8
0
100
AcDbText
 62
2
  6
CONTINUOUS
 10
276.2800492314
 20
10.3485471083
  7
STANDARD
 40
4.9999998868
  1
A3
 41
0.95
 72
0
100
AcDbText
  0
TEXT
  5
241
100
AcDbEntity
  8
0
100
AcDbText
 62
2
  6
CONTINUOUS
 10
297.3906714731
 20
21.1920805906
  7
TEXTSTYLE_2
 40
3.968
  1
CUSTOMER VIEW MODEL DRAWING
 41
0.8
 72
1
 11
340.2450714731
 21
21.1920805906
100
AcDbText
  0
TEXT
  5
242
100
AcDbEntity
  8
0
100
AcDbText
 62
2
  6
CONTINUOUS
 10
347.0299084682
 20
34.4224093775
  7
TEXTSTYLE_2
 40
2.5
  1
TE Connectivity
 41
0.8
 72
0
100
AcDbText
  0
TEXT
  5
243
100
AcDbEntity
  8
0
100
AcDbText
 62
2
  6
CONTINUOUS
 10
369.5635822821
 20
16.2739597356
  7
STANDARD
 40
1.52
  1
DATE
 41
0.95
 72
0
100
AcDbText
  0
TEXT
  5
244
100
AcDbEntity
  8
0
100
AcDbText
 62
2
  6
CONTINUOUS
 10
174.6476862981
 20
23.8368677885
  7
TEXTSTYLE_2
 40
2.286
  1
THIS IS NOT A CONTROLLED DRAWING.
 41
0.8
 72
0
100
AcDbText
  0
TEXT
  5
245
100
AcDbEntity
  8
0
100
AcDbText
 62
2
  6
CONTINUOUS
 10
174.6476862981
 20
20.4078677885
  7
TEXTSTYLE_2
 40
2.286
  1
THIS IS A REPRESENTATION OF THE CUSTOMER VIEW MODEL.
 41
0.8
 72
0
100
AcDbText
  0
TEXT
  5
246
100
AcDbEntity
  8
0
100
AcDbText
 62
2
  6
CONTINUOUS
 10
174.6476862981
 20
16.9788677885
  7
TEXTSTYLE_2
 40
2.286
  1
    THIS IS NOT THE DOCUMENT OF SALE.
 41
0.8
 72
0
100
AcDbText
  0
TEXT
  5
247
100
AcDbEntity
  8
0
100
AcDbText
 62
2
  6
CONTINUOUS
 10
174.6476862981
 20
13.5498677885
  7
TEXTSTYLE_2
 40
2.286
  1
SEE THE CUSTOMER DRAWING FOR DESIGN PURPOSES.
 41
0.8
 72
0
100
AcDbText
  0
TEXT
  5
248
100
AcDbEntity
  8
0
100
AcDbText
 62
2
  6
CONTINUOUS
 10
22.7512107444
 20
282.4829655254
  7
TEXTSTYLE_2
 40
2.5
  1
c
 41
0.8
 72
0
100
AcDbText
  0
INSERT
  5
249
100
AcDbEntity
  8
0
100
AcDbBlockReference
 62
2
  6
CONTINUOUS
  2
TE_CONNECTIVITY_BL0
 10
315.0
 20
36.0
  0
LINE
  5
24A
100
AcDbEntity
  8
0
100
AcDbLine
 62
2
  6
CONTINUOUS
 10
287.2090159416
 20
18.7593422635
 11
409.2090159416
 21
18.7593422635
  0
LINE
  5
24B
100
AcDbEntity
  8
0
100
AcDbLine
 62
2
  6
CONTINUOUS
 10
287.2090159416
 20
18.7593422635
 11
287.2090159416
 21
9.2342522635
  0
LINE
  5
24C
100
AcDbEntity
  8
0
100
AcDbLine
 62
2
  6
CONTINUOUS
 10
287.2090159416
 20
9.2342522635
 11
409.2090159416
 21
9.2342522635
  0
LINE
  5
24D
100
AcDbEntity
  8
0
100
AcDbLine
 62
2
  6
CONTINUOUS
 10
353.3340159416
 20
18.7593422635
 11
353.3340159416
 21
9.2342522635
  0
LINE
  5
24E
100
AcDbEntity
  8
0
100
AcDbLine
 62
2
  6
CONTINUOUS
 10
367.9590159416
 20
18.7593422635
 11
367.9590159416
 21
9.2342522635
  0
LINE
  5
24F
100
AcDbEntity
  8
0
100
AcDbLine
 62
2
  6
CONTINUOUS
 10
409.2090159416
 20
18.7593422635
 11
409.2090159416
 21
9.2342522635
  0
TEXT
  5
250
100
AcDbEntity
  8
0
100
AcDbText
 62
2
  6
CONTINUOUS
 10
307.5515159416
 20
12.4067972635
  7
TEXTSTYLE_2
 40
3.18
  1
C-170324-1
 41
0.8
 72
1
 11
320.2715159416
 21
12.4067972635
100
AcDbText
  0
TEXT
  5
251
100
AcDbEntity
  8
0
100
AcDbText
 62
2
  6
CONTINUOUS
 10
359.3745159416
 20
12.4067972635
  7
TEXTSTYLE_2
 40
3.18
  1
P
 41
0.8
 72
1
 11
360.6465159416
 21
12.4067972635
100
AcDbText
  0
TEXT
  5
252
100
AcDbEntity
  8
0
100
AcDbText
 62
2
  6
CONTINUOUS
 10
377.1360159416
 20
12.4067972635
  7
TEXTSTYLE_2
 40
3.18
  1
28-Nov-16
 41
0.8
 72
1
 11
388.5840159416
 21
12.4067972635
100
AcDbText
  0
LINE
  5
253
100
AcDbEntity
  8
0
100
AcDbLine
 62
2
  6
CONTINUOUS
 10
17.7838797455
 20
287.0843544705
 11
132.7838797455
 21
287.0843544705
  0
LINE
  5
254
100
AcDbEntity
  8
0
100
AcDbLine
 62
2
  6
CONTINUOUS
 10
17.7838797455
 20
287.0843544705
 11
17.7838797455
 21
272.0843544705
  0
LINE
  5
255
100
AcDbEntity
  8
0
100
AcDbLine
 62
2
  6
CONTINUOUS
 10
17.7838797455
 20
272.0843544705
 11
132.7838797455
 21
272.0843544705
  0
LINE
  5
256
100
AcDbEntity
  8
0
100
AcDbLine
 62
2
  6
CONTINUOUS
 10
132.7838797455
 20
287.0843544705
 11
132.7838797455
 21
272.0843544705
  0
TEXT
  5
257
100
AcDbEntity
  8
0
100
AcDbText
 62
2
  6
CONTINUOUS
 10
17.8463797455
 20
282.0843544705
  7
TEXTSTYLE_2
 40
2.5
  1
  
 41
0.8
 72
0
100
AcDbText
  0
TEXT
  5
258
100
AcDbEntity
  8
0
100
AcDbText
 62
2
  6
CONTINUOUS
 10
21.8463797455
 20
282.0843544705
  7
TEXTSTYLE_1
 40
2.5
  1
e
 41
1.0
 72
0
100
AcDbText
  0
TEXT
  5
259
100
AcDbEntity
  8
0
100
AcDbText
 62
2
  6
CONTINUOUS
 10
26.4297130788
 20
282.0843544705
  7
TEXTSTYLE_2
 40
2.5
  1
Copyright 
 41
0.8
 72
0
100
AcDbText
  0
TEXT
  5
25A
100
AcDbEntity
  8
0
100
AcDbText
 62
2
  6
CONTINUOUS
 10
46.4297130788
 20
282.0843544705
  7
TEXTSTYLE_2
 40
2.5
  1
28-Nov-16
 41
0.8
 72
0
100
AcDbText
  0
TEXT
  5
25B
100
AcDbEntity
  8
0
100
AcDbText
 62
2
  6
CONTINUOUS
 10
64.4297130788
 20
282.0843544705
  7
TEXTSTYLE_2
 40
2.5
  1
 Tyco Electronics Corporation,
 41
0.8
 72
0
100
AcDbText
  0
TEXT
  5
25C
100
AcDbEntity
  8
0
100
AcDbText
 62
2
  6
CONTINUOUS
 10
17.8463797455
 20
278.3343544705
  7
TEXTSTYLE_2
 40
2.5
  1
 
 41
0.8
 72
0
100
AcDbText
  0
TEXT
  5
25D
100
AcDbEntity
  8
0
100
AcDbText
 62
2
  6
CONTINUOUS
 10
17.8463797455
 20
274.5843544705
  7
TEXTSTYLE_2
 40
2.5
  1
  a TE Connectivity Ltd. Company.  All Rights Reserved.
 41
0.8
 72
0
100
AcDbText
  0
LINE
  5
25E
100
AcDbEntity
  8
0
100
AcDbLine
 62
7
  6
CONTINUOUS
 10
0.0
 20
0.0
 11
0.0
 21
297.0
  0
LINE
  5
25F
100
AcDbEntity
  8
0
100
AcDbLine
 62
7
  6
CONTINUOUS
 10
17.7838797455
 20
9.2342568143
 11
17.7838797455
 21
287.0843544705
  0
LINE
  5
260
100
AcDbEntity
  8
0
100
AcDbLine
 62
7
  6
CONTINUOUS
 10
0.0
 20
0.0
 11
420.0
 21
0.0
  0
LINE
  5
261
100
AcDbEntity
  8
0
100
AcDbLine
 62
7
  6
CONTINUOUS
 10
409.2090201263
 20
9.2342568143
 11
17.7838797455
 21
9.2342568143
  0
LINE
  5
262
100
AcDbEntity
  8
0
100
AcDbLine
 62
7
  6
CONTINUOUS
 10
30.4841666107
 20
9.234348367
 11
17.784490097
 21
9.234348367
  0
LINE
  5
263
100
AcDbEntity
  8
0
100
AcDbLine
 62
7
  6
CONTINUOUS
 10
409.2090159416
 20
18.7593422635
 11
273.4388174896
 21
18.7593422635
  0
LINE
  5
264
100
AcDbEntity
  8
DRAFT_ENTITY
100
AcDbLine
 62
7
  6
CONTINUOUS
 10
409.2091421966
 20
28.2845192655
 11
273.4386343841
 21
28.2845192655
  0
LINE
  5
265
100
AcDbEntity
  8
0
100
AcDbLine
 62
7
  6
CONTINUOUS
 10
409.2091421966
 20
44.1593056424
 11
273.4386343841
 21
44.1593056424
  0
LINE
  5
266
100
AcDbEntity
  8
0
100
AcDbLine
 62
7
  6
CONTINUOUS
 10
273.4386343841
 20
44.1593056424
 11
273.4386343841
 21
9.2342568143
  0
LINE
  5
267
100
AcDbEntity
  8
0
100
AcDbLine
 62
7
  6
CONTINUOUS
 10
287.2079097655
 20
18.7593422635
 11
287.2079097655
 21
9.2342568143
  0
LINE
  5
268
100
AcDbEntity
  8
0
100
AcDbLine
 62
7
  6
CONTINUOUS
 10
353.3344447689
 20
18.7593808926
 11
353.3344447689
 21
9.2342954434
  0
LINE
  5
269
100
AcDbEntity
  8
0
100
AcDbLine
 62
7
  6
CONTINUOUS
 10
17.7838797455
 20
287.0843544705
 11
409.208898056
 21
287.0843544705
  0
LINE
  5
26A
100
AcDbEntity
  8
0
100
AcDbLine
 62
7
  6
CONTINUOUS
 10
0.0
 20
297.0
 11
420.0
 21
297.0
  0
LINE
  5
26B
100
AcDbEntity
  8
0
100
AcDbLine
 62
7
  6
CONTINUOUS
 10
367.9586057154
 20
9.2337890544
 11
367.9586057154
 21
18.7587829509
  0
LINE
  5
26C
100
AcDbEntity
  8
0
100
AcDbLine
 62
7
  6
CONTINUOUS
 10
409.208898056
 20
287.0843544705
 11
409.2090201263
 21
9.2342568143
  0
LINE
  5
26D
100
AcDbEntity
  8
0
100
AcDbLine
 62
7
  6
CONTINUOUS
 10
420.0
 20
0.0
 11
420.0
 21
297.0
  0
LINE
  5
26E
100
AcDbEntity
  8
0
100
AcDbLine
 62
7
  6
CONTINUOUS
 10
286.9275285758
 20
191.6908664766
 11
291.3486217989
 21
191.6908664766
  0
LINE
  5
26F
100
AcDbEntity
  8
0
100
AcDbLine
 62
7
  6
CONTINUOUS
 10
286.6529910921
 20
192.2503153691
 11
291.0740843152
 21
192.2503153691
  0
LINE
  5
270
100
AcDbEntity
  8
0
100
AcDbLine
 62
7
  6
CONTINUOUS
 10
283.7852703279
 20
194.0408472912
 11
284.0615886544
 21
194.0408472912
  0
LINE
  5
271
100
AcDbEntity
  8
0
100
AcDbLine
 62
7
  6
CONTINUOUS
 10
295.666958365
 20
194.0408472912
 11
295.9432766914
 21
194.0408472912
  0
LINE
  5
272
100
AcDbEntity
  8
0
100
AcDbLine
 62
7
  6
CONTINUOUS
 10
295.6687392077
 20
194.6002961838
 11
295.3924208812
 21
194.6002961838
  0
LINE
  5
273
100
AcDbEntity
  8
0
100
AcDbLine
 62
7
  6
CONTINUOUS
 10
292.3529192903
 20
194.6002961838
 11
286.8265527615
 21
194.6002961838
  0
LINE
  5
274
100
AcDbEntity
  8
0
100
AcDbLine
 62
7
  6
CONTINUOUS
 10
283.7870511706
 20
194.6002961838
 11
283.5107328442
 21
194.6002961838
  0
LINE
  5
275
100
AcDbEntity
  8
0
100
AcDbLine
 62
7
  6
CONTINUOUS
 10
284.0615886544
 20
194.0408472912
 11
286.9275285758
 21
191.6908664766
  0
LINE
  5
276
100
AcDbEntity
  8
0
100
AcDbLine
 62
7
  6
CONTINUOUS
 10
283.7870511706
 20
194.6002961838
 11
286.6529910921
 21
192.2503153691
  0
LINE
  5
277
100
AcDbEntity
  8
0
100
AcDbLine
 62
7
  6
CONTINUOUS
 10
286.7406882918
 20
196.0921598973
 11
287.5451240186
 21
196.0921598973
  0
LINE
  5
278
100
AcDbEntity
  8
0
100
AcDbLine
 62
7
  6
CONTINUOUS
 10
290.1701481199
 20
196.0921598973
 11
290.9745838467
 21
196.0921598973
  0
LINE
  5
279
100
AcDbEntity
  8
0
100
AcDbLine
 62
7
  6
CONTINUOUS
 10
287.6343300309
 20
196.3808309267
 11
290.0284890352
 21
196.3808309267
  0
LINE
  5
27A
100
AcDbEntity
  8
0
100
AcDbLine
 62
7
  6
CONTINUOUS
 10
291.9822406055
 20
196.3808309267
 11
292.4175716067
 21
196.3808309267
  0
LINE
  5
27B
100
AcDbEntity
  8
0
100
AcDbLine
 62
7
  6
CONTINUOUS
 10
290.7000463629
 20
196.6516087899
 11
289.8956106361
 21
196.6516087899
  0
LINE
  5
27C
100
AcDbEntity
  8
0
100
AcDbLine
 62
7
  6
CONTINUOUS
 10
287.2705865349
 20
196.6516087899
 11
286.4661508081
 21
196.6516087899
  0
LINE
  5
27D
100
AcDbEntity
  8
0
100
AcDbLine
 62
7
  6
CONTINUOUS
 10
287.7338846515
 20
196.7029900965
 11
289.8956106361
 21
196.7029900965
  0
LINE
  5
27E
100
AcDbEntity
  8
0
100
AcDbLine
 62
7
  6
CONTINUOUS
 10
292.2426571963
 20
196.7029900965
 11
292.3637468677
 21
196.7029900965
  0
LINE
  5
27F
100
AcDbEntity
  8
0
100
AcDbLine
 62
7
  6
CONTINUOUS
 10
288.4675197717
 20
199.0770364204
 11
290.6451237662
 21
199.0770364204
  0
LINE
  5
280
100
AcDbEntity
  8
0
100
AcDbLine
 62
7
  6
CONTINUOUS
 10
280.9201975018
 20
196.5007879891
 11
281.5782854018
 21
195.1597450764
  0
LINE
  5
281
100
AcDbEntity
  8
0
100
AcDbLine
 62
7
  6
CONTINUOUS
 10
282.4072403811
 20
195.1597450764
 11
281.7491524811
 21
196.5007879891
  0
LINE
  5
282
100
AcDbEntity
  8
0
100
AcDbLine
 62
7
  6
CONTINUOUS
 10
284.0615886544
 20
194.0408472912
 11
283.7870511706
 21
194.6002961838
  0
LINE
  5
283
100
AcDbEntity
  8
0
100
AcDbLine
 62
7
  6
CONTINUOUS
 10
286.9275285758
 20
191.6908664766
 11
286.6529910921
 21
192.2503153691
  0
LINE
  5
284
100
AcDbEntity
  8
0
100
AcDbLine
 62
7
  6
CONTINUOUS
 10
287.5451240186
 20
196.0921598973
 11
287.2705865349
 21
196.6516087899
  0
LINE
  5
285
100
AcDbEntity
  8
0
100
AcDbLine
 62
7
  6
CONTINUOUS
 10
291.3486217989
 20
191.6908664766
 11
291.0740843152
 21
192.2503153691
  0
LINE
  5
286
100
AcDbEntity
  8
0
100
AcDbLine
 62
7
  6
CONTINUOUS
 10
289.8956106361
 20
196.6516087899
 11
290.1701481199
 21
196.0921598973
  0
LINE
  5
287
100
AcDbEntity
  8
0
100
AcDbLine
 62
7
  6
CONTINUOUS
 10
294.3310379743
 20
208.4015128633
 11
293.5266022475
 21
208.4015128633
  0
LINE
  5
288
100
AcDbEntity
  8
0
100
AcDbLine
 62
7
  6
CONTINUOUS
 10
290.9015781462
 20
208.4015128633
 11
290.0971424194
 21
208.4015128633
  0
LINE
  5
289
100
AcDbEntity
  8
0
100
AcDbLine
 62
7
  6
CONTINUOUS
 10
295.666958365
 20
194.0408472912
 11
295.3924208812
 21
194.6002961838
  0
LINE
  5
28A
100
AcDbEntity
  8
0
100
AcDbLine
 62
7
  6
CONTINUOUS
 10
295.5650688033
 20
196.5007879891
 11
296.2231567032
 21
195.1597450764
  0
LINE
  5
28B
100
AcDbEntity
  8
0
100
AcDbLine
 62
7
  6
CONTINUOUS
 10
293.7339228295
 20
240.7666431074
 11
295.476798803
 21
246.4065970626
  0
LINE
  5
28C
100
AcDbEntity
  8
0
100
AcDbLine
 62
7
  6
CONTINUOUS
 10
284.4603888898
 20
209.0309207451
 11
280.8293972784
 21
197.2810166717
  0
LINE
  5
28D
100
AcDbEntity
  8
0
100
AcDbLine
 62
7
  6
CONTINUOUS
 10
294.4784645101
 20
240.8941795682
 11
296.2213404835
 21
246.5341335234
  0
LINE
  5
28E
100
AcDbEntity
  8
0
100
AcDbLine
 62
7
  6
CONTINUOUS
 10
291.3320002874
 20
211.4845342335
 11
295.8964698729
 21
211.4845342335
  0
LINE
  5
28F
100
AcDbEntity
  8
0
100
AcDbLine
 62
7
  6
CONTINUOUS
 10
291.2973504746
 20
212.7489773704
 11
295.8177637115
 21
212.7489773704
  0
LINE
  5
290
100
AcDbEntity
  8
0
100
AcDbLine
 62
7
  6
CONTINUOUS
 10
297.0521116826
 20
195.1597450764
 11
296.3940237826
 21
196.5007879891
  0
LINE
  5
291
100
AcDbEntity
  8
0
100
AcDbLine
 62
7
  6
CONTINUOUS
 10
291.17611563
 20
207.8420639707
 11
290.9015781462
 21
208.4015128633
  0
LINE
  5
292
100
AcDbEntity
  8
0
100
AcDbLine
 62
7
  6
CONTINUOUS
 10
285.3481108652
 20
209.7720049781
 11
287.7654375776
 21
217.5944843516
  0
LINE
  5
293
100
AcDbEntity
  8
0
100
AcDbLine
 62
7
  6
CONTINUOUS
 10
281.7491524811
 20
196.5007879891
 11
282.0286590764
 21
197.405272503
  0
LINE
  5
294
100
AcDbEntity
  8
0
100
AcDbLine
 62
7
  6
CONTINUOUS
 10
286.212357855
 20
209.8862100721
 11
288.5943925569
 21
217.5944843516
  0
LINE
  5
295
100
AcDbEntity
  8
0
100
AcDbLine
 62
7
  6
CONTINUOUS
 10
289.0519550299
 20
216.6620695307
 11
286.9368138905
 21
209.8174639383
  0
LINE
  5
296
100
AcDbEntity
  8
0
100
AcDbLine
 62
7
  6
CONTINUOUS
 10
283.1492445497
 20
197.560873676
 11
282.4072403811
 21
195.1597450764
  0
LINE
  5
297
100
AcDbEntity
  8
0
100
AcDbLine
 62
7
  6
CONTINUOUS
 10
290.1520055238
 20
213.4949092272
 11
290.9313004963
 21
213.4949092272
  0
LINE
  5
298
100
AcDbEntity
  8
0
100
AcDbLine
 62
7
  6
CONTINUOUS
 10
295.4517137332
 20
213.4949092272
 11
296.2310087056
 21
213.4949092272
  0
LINE
  5
299
100
AcDbEntity
  8
0
100
AcDbLine
 62
7
  6
CONTINUOUS
 10
289.0519550299
 20
216.6620695307
 11
288.5943925569
 21
217.5944843516
  0
LINE
  5
29A
100
AcDbEntity
  8
0
100
AcDbLine
 62
7
  6
CONTINUOUS
 10
291.2973504746
 20
212.7489773704
 11
290.9313004963
 21
213.4949092272
  0
LINE
  5
29B
100
AcDbEntity
  8
0
100
AcDbLine
 62
7
  6
CONTINUOUS
 10
292.3637468677
 20
196.7029900965
 11
292.4175716067
 21
196.3808309267
  0
LINE
  5
29C
100
AcDbEntity
  8
0
100
AcDbLine
 62
7
  6
CONTINUOUS
 10
292.7244352486
 20
196.7116494056
 11
292.6706105096
 21
197.0338085754
  0
LINE
  5
29D
100
AcDbEntity
  8
0
100
AcDbLine
 62
7
  6
CONTINUOUS
 10
290.1520055238
 20
213.4949092272
 11
289.7464322477
 21
216.29215369
  0
LINE
  5
29E
100
AcDbEntity
  8
0
100
AcDbLine
 62
7
  6
CONTINUOUS
 10
289.9642917443
 20
216.9971479344
 11
289.7464322477
 21
216.29215369
  0
LINE
  5
29F
100
AcDbEntity
  8
0
100
AcDbLine
 62
7
  6
CONTINUOUS
 10
289.8957567735
 20
215.2622603817
 11
288.0925282028
 21
209.4270051685
  0
LINE
  5
2A0
100
AcDbEntity
  8
0
100
AcDbLine
 62
7
  6
CONTINUOUS
 10
284.3005652651
 20
197.1561972087
 11
283.5107328442
 21
194.6002961838
  0
LINE
  5
2A1
100
AcDbEntity
  8
0
100
AcDbLine
 62
7
  6
CONTINUOUS
 10
293.9312226902
 20
227.1506041343
 11
296.2550573214
 21
234.6705427413
  0
LINE
  5
2A2
100
AcDbEntity
  8
0
100
AcDbLine
 62
7
  6
CONTINUOUS
 10
294.6266268947
 20
227.3317497227
 11
296.950461526
 21
234.8516883297
  0
LINE
  5
2A3
100
AcDbEntity
  8
0
100
AcDbLine
 62
7
  6
CONTINUOUS
 10
301.9492885512
 20
216.1026206381
 11
294.8573088459
 21
216.1026206381
  0
LINE
  5
2A4
100
AcDbEntity
  8
0
100
AcDbLine
 62
7
  6
CONTINUOUS
 10
289.7464322477
 20
216.29215369
 11
293.8912071443
 21
216.29215369
  0
LINE
  5
2A5
100
AcDbEntity
  8
0
100
AcDbLine
 62
7
  6
CONTINUOUS
 10
289.9642917443
 20
216.9971479344
 11
294.109066641
 21
216.9971479344
  0
LINE
  5
2A6
100
AcDbEntity
  8
0
100
AcDbLine
 62
7
  6
CONTINUOUS
 10
293.8912071443
 20
216.29215369
 11
296.2310087056
 21
213.4949092272
  0
LINE
  5
2A7
100
AcDbEntity
  8
0
100
AcDbLine
 62
7
  6
CONTINUOUS
 10
285.3520545966
 20
197.075820578
 11
288.9830462079
 21
208.8257246514
  0
LINE
  5
2A8
100
AcDbEntity
  8
0
100
AcDbLine
 62
7
  6
CONTINUOUS
 10
298.4026582757
 20
236.2094231075
 11
300.1455342491
 21
241.8493770627
  0
LINE
  5
2A9
100
AcDbEntity
  8
0
100
AcDbLine
 62
7
  6
CONTINUOUS
 10
286.4661508081
 20
196.6516087899
 11
290.0971424194
 21
208.4015128633
  0
LINE
  5
2AA
100
AcDbEntity
  8
0
100
AcDbLine
 62
7
  6
CONTINUOUS
 10
287.2705865349
 20
196.6516087899
 11
290.9015781462
 21
208.4015128633
  0
LINE
  5
2AB
100
AcDbEntity
  8
0
100
AcDbLine
 62
7
  6
CONTINUOUS
 10
291.3320002874
 20
211.4845342335
 11
290.282943757
 21
208.4015128633
  0
LINE
  5
2AC
100
AcDbEntity
  8
0
100
AcDbLine
 62
7
  6
CONTINUOUS
 10
302.5626693315
 20
231.7552032406
 11
304.761733202
 21
235.0387457787
  0
LINE
  5
2AD
100
AcDbEntity
  8
0
100
AcDbLine
 62
7
  6
CONTINUOUS
 10
305.0322079655
 20
235.4426064411
 11
305.4603486053
 21
236.0818866467
  0
LINE
  5
2AE
100
AcDbEntity
  8
0
100
AcDbLine
 62
7
  6
CONTINUOUS
 10
302.499596327
 20
231.461183877
 11
303.2251140388
 21
232.4127207578
  0
LINE
  5
2AF
100
AcDbEntity
  8
0
100
AcDbLine
 62
7
  6
CONTINUOUS
 10
303.2251140388
 20
232.4127207578
 11
305.1690497873
 21
234.9472415223
  0
LINE
  5
2B0
100
AcDbEntity
  8
0
100
AcDbLine
 62
7
  6
CONTINUOUS
 10
291.052831432
 20
216.9971479344
 11
298.1407467597
 21
224.0625002967
  0
LINE
  5
2B1
100
AcDbEntity
  8
0
100
AcDbLine
 62
7
  6
CONTINUOUS
 10
289.0519550299
 20
216.6620695307
 11
297.535616418
 21
224.4164102222
  0
LINE
  5
2B2
100
AcDbEntity
  8
0
100
AcDbLine
 62
7
  6
CONTINUOUS
 10
303.2392638584
 20
217.5944843516
 11
302.4103088791
 21
217.5944843516
  0
LINE
  5
2B3
100
AcDbEntity
  8
0
100
AcDbLine
 62
7
  6
CONTINUOUS
 10
288.5943925569
 20
217.5944843516
 11
287.7654375776
 21
217.5944843516
  0
LINE
  5
2B4
100
AcDbEntity
  8
0
100
AcDbLine
 62
7
  6
CONTINUOUS
 10
294.109066641
 20
216.9971479344
 11
296.4488682023
 21
214.1999034716
  0
LINE
  5
2B5
100
AcDbEntity
  8
0
100
AcDbLine
 62
7
  6
CONTINUOUS
 10
295.8177637115
 20
212.7489773704
 11
295.4517137332
 21
213.4949092272
  0
LINE
  5
2B6
100
AcDbEntity
  8
0
100
AcDbLine
 62
7
  6
CONTINUOUS
 10
296.0135950339
 20
213.4539716148
 11
295.9935057832
 21
213.4949092272
  0
LINE
  5
2B7
100
AcDbEntity
  8
0
100
AcDbLine
 62
7
  6
CONTINUOUS
 10
292.2426571963
 20
196.728156706
 11
292.2951920681
 21
197.0156341479
  0
LINE
  5
2B8
100
AcDbEntity
  8
0
100
AcDbLine
 62
7
  6
CONTINUOUS
 10
291.4353162175
 20
197.2813821566
 11
291.382730459
 21
196.9938314217
  0
LINE
  5
2B9
100
AcDbEntity
  8
0
100
AcDbLine
 62
7
  6
CONTINUOUS
 10
287.5451240186
 20
196.0921598973
 11
291.17611563
 21
207.8420639707
  0
LINE
  5
2BA
100
AcDbEntity
  8
0
100
AcDbLine
 62
7
  6
CONTINUOUS
 10
294.109066641
 20
216.9971479344
 11
293.8912071443
 21
216.29215369
  0
LINE
  5
2BB
100
AcDbEntity
  8
0
100
AcDbLine
 62
7
  6
CONTINUOUS
 10
297.535616418
 20
224.4164102222
 11
299.8594510492
 21
231.9363488292
  0
LINE
  5
2BC
100
AcDbEntity
  8
0
100
AcDbLine
 62
7
  6
CONTINUOUS
 10
300.225540821
 20
207.8420639707
 11
300.0250153939
 21
208.2506920625
  0
LINE
  5
2BD
100
AcDbEntity
  8
0
100
AcDbLine
 62
7
  6
CONTINUOUS
 10
295.8964698729
 20
211.4845342335
 11
295.3235068886
 21
209.421863149
  0
LINE
  5
2BE
100
AcDbEntity
  8
0
100
AcDbLine
 62
7
  6
CONTINUOUS
 10
295.84099308
 20
209.7370314446
 11
296.1710073566
 21
210.9250853409
  0
LINE
  5
2BF
100
AcDbEntity
  8
0
100
AcDbLine
 62
7
  6
CONTINUOUS
 10
289.8956106361
 20
196.6516087899
 11
293.5266022475
 21
208.4015128633
  0
LINE
  5
2C0
100
AcDbEntity
  8
0
100
AcDbLine
 62
7
  6
CONTINUOUS
 10
299.4133534089
 20
227.3317497227
 11
301.7371880402
 21
234.8516883297
  0
LINE
  5
2C1
100
AcDbEntity
  8
0
100
AcDbLine
 62
7
  6
CONTINUOUS
 10
303.9169426691
 20
240.8941795682
 11
305.6598186426
 21
246.5341335234
  0
LINE
  5
2C2
100
AcDbEntity
  8
0
100
AcDbLine
 62
7
  6
CONTINUOUS
 10
290.7000463629
 20
196.6516087899
 11
294.3310379743
 21
208.4015128633
  0
LINE
  5
2C3
100
AcDbEntity
  8
0
100
AcDbLine
 62
7
  6
CONTINUOUS
 10
300.2865441984
 20
227.1506041343
 11
302.6103788296
 21
234.6705427413
  0
LINE
  5
2C4
100
AcDbEntity
  8
0
100
AcDbLine
 62
7
  6
CONTINUOUS
 10
296.2310087056
 20
213.4949092272
 11
296.4488682023
 21
214.1999034716
  0
LINE
  5
2C5
100
AcDbEntity
  8
0
100
AcDbLine
 62
7
  6
CONTINUOUS
 10
304.7866558873
 20
240.7666431074
 11
306.5295318607
 21
246.4065970626
  0
LINE
  5
2C6
100
AcDbEntity
  8
0
100
AcDbLine
 62
7
  6
CONTINUOUS
 10
295.0661690427
 20
209.0309207451
 11
291.4351774313
 21
197.2810166717
  0
LINE
  5
2C7
100
AcDbEntity
  8
0
100
AcDbLine
 62
7
  6
CONTINUOUS
 10
299.3656439109
 20
224.4164102222
 11
299.4133534089
 21
227.3317497227
  0
LINE
  5
2C8
100
AcDbEntity
  8
0
100
AcDbLine
 62
7
  6
CONTINUOUS
 10
300.2865441984
 20
227.1506041343
 11
300.2650943111
 21
225.8398860092
  0
LINE
  5
2C9
100
AcDbEntity
  8
0
100
AcDbLine
 62
7
  6
CONTINUOUS
 10
299.3501132588
 20
224.3177372747
 11
299.3656439109
 21
224.4164102222
  0
LINE
  5
2CA
100
AcDbEntity
  8
0
100
AcDbLine
 62
7
  6
CONTINUOUS
 10
292.7908114394
 20
196.176711238
 11
292.3529192903
 21
194.6002961838
  0
LINE
  5
2CB
100
AcDbEntity
  8
0
100
AcDbLine
 62
7
  6
CONTINUOUS
 10
300.4212593237
 20
224.8255914796
 11
302.5626693317
 21
231.7552032408
  0
LINE
  5
2CC
100
AcDbEntity
  8
0
100
AcDbLine
 62
7
  6
CONTINUOUS
 10
300.4343937401
 20
224.7781796496
 11
302.5337629803
 21
231.5717473101
  0
LINE
  5
2CD
100
AcDbEntity
  8
0
100
AcDbLine
 62
7
  6
CONTINUOUS
 10
292.2704064476
 20
196.8799817896
 11
292.3424819623
 21
197.1132184573
  0
LINE
  5
2CE
100
AcDbEntity
  8
0
100
AcDbLine
 62
7
  6
CONTINUOUS
 10
292.3791184035
 20
197.1696185987
 11
292.2879396091
 21
196.8745636379
  0
LINE
  5
2CF
100
AcDbEntity
  8
0
100
AcDbLine
 62
7
  6
CONTINUOUS
 10
292.2461494233
 20
196.7393304216
 11
292.2428233693
 21
196.7285672967
  0
LINE
  5
2D0
100
AcDbEntity
  8
0
100
AcDbLine
 62
7
  6
CONTINUOUS
 10
305.4603486053
 20
236.0818866467
 11
307.2032245787
 21
241.7218406019
  0
LINE
  5
2D1
100
AcDbEntity
  8
0
100
AcDbLine
 62
7
  6
CONTINUOUS
 10
305.4128155934
 20
235.4139879381
 11
307.1556915668
 21
241.0539418933
  0
LINE
  5
2D2
100
AcDbEntity
  8
0
100
AcDbLine
 62
7
  6
CONTINUOUS
 10
294.9447164309
 20
224.0918104458
 11
295.8107484125
 21
224.0918104458
  0
LINE
  5
2D3
100
AcDbEntity
  8
0
100
AcDbLine
 62
7
  6
CONTINUOUS
 10
299.8034027846
 20
224.0918104458
 11
300.6694347662
 21
224.0918104458
  0
LINE
  5
2D4
100
AcDbEntity
  8
0
100
AcDbLine
 62
7
  6
CONTINUOUS
 10
295.2390859059
 20
225.8398860092
 11
293.9312226902
 21
227.1506041343
  0
LINE
  5
2D5
100
AcDbEntity
  8
0
100
AcDbLine
 62
7
  6
CONTINUOUS
 10
294.6266268947
 20
227.3317497227
 11
297.535616418
 21
224.4164102222
  0
LINE
  5
2D6
100
AcDbEntity
  8
0
100
AcDbLine
 62
7
  6
CONTINUOUS
 10
302.6103788296
 20
234.6705427413
 11
302.5626693317
 21
231.7552032408
  0
LINE
  5
2D7
100
AcDbEntity
  8
0
100
AcDbLine
 62
7
  6
CONTINUOUS
 10
302.5626693316
 20
231.7552032406
 11
302.5337445434
 21
231.571687656
  0
LINE
  5
2D8
100
AcDbEntity
  8
0
100
AcDbLine
 62
7
  6
CONTINUOUS
 10
293.9312226902
 20
227.1506041343
 11
294.6266268947
 21
227.3317497227
  0
LINE
  5
2D9
100
AcDbEntity
  8
0
100
AcDbLine
 62
7
  6
CONTINUOUS
 10
295.2390859059
 20
225.8398860092
 11
296.1152411408
 21
225.8398860092
  0
LINE
  5
2DA
100
AcDbEntity
  8
0
100
AcDbLine
 62
7
  6
CONTINUOUS
 10
299.3889390761
 20
225.8398860092
 11
300.2650943111
 21
225.8398860092
  0
LINE
  5
2DB
100
AcDbEntity
  8
0
100
AcDbLine
 62
7
  6
CONTINUOUS
 10
303.6968263313
 20
216.6620695307
 11
303.2392638584
 21
217.5944843516
  0
LINE
  5
2DC
100
AcDbEntity
  8
0
100
AcDbLine
 62
7
  6
CONTINUOUS
 10
303.7086436141
 20
216.6371669509
 11
303.6968263313
 21
216.6620695307
  0
LINE
  5
2DD
100
AcDbEntity
  8
0
100
AcDbLine
 62
7
  6
CONTINUOUS
 10
303.6971774873
 20
216.6622300969
 11
303.3943592671
 21
217.3244893207
  0
LINE
  5
2DE
100
AcDbEntity
  8
0
100
AcDbLine
 62
7
  6
CONTINUOUS
 10
302.3470934064
 20
217.8151327405
 11
299.3656439109
 21
224.4164102222
  0
LINE
  5
2DF
100
AcDbEntity
  8
0
100
AcDbLine
 62
7
  6
CONTINUOUS
 10
303.5728831207
 20
216.9335120951
 11
303.437503202
 21
217.2375870135
  0
LINE
  5
2E0
100
AcDbEntity
  8
0
100
AcDbLine
 62
7
  6
CONTINUOUS
 10
303.437503202
 20
217.2375870135
 11
303.2830309174
 21
217.6088533447
  0
LINE
  5
2E1
100
AcDbEntity
  8
0
100
AcDbLine
 62
7
  6
CONTINUOUS
 10
302.1074013349
 20
216.6142742691
 11
299.1078609023
 21
224.0625002967
  0
LWPOLYLINE
  5
2E2
100
AcDbEntity
  8
0
100
AcDbPolyline
 62
7
  6
CONTINUOUS
 90
3
 70
0
 10
303.2830309174
 20
217.6088533447
 10
303.1464166842
 20
217.9688348999
 10
303.0076625666
 20
218.3687337675
  0
LINE
  5
2E3
100
AcDbEntity
  8
0
100
AcDbLine
 62
7
  6
CONTINUOUS
 10
299.6715881366
 20
208.7319725498
 11
302.4103088791
 21
217.5944843516
  0
LINE
  5
2E4
100
AcDbEntity
  8
0
100
AcDbLine
 62
7
  6
CONTINUOUS
 10
295.9890464737
 20
195.6368118392
 11
295.6687392077
 21
194.6002961838
  0
LINE
  5
2E5
100
AcDbEntity
  8
0
100
AcDbLine
 62
7
  6
CONTINUOUS
 10
296.3940237826
 20
196.5007879891
 11
300.0250153939
 21
208.2506920625
  0
LINE
  5
2E6
100
AcDbEntity
  8
0
100
AcDbLine
 62
7
  6
CONTINUOUS
 10
300.225540821
 20
207.8420639707
 11
303.2392638584
 21
217.5944843516
  0
LINE
  5
2E7
100
AcDbEntity
  8
0
100
AcDbLine
 62
7
  6
CONTINUOUS
 10
303.6968263313
 20
216.6620695307
 11
297.0521116826
 21
195.1597450764
  0
LINE
  5
2E8
100
AcDbEntity
  8
0
100
AcDbLine
 62
7
  6
CONTINUOUS
 10
303.7586726214
 20
216.130620345
 11
297.1139593276
 21
194.6283002753
  0
LINE
  5
2E9
100
AcDbEntity
  8
0
100
AcDbLine
 62
7
  6
CONTINUOUS
 10
299.4133534089
 20
227.3317497227
 11
300.2865441984
 21
227.1506041343
  0
LINE
  5
2EA
100
AcDbEntity
  8
0
100
AcDbLine
 62
7
  6
CONTINUOUS
 10
299.8594510493
 20
231.9363488291
 11
298.9531605177
 21
234.5946862599
  0
LINE
  5
2EB
100
AcDbEntity
  8
0
100
AcDbLine
 62
7
  6
CONTINUOUS
 10
298.487470879
 20
235.9606502139
 11
298.4026582757
 21
236.2094231075
  0
LINE
  5
2EC
100
AcDbEntity
  8
0
100
AcDbLine
 62
7
  6
CONTINUOUS
 10
303.007809726
 20
218.3687899165
 11
303.2392638584
 21
217.5944843516
  0
LINE
  5
2ED
100
AcDbEntity
  8
0
100
AcDbLine
 62
7
  6
CONTINUOUS
 10
298.5955808369
 20
233.2029779194
 11
299.0884444136
 21
233.2029779194
  0
LINE
  5
2EE
100
AcDbEntity
  8
0
100
AcDbLine
 62
7
  6
CONTINUOUS
 10
302.5857525631
 20
233.2029779194
 11
303.029137237
 21
233.2029779194
  0
LINE
  5
2EF
100
AcDbEntity
  8
0
100
AcDbLine
 62
7
  6
CONTINUOUS
 10
296.950461526
 20
234.8516883297
 11
299.8594510492
 21
231.9363488292
  0
LINE
  5
2F0
100
AcDbEntity
  8
0
100
AcDbLine
 62
7
  6
CONTINUOUS
 10
297.1980736891
 20
236.6310921918
 11
293.7339228295
 21
240.7666431074
  0
LINE
  5
2F1
100
AcDbEntity
  8
0
100
AcDbLine
 62
7
  6
CONTINUOUS
 10
294.4784645101
 20
240.8941795682
 11
298.4026582757
 21
236.2094231075
  0
LINE
  5
2F2
100
AcDbEntity
  8
0
100
AcDbLine
 62
7
  6
CONTINUOUS
 10
304.5299971391
 20
236.6310922406
 11
303.9169426691
 21
240.8941795682
  0
LINE
  5
2F3
100
AcDbEntity
  8
0
100
AcDbLine
 62
7
  6
CONTINUOUS
 10
304.7866558873
 20
240.7666431074
 11
305.4603486053
 21
236.0818866467
  0
LINE
  5
2F4
100
AcDbEntity
  8
0
100
AcDbLine
 62
7
  6
CONTINUOUS
 10
296.2550573214
 20
234.6705427413
 11
296.950461526
 21
234.8516883297
  0
LINE
  5
2F5
100
AcDbEntity
  8
0
100
AcDbLine
 62
7
  6
CONTINUOUS
 10
298.0714707785
 20
234.8007733599
 11
298.928516706
 21
234.8007733599
  0
LINE
  5
2F6
100
AcDbEntity
  8
0
100
AcDbLine
 62
7
  6
CONTINUOUS
 10
303.6965894394
 20
234.8007733599
 11
304.5536353669
 21
234.8007733599
  0
LINE
  5
2F7
100
AcDbEntity
  8
0
100
AcDbLine
 62
7
  6
CONTINUOUS
 10
306.5295318607
 20
246.4065970626
 11
307.2032245787
 21
241.7218406019
  0
LINE
  5
2F8
100
AcDbEntity
  8
0
100
AcDbLine
 62
7
  6
CONTINUOUS
 10
297.1980736482
 20
236.6310922406
 11
298.0494464498
 21
236.6310922406
  0
LINE
  5
2F9
100
AcDbEntity
  8
0
100
AcDbLine
 62
7
  6
CONTINUOUS
 10
304.5299971391
 20
236.6310922406
 11
305.3813699407
 21
236.6310922406
  0
LINE
  5
2FA
100
AcDbEntity
  8
0
100
AcDbLine
 62
7
  6
CONTINUOUS
 10
301.7371880402
 20
234.8516883297
 11
302.6103788296
 21
234.6705427413
  0
LINE
  5
2FB
100
AcDbEntity
  8
0
100
AcDbLine
 62
7
  6
CONTINUOUS
 10
296.2213404835
 20
246.5341335234
 11
300.1455342491
 21
241.8493770627
  0
LINE
  5
2FC
100
AcDbEntity
  8
0
100
AcDbLine
 62
7
  6
CONTINUOUS
 10
291.0740843152
 20
192.2503153691
 11
295.3924208812
 21
194.6002961838
  0
LINE
  5
2FD
100
AcDbEntity
  8
0
100
AcDbLine
 62
7
  6
CONTINUOUS
 10
293.7339228295
 20
240.7666431074
 11
294.4784645101
 21
240.8941795682
  0
LINE
  5
2FE
100
AcDbEntity
  8
0
100
AcDbLine
 62
7
  6
CONTINUOUS
 10
291.3486217989
 20
191.6908664766
 11
295.666958365
 21
194.0408472912
  0
LINE
  5
2FF
100
AcDbEntity
  8
0
100
AcDbLine
 62
7
  6
CONTINUOUS
 10
303.1202927425
 20
242.5436935557
 11
304.4266805712
 21
242.5436935557
  0
LINE
  5
300
100
AcDbEntity
  8
0
100
AcDbLine
 62
7
  6
CONTINUOUS
 10
303.9169426691
 20
240.8941795682
 11
304.7866558873
 21
240.7666431074
  0
LINE
  5
301
100
AcDbEntity
  8
0
100
AcDbLine
 62
7
  6
CONTINUOUS
 10
295.476798803
 20
246.4065970626
 11
296.2213404835
 21
246.5341335234
  0
LINE
  5
302
100
AcDbEntity
  8
0
100
AcDbLine
 62
7
  6
CONTINUOUS
 10
305.6598186426
 20
246.5341335234
 11
306.5295318607
 21
246.4065970626
  0
LINE
  5
303
100
AcDbEntity
  8
0
100
AcDbLine
 62
7
  6
CONTINUOUS
 10
107.1
 20
96.8448706508
 11
107.1
 21
94.6875
  0
LINE
  5
304
100
AcDbEntity
  8
0
100
AcDbLine
 62
7
  6
CONTINUOUS
 10
108.0
 20
94.6875
 11
108.0
 21
96.8448706508
  0
LINE
  5
305
100
AcDbEntity
  8
0
100
AcDbLine
 62
7
  6
CONTINUOUS
 10
109.2
 20
92.8875
 11
109.2
 21
93.7875
  0
LINE
  5
306
100
AcDbEntity
  8
0
100
AcDbLine
 62
7
  6
CONTINUOUS
 10
110.4
 20
91.3875
 11
112.65
 21
91.3875
  0
LINE
  5
307
100
AcDbEntity
  8
0
100
AcDbLine
 62
7
  6
CONTINUOUS
 10
118.35
 20
91.3875
 11
120.6
 21
91.3875
  0
LINE
  5
308
100
AcDbEntity
  8
0
100
AcDbLine
 62
7
  6
CONTINUOUS
 10
110.4
 20
92.8875
 11
110.4
 21
91.3875
  0
LINE
  5
309
100
AcDbEntity
  8
0
100
AcDbLine
 62
7
  6
CONTINUOUS
 10
117.3
 20
92.1375
 11
113.7
 21
92.1375
  0
LINE
  5
30A
100
AcDbEntity
  8
0
100
AcDbLine
 62
7
  6
CONTINUOUS
 10
110.4
 20
92.2875
 11
112.65
 21
92.2875
  0
LINE
  5
30B
100
AcDbEntity
  8
0
100
AcDbLine
 62
7
  6
CONTINUOUS
 10
118.35
 20
92.2875
 11
120.6
 21
92.2875
  0
LINE
  5
30C
100
AcDbEntity
  8
0
100
AcDbLine
 62
7
  6
CONTINUOUS
 10
110.4
 20
92.7375
 11
112.65
 21
92.7375
  0
LINE
  5
30D
100
AcDbEntity
  8
0
100
AcDbLine
 62
7
  6
CONTINUOUS
 10
118.35
 20
92.7375
 11
120.6
 21
92.7375
  0
LINE
  5
30E
100
AcDbEntity
  8
0
100
AcDbLine
 62
7
  6
CONTINUOUS
 10
108.9
 20
92.8875
 11
122.1
 21
92.8875
  0
LINE
  5
30F
100
AcDbEntity
  8
0
100
AcDbLine
 62
7
  6
CONTINUOUS
 10
111.188912909
 20
95.8188545318
 11
110.5951495727
 21
98.354862463
  0
LINE
  5
310
100
AcDbEntity
  8
0
100
AcDbLine
 62
7
  6
CONTINUOUS
 10
110.3486851692
 20
99.4075304942
 11
109.5
 21
103.0323287748
  0
LINE
  5
311
100
AcDbEntity
  8
0
100
AcDbLine
 62
7
  6
CONTINUOUS
 10
112.2
 20
98.2875
 11
113.25
 21
102.7875
  0
LINE
  5
312
100
AcDbEntity
  8
0
100
AcDbLine
 62
7
  6
CONTINUOUS
 10
109.1998392247
 20
93.794443108
 11
112.4980706961
 21
93.8708172958
  0
LINE
  5
313
100
AcDbEntity
  8
0
100
AcDbLine
 62
7
  6
CONTINUOUS
 10
108.9
 20
93.7875
 11
122.1
 21
93.7875
  0
LINE
  5
314
100
AcDbEntity
  8
0
100
AcDbLine
 62
7
  6
CONTINUOUS
 10
121.8001607753
 20
93.794443108
 11
118.5019293039
 21
93.8708172958
  0
LINE
  5
315
100
AcDbEntity
  8
0
100
AcDbLine
 62
7
  6
CONTINUOUS
 10
110.3763017564
 20
103.2375
 11
111.3905426169
 21
98.9056008924
  0
LINE
  5
316
100
AcDbEntity
  8
0
100
AcDbLine
 62
7
  6
CONTINUOUS
 10
111.909295206
 20
96.6899695117
 11
111.9820190687
 21
96.3793604168
  0
LINE
  5
317
100
AcDbEntity
  8
0
100
AcDbLine
 62
7
  6
CONTINUOUS
 10
112.65
 20
91.3875
 11
112.65
 21
92.8875
  0
LINE
  5
318
100
AcDbEntity
  8
0
100
AcDbLine
 62
7
  6
CONTINUOUS
 10
112.546026525
 20
94.9875
 11
112.5414238725
 21
94.6875
  0
LINE
  5
319
100
AcDbEntity
  8
0
100
AcDbLine
 62
7
  6
CONTINUOUS
 10
123.0
 20
94.6875
 11
118.4624446559
 21
94.555009768
  0
LINE
  5
31A
100
AcDbEntity
  8
0
100
AcDbLine
 62
7
  6
CONTINUOUS
 10
108.0
 20
94.6875
 11
112.5375553441
 21
94.555009768
  0
LINE
  5
31B
100
AcDbEntity
  8
0
100
AcDbLine
 62
7
  6
CONTINUOUS
 10
112.6011877077
 20
97.2855072541
 11
112.2582762186
 21
98.2875
  0
LINE
  5
31C
100
AcDbEntity
  8
0
100
AcDbLine
 62
7
  6
CONTINUOUS
 10
112.2236251948
 20
98.3887508348
 11
112.05
 21
98.8960863754
  0
LINE
  5
31D
100
AcDbEntity
  8
0
100
AcDbLine
 62
7
  6
CONTINUOUS
 10
113.0460839161
 20
97.1064622882
 11
113.0460839161
 21
98.2875
  0
LINE
  5
31E
100
AcDbEntity
  8
0
100
AcDbLine
 62
7
  6
CONTINUOUS
 10
113.1
 20
92.8875
 11
113.1
 21
93.7875
  0
LINE
  5
31F
100
AcDbEntity
  8
0
100
AcDbLine
 62
7
  6
CONTINUOUS
 10
112.05
 20
98.8960863754
 11
112.3673445798
 21
99.0046910563
  0
LINE
  5
320
100
AcDbEntity
  8
0
100
AcDbLine
 62
7
  6
CONTINUOUS
 10
112.5414238725
 20
94.6875
 11
118.4585761275
 21
94.6875
  0
LINE
  5
321
100
AcDbEntity
  8
0
100
AcDbLine
 62
7
  6
CONTINUOUS
 10
112.546026525
 20
94.9875
 11
118.453973475
 21
94.9875
  0
LINE
  5
322
100
AcDbEntity
  8
0
100
AcDbLine
 62
7
  6
CONTINUOUS
 10
114.075
 20
96.1875
 11
114.075
 21
97.0875
  0
LINE
  5
323
100
AcDbEntity
  8
0
100
AcDbLine
 62
7
  6
CONTINUOUS
 10
112.6012583549
 20
96.1875
 11
118.3987416451
 21
96.1875
  0
LINE
  5
324
100
AcDbEntity
  8
0
100
AcDbLine
 62
7
  6
CONTINUOUS
 10
111.0576799423
 20
96.3793604168
 11
111.9820190687
 21
96.3793604168
  0
LINE
  5
325
100
AcDbEntity
  8
0
100
AcDbLine
 62
7
  6
CONTINUOUS
 10
119.0179809313
 20
96.3793604168
 11
119.9423200577
 21
96.3793604168
  0
LINE
  5
326
100
AcDbEntity
  8
0
100
AcDbLine
 62
7
  6
CONTINUOUS
 10
113.2016206583
 20
97.0875
 11
117.7983793417
 21
97.0875
  0
LINE
  5
327
100
AcDbEntity
  8
0
100
AcDbLine
 62
7
  6
CONTINUOUS
 10
116.925
 20
97.0875
 11
116.925
 21
96.1875
  0
LINE
  5
328
100
AcDbEntity
  8
0
100
AcDbLine
 62
7
  6
CONTINUOUS
 10
112.2
 20
98.2875
 11
113.0460839161
 21
98.2875
  0
LINE
  5
329
100
AcDbEntity
  8
0
100
AcDbLine
 62
7
  6
CONTINUOUS
 10
117.9539160839
 20
98.2875
 11
118.8
 21
98.2875
  0
LINE
  5
32A
100
AcDbEntity
  8
0
100
AcDbLine
 62
7
  6
CONTINUOUS
 10
117.9
 20
92.8875
 11
117.9
 21
93.7875
  0
LINE
  5
32B
100
AcDbEntity
  8
0
100
AcDbLine
 62
7
  6
CONTINUOUS
 10
117.9539160839
 20
97.1064622882
 11
117.9539160839
 21
98.2875
  0
LINE
  5
32C
100
AcDbEntity
  8
0
100
AcDbLine
 62
7
  6
CONTINUOUS
 10
118.95
 20
98.8960863754
 11
118.7763748052
 21
98.3887508348
  0
LINE
  5
32D
100
AcDbEntity
  8
0
100
AcDbLine
 62
7
  6
CONTINUOUS
 10
118.7417237814
 20
98.2875
 11
118.3988122923
 21
97.2855072541
  0
LINE
  5
32E
100
AcDbEntity
  8
0
100
AcDbLine
 62
7
  6
CONTINUOUS
 10
118.6326554202
 20
99.0046910563
 11
118.95
 21
98.8960863754
  0
LINE
  5
32F
100
AcDbEntity
  8
0
100
AcDbLine
 62
7
  6
CONTINUOUS
 10
118.453973475
 20
94.9875
 11
118.4585761275
 21
94.6875
  0
LINE
  5
330
100
AcDbEntity
  8
0
100
AcDbLine
 62
7
  6
CONTINUOUS
 10
118.35
 20
91.3875
 11
118.35
 21
92.8875
  0
LINE
  5
331
100
AcDbEntity
  8
0
100
AcDbLine
 62
7
  6
CONTINUOUS
 10
117.75
 20
102.7875
 11
118.8
 21
98.2875
  0
LINE
  5
332
100
AcDbEntity
  8
0
100
AcDbLine
 62
7
  6
CONTINUOUS
 10
119.0179809313
 20
96.3793604168
 11
119.090704794
 21
96.6899695117
  0
LINE
  5
333
100
AcDbEntity
  8
0
100
AcDbLine
 62
7
  6
CONTINUOUS
 10
119.6094573831
 20
98.9056008924
 11
120.6236982436
 21
103.2375
  0
LINE
  5
334
100
AcDbEntity
  8
0
100
AcDbLine
 62
7
  6
CONTINUOUS
 10
121.5
 20
103.0323287748
 11
120.6513148308
 21
99.4075304942
  0
LINE
  5
335
100
AcDbEntity
  8
0
100
AcDbLine
 62
7
  6
CONTINUOUS
 10
120.4048504273
 20
98.354862463
 11
119.8110855283
 21
95.8188478574
  0
LINE
  5
336
100
AcDbEntity
  8
0
100
AcDbLine
 62
7
  6
CONTINUOUS
 10
120.6
 20
92.8875
 11
120.6
 21
91.3875
  0
LINE
  5
337
100
AcDbEntity
  8
0
100
AcDbLine
 62
7
  6
CONTINUOUS
 10
113.25
 20
102.7875
 11
117.75
 21
102.7875
  0
LINE
  5
338
100
AcDbEntity
  8
0
100
AcDbLine
 62
7
  6
CONTINUOUS
 10
121.8
 20
92.8875
 11
121.8
 21
93.7875
  0
LINE
  5
339
100
AcDbEntity
  8
0
100
AcDbLine
 62
7
  6
CONTINUOUS
 10
109.5
 20
103.0323287748
 11
110.3763017564
 21
103.2375
  0
LINE
  5
33A
100
AcDbEntity
  8
0
100
AcDbLine
 62
7
  6
CONTINUOUS
 10
120.6236982436
 20
103.2375
 11
121.5
 21
103.0323287748
  0
LINE
  5
33B
100
AcDbEntity
  8
0
100
AcDbLine
 62
7
  6
CONTINUOUS
 10
123.0
 20
96.8448706508
 11
123.0
 21
94.6875
  0
LINE
  5
33C
100
AcDbEntity
  8
0
100
AcDbLine
 62
7
  6
CONTINUOUS
 10
123.9
 20
94.6875
 11
123.9
 21
96.8448706508
  0
LINE
  5
33D
100
AcDbEntity
  8
0
100
AcDbLine
 62
7
  6
CONTINUOUS
 10
113.1
 20
165.7125
 11
117.9
 21
165.7125
  0
LINE
  5
33E
100
AcDbEntity
  8
0
100
AcDbLine
 62
7
  6
CONTINUOUS
 10
123.9
 20
168.7125
 11
107.1
 21
168.7125
  0
LINE
  5
33F
100
AcDbEntity
  8
0
100
AcDbLine
 62
7
  6
CONTINUOUS
 10
114.075
 20
170.2713457268
 11
116.925
 21
170.2713457268
  0
LINE
  5
340
100
AcDbEntity
  8
0
100
AcDbLine
 62
7
  6
CONTINUOUS
 10
114.075
 20
170.4445508076
 11
116.925
 21
170.4445508076
  0
LINE
  5
341
100
AcDbEntity
  8
0
100
AcDbLine
 62
7
  6
CONTINUOUS
 10
109.2
 20
168.7125
 11
113.1
 21
165.7125
  0
LINE
  5
342
100
AcDbEntity
  8
0
100
AcDbLine
 62
7
  6
CONTINUOUS
 10
114.075
 20
172.5230117767
 11
116.925
 21
172.5230117767
  0
LINE
  5
343
100
AcDbEntity
  8
0
100
AcDbLine
 62
7
  6
CONTINUOUS
 10
123.9
 20
183.7125
 11
116.925
 21
183.7125
  0
LINE
  5
344
100
AcDbEntity
  8
0
100
AcDbLine
 62
7
  6
CONTINUOUS
 10
114.075
 20
183.7125
 11
107.1
 21
183.7125
  0
LINE
  5
345
100
AcDbEntity
  8
0
100
AcDbLine
 62
7
  6
CONTINUOUS
 10
113.0221678322
 20
188.3625
 11
117.9778321678
 21
188.3625
  0
LINE
  5
346
100
AcDbEntity
  8
0
100
AcDbLine
 62
7
  6
CONTINUOUS
 10
112.2
 20
189.2625
 11
118.8
 21
189.2625
  0
LINE
  5
347
100
AcDbEntity
  8
0
100
AcDbLine
 62
7
  6
CONTINUOUS
 10
107.1
 20
168.7125
 11
107.1
 21
196.1625
  0
LINE
  5
348
100
AcDbEntity
  8
0
100
AcDbLine
 62
7
  6
CONTINUOUS
 10
108.0
 20
183.7125
 11
108.0
 21
196.1625
  0
LINE
  5
349
100
AcDbEntity
  8
0
100
AcDbLine
 62
7
  6
CONTINUOUS
 10
108.9
 20
196.1625
 11
108.9
 21
183.7125
  0
LINE
  5
34A
100
AcDbEntity
  8
0
100
AcDbLine
 62
7
  6
CONTINUOUS
 10
116.4934343751
 20
215.8125
 11
117.9651823217
 21
218.6120109982
  0
LINE
  5
34B
100
AcDbEntity
  8
0
100
AcDbLine
 62
7
  6
CONTINUOUS
 10
118.7214274173
 20
220.0505157825
 11
118.859156733
 21
220.3125
  0
LINE
  5
34C
100
AcDbEntity
  8
0
100
AcDbLine
 62
7
  6
CONTINUOUS
 10
112.2
 20
190.1625
 11
118.8
 21
190.1625
  0
LINE
  5
34D
100
AcDbEntity
  8
0
100
AcDbLine
 62
7
  6
CONTINUOUS
 10
109.5
 20
220.3125
 11
109.5
 21
227.5125
  0
LINE
  5
34E
100
AcDbEntity
  8
0
100
AcDbLine
 62
7
  6
CONTINUOUS
 10
110.3763017564
 20
220.3125
 11
110.3763017564
 21
227.5125
  0
LINE
  5
34F
100
AcDbEntity
  8
0
100
AcDbLine
 62
7
  6
CONTINUOUS
 10
108.9
 20
196.1625
 11
114.975
 21
206.2125
  0
LINE
  5
350
100
AcDbEntity
  8
0
100
AcDbLine
 62
7
  6
CONTINUOUS
 10
108.0
 20
196.1625
 11
114.5065656249
 21
206.2125
  0
LINE
  5
351
100
AcDbEntity
  8
0
100
AcDbLine
 62
7
  6
CONTINUOUS
 10
112.05
 20
206.2125
 11
112.05
 21
215.8125
  0
LINE
  5
352
100
AcDbEntity
  8
0
100
AcDbLine
 62
7
  6
CONTINUOUS
 10
112.140843267
 20
220.3125
 11
112.140843267
 21
227.5125
  0
LINE
  5
353
100
AcDbEntity
  8
0
100
AcDbLine
 62
7
  6
CONTINUOUS
 10
112.2
 20
189.2625
 11
112.2
 21
190.1625
  0
LINE
  5
354
100
AcDbEntity
  8
0
100
AcDbLine
 62
7
  6
CONTINUOUS
 10
112.2180556884
 20
168.7125
 11
112.2180556884
 21
183.7125
  0
LINE
  5
355
100
AcDbEntity
  8
0
100
AcDbLine
 62
7
  6
CONTINUOUS
 10
112.9015151786
 20
206.2125
 11
112.9015151786
 21
215.8125
  0
LINE
  5
356
100
AcDbEntity
  8
0
100
AcDbLine
 62
7
  6
CONTINUOUS
 10
113.2016206583
 20
168.7125
 11
113.2016206583
 21
183.7125
  0
LINE
  5
357
100
AcDbEntity
  8
0
100
AcDbLine
 62
7
  6
CONTINUOUS
 10
113.25
 20
190.1625
 11
113.25
 21
189.2625
  0
LINE
  5
358
100
AcDbEntity
  8
0
100
AcDbLine
 62
7
  6
CONTINUOUS
 10
112.8986013986
 20
183.7125
 11
113.0460839161
 21
189.2625
  0
LINE
  5
359
100
AcDbEntity
  8
0
100
AcDbLine
 62
7
  6
CONTINUOUS
 10
107.1
 20
196.1625
 11
123.9
 21
196.1625
  0
LINE
  5
35A
100
AcDbEntity
  8
0
100
AcDbLine
 62
7
  6
CONTINUOUS
 10
114.075
 20
168.7125
 11
114.075
 21
183.7125
  0
LINE
  5
35B
100
AcDbEntity
  8
0
100
AcDbLine
 62
7
  6
CONTINUOUS
 10
114.5065656249
 20
206.2125
 11
114.5065656249
 21
215.8125
  0
LINE
  5
35C
100
AcDbEntity
  8
0
100
AcDbLine
 62
7
  6
CONTINUOUS
 10
118.1013986014
 20
183.7125
 11
117.9539160839
 21
189.2625
  0
LINE
  5
35D
100
AcDbEntity
  8
0
100
AcDbLine
 62
7
  6
CONTINUOUS
 10
116.4934343751
 20
206.2125
 11
116.4934343751
 21
215.8125
  0
LINE
  5
35E
100
AcDbEntity
  8
0
100
AcDbLine
 62
7
  6
CONTINUOUS
 10
116.925
 20
168.7125
 11
116.925
 21
183.7125
  0
LINE
  5
35F
100
AcDbEntity
  8
0
100
AcDbLine
 62
7
  6
CONTINUOUS
 10
117.75
 20
190.1625
 11
117.75
 21
189.2625
  0
LINE
  5
360
100
AcDbEntity
  8
0
100
AcDbLine
 62
7
  6
CONTINUOUS
 10
117.7983793417
 20
168.7125
 11
117.7983793417
 21
183.7125
  0
LINE
  5
361
100
AcDbEntity
  8
0
100
AcDbLine
 62
7
  6
CONTINUOUS
 10
118.0984848214
 20
206.2125
 11
118.0984848214
 21
215.8125
  0
LINE
  5
362
100
AcDbEntity
  8
0
100
AcDbLine
 62
7
  6
CONTINUOUS
 10
118.7819443116
 20
168.7125
 11
118.7819443116
 21
183.7125
  0
LINE
  5
363
100
AcDbEntity
  8
0
100
AcDbLine
 62
7
  6
CONTINUOUS
 10
118.8
 20
189.2625
 11
118.8
 21
190.1625
  0
LINE
  5
364
100
AcDbEntity
  8
0
100
AcDbLine
 62
7
  6
CONTINUOUS
 10
118.859156733
 20
220.3125
 11
118.859156733
 21
227.5125
  0
LINE
  5
365
100
AcDbEntity
  8
0
100
AcDbLine
 62
7
  6
CONTINUOUS
 10
118.95
 20
206.2125
 11
118.95
 21
215.8125
  0
LINE
  5
366
100
AcDbEntity
  8
0
100
AcDbLine
 62
7
  6
CONTINUOUS
 10
122.1
 20
196.1625
 11
116.025
 21
206.2125
  0
LINE
  5
367
100
AcDbEntity
  8
0
100
AcDbLine
 62
7
  6
CONTINUOUS
 10
120.6236982436
 20
220.3125
 11
120.6236982436
 21
227.5125
  0
LINE
  5
368
100
AcDbEntity
  8
0
100
AcDbLine
 62
7
  6
CONTINUOUS
 10
121.5
 20
220.3125
 11
121.5
 21
227.5125
  0
LINE
  5
369
100
AcDbEntity
  8
0
100
AcDbLine
 62
7
  6
CONTINUOUS
 10
122.1
 20
196.1625
 11
122.1
 21
183.7125
  0
LINE
  5
36A
100
AcDbEntity
  8
0
100
AcDbLine
 62
7
  6
CONTINUOUS
 10
112.3923242937
 20
204.9309560137
 11
113.3325789552
 21
204.9309560137
  0
LINE
  5
36B
100
AcDbEntity
  8
0
100
AcDbLine
 62
7
  6
CONTINUOUS
 10
117.6674210448
 20
204.9309560137
 11
118.6076757063
 21
204.9309560137
  0
LINE
  5
36C
100
AcDbEntity
  8
0
100
AcDbLine
 62
7
  6
CONTINUOUS
 10
123.0
 20
196.1625
 11
116.4934343751
 21
206.2125
  0
LINE
  5
36D
100
AcDbEntity
  8
0
100
AcDbLine
 62
7
  6
CONTINUOUS
 10
123.0
 20
183.7125
 11
123.0
 21
196.1625
  0
LINE
  5
36E
100
AcDbEntity
  8
0
100
AcDbLine
 62
7
  6
CONTINUOUS
 10
123.9
 20
168.7125
 11
123.9
 21
196.1625
  0
LINE
  5
36F
100
AcDbEntity
  8
0
100
AcDbLine
 62
7
  6
CONTINUOUS
 10
112.05
 20
206.2125
 11
118.95
 21
206.2125
  0
LINE
  5
370
100
AcDbEntity
  8
0
100
AcDbLine
 62
7
  6
CONTINUOUS
 10
114.506565625
 20
215.8124999999
 11
113.0348176783
 21
218.6120109982
  0
LINE
  5
371
100
AcDbEntity
  8
0
100
AcDbLine
 62
7
  6
CONTINUOUS
 10
112.2785725827
 20
220.0505157825
 11
112.140843267
 21
220.3125
  0
LINE
  5
372
100
AcDbEntity
  8
0
100
AcDbLine
 62
7
  6
CONTINUOUS
 10
112.05
 20
215.8125
 11
118.95
 21
215.8125
  0
LINE
  5
373
100
AcDbEntity
  8
0
100
AcDbLine
 62
7
  6
CONTINUOUS
 10
112.8887490894
 20
216.5645297481
 11
113.8328236987
 21
216.5645297481
  0
LINE
  5
374
100
AcDbEntity
  8
0
100
AcDbLine
 62
7
  6
CONTINUOUS
 10
117.1671763013
 20
216.5645297481
 11
118.1112509106
 21
216.5645297481
  0
LINE
  5
375
100
AcDbEntity
  8
0
100
AcDbLine
 62
7
  6
CONTINUOUS
 10
111.9811429601
 20
218.9152063308
 11
112.9116414238
 21
218.9152063308
  0
LINE
  5
376
100
AcDbEntity
  8
0
100
AcDbLine
 62
7
  6
CONTINUOUS
 10
118.0883585762
 20
218.9152063308
 11
119.0188570399
 21
218.9152063308
  0
LINE
  5
377
100
AcDbEntity
  8
0
100
AcDbLine
 62
7
  6
CONTINUOUS
 10
109.5
 20
220.3125
 11
121.5
 21
220.3125
  0
LINE
  5
378
100
AcDbEntity
  8
0
100
AcDbLine
 62
7
  6
CONTINUOUS
 10
117.9
 20
165.7125
 11
121.8
 21
168.7125
  0
LINE
  5
379
100
AcDbEntity
  8
0
100
AcDbLine
 62
7
  6
CONTINUOUS
 10
109.5
 20
227.5125
 11
121.5
 21
227.5125
  0
LINE
  5
37A
100
AcDbEntity
  8
0
100
AcDbLine
 62
7
  6
CONTINUOUS
 10
113.7
 20
230.5125
 11
117.3
 21
230.5125
  0
LINE
  5
37B
100
AcDbEntity
  8
0
100
AcDbLine
 62
7
  6
CONTINUOUS
 10
219.6
 20
92.8875
 11
219.6
 21
93.7875
  0
LINE
  5
37C
100
AcDbEntity
  8
0
100
AcDbLine
 62
7
  6
CONTINUOUS
 10
222.6
 20
92.8875
 11
222.6
 21
99.4874275007
  0
LINE
  5
37D
100
AcDbEntity
  8
0
100
AcDbLine
 62
7
  6
CONTINUOUS
 10
237.6
 20
96.1875
 11
237.6
 21
99.4874275007
  0
LINE
  5
37E
100
AcDbEntity
  8
0
100
AcDbLine
 62
7
  6
CONTINUOUS
 10
238.2
 20
92.2875
 11
238.2
 21
91.3875
  0
LINE
  5
37F
100
AcDbEntity
  8
0
100
AcDbLine
 62
7
  6
CONTINUOUS
 10
240.3
 20
92.8875
 11
240.3
 21
92.7375
  0
LINE
  5
380
100
AcDbEntity
  8
0
100
AcDbLine
 62
7
  6
CONTINUOUS
 10
241.2
 20
92.2875
 11
241.2
 21
92.8875
  0
LINE
  5
381
100
AcDbEntity
  8
0
100
AcDbLine
 62
7
  6
CONTINUOUS
 10
243.15
 20
97.0875
 11
243.15
 21
102.7875
  0
LINE
  5
382
100
AcDbEntity
  8
0
100
AcDbLine
 62
7
  6
CONTINUOUS
 10
244.05
 20
97.0875
 11
244.05
 21
102.7875
  0
LINE
  5
383
100
AcDbEntity
  8
0
100
AcDbLine
 62
7
  6
CONTINUOUS
 10
250.05
 20
92.8875
 11
260.1
 21
93.1487504626
  0
LINE
  5
384
100
AcDbEntity
  8
0
100
AcDbLine
 62
7
  6
CONTINUOUS
 10
238.2
 20
91.3875
 11
240.3
 21
91.3875
  0
LINE
  5
385
100
AcDbEntity
  8
0
100
AcDbLine
 62
7
  6
CONTINUOUS
 10
274.2
 20
92.1375
 11
284.4
 21
92.1375
  0
LINE
  5
386
100
AcDbEntity
  8
0
100
AcDbLine
 62
7
  6
CONTINUOUS
 10
239.85
 20
92.2875
 11
238.2
 21
92.2875
  0
LINE
  5
387
100
AcDbEntity
  8
0
100
AcDbLine
 62
7
  6
CONTINUOUS
 10
219.6
 20
92.8875
 11
269.7000029475
 21
92.8875
  0
LINE
  5
388
100
AcDbEntity
  8
0
100
AcDbLine
 62
7
  6
CONTINUOUS
 10
250.05
 20
92.8875
 11
250.05
 21
96.1875
  0
LINE
  5
389
100
AcDbEntity
  8
0
100
AcDbLine
 62
7
  6
CONTINUOUS
 10
219.6
 20
93.7875
 11
222.6
 21
93.7875
  0
LINE
  5
38A
100
AcDbEntity
  8
0
100
AcDbLine
 62
7
  6
CONTINUOUS
 10
260.1
 20
94.2061038135
 11
269.7
 21
94.2061038135
  0
LINE
  5
38B
100
AcDbEntity
  8
0
100
AcDbLine
 62
7
  6
CONTINUOUS
 10
250.05
 20
94.6875
 11
222.6
 21
94.6875
  0
LINE
  5
38C
100
AcDbEntity
  8
0
100
AcDbLine
 62
7
  6
CONTINUOUS
 10
250.05
 20
94.6875
 11
260.1
 21
94.2061038135
  0
LINE
  5
38D
100
AcDbEntity
  8
0
100
AcDbLine
 62
7
  6
CONTINUOUS
 10
274.2
 20
95.4958390781
 11
281.4
 21
95.4958390781
  0
LINE
  5
38E
100
AcDbEntity
  8
0
100
AcDbLine
 62
7
  6
CONTINUOUS
 10
237.6
 20
96.1875
 11
250.05
 21
96.1875
  0
LINE
  5
38F
100
AcDbEntity
  8
0
100
AcDbLine
 62
7
  6
CONTINUOUS
 10
222.6
 20
96.8448706508
 11
237.6
 21
96.8448706508
  0
LINE
  5
390
100
AcDbEntity
  8
0
100
AcDbLine
 62
7
  6
CONTINUOUS
 10
258.8184560137
 20
95.5902737982
 11
250.05
 21
96.1875
  0
LINE
  5
391
100
AcDbEntity
  8
0
100
AcDbLine
 62
7
  6
CONTINUOUS
 10
269.7
 20
92.8875
 11
274.2
 21
92.1375
  0
LINE
  5
392
100
AcDbEntity
  8
0
100
AcDbLine
 62
7
  6
CONTINUOUS
 10
243.15
 20
98.2875
 11
244.05
 21
98.2875
  0
LINE
  5
393
100
AcDbEntity
  8
0
100
AcDbLine
 62
7
  6
CONTINUOUS
 10
260.1
 20
98.8960863754
 11
269.7
 21
98.8960863754
  0
LINE
  5
394
100
AcDbEntity
  8
0
100
AcDbLine
 62
7
  6
CONTINUOUS
 10
260.1
 20
99.1875
 11
269.7
 21
99.1875
  0
LINE
  5
395
100
AcDbEntity
  8
0
100
AcDbLine
 62
7
  6
CONTINUOUS
 10
237.6
 20
99.4875
 11
222.6
 21
99.4875
  0
LINE
  5
396
100
AcDbEntity
  8
0
100
AcDbLine
 62
7
  6
CONTINUOUS
 10
272.8027063308
 20
95.1956901891
 11
270.4520297481
 21
95.5875
  0
LINE
  5
397
100
AcDbEntity
  8
0
100
AcDbLine
 62
7
  6
CONTINUOUS
 10
244.05
 20
102.7875
 11
243.15
 21
102.7875
  0
LINE
  5
398
100
AcDbEntity
  8
0
100
AcDbLine
 62
7
  6
CONTINUOUS
 10
274.2
 20
103.0323287748
 11
281.4
 21
103.0323287748
  0
LINE
  5
399
100
AcDbEntity
  8
0
100
AcDbLine
 62
7
  6
CONTINUOUS
 10
274.2
 20
103.2375
 11
281.4
 21
103.2375
  0
LINE
  5
39A
100
AcDbEntity
  8
0
100
AcDbLine
 62
7
  6
CONTINUOUS
 10
260.1
 20
99.1875
 11
260.1
 21
92.8875
  0
LINE
  5
39B
100
AcDbEntity
  8
0
100
AcDbLine
 62
7
  6
CONTINUOUS
 10
269.6999999998
 20
94.2061038134
 11
273.1150734025
 21
95.1848906131
  0
LINE
  5
39C
100
AcDbEntity
  8
0
100
AcDbLine
 62
7
  6
CONTINUOUS
 10
273.5351117576
 20
95.3052768973
 11
274.2
 21
95.4958390781
  0
LINE
  5
39D
100
AcDbEntity
  8
0
100
AcDbLine
 62
7
  6
CONTINUOUS
 10
269.7
 20
99.1875
 11
269.7000001261
 21
92.8875
  0
LINE
  5
39E
100
AcDbEntity
  8
0
100
AcDbLine
 62
7
  6
CONTINUOUS
 10
274.2
 20
103.2375
 11
274.2
 21
92.1375
  0
LINE
  5
39F
100
AcDbEntity
  8
0
100
AcDbLine
 62
7
  6
CONTINUOUS
 10
281.4
 20
92.1375
 11
281.4
 21
103.2375
  0
LINE
  5
3A0
100
AcDbEntity
  8
0
100
AcDbLine
 62
7
  6
CONTINUOUS
 10
284.4
 20
93.0375
 11
284.4
 21
92.1375
  0
ARC
  5
3A1
100
AcDbEntity
  8
0
100
AcDbCircle
 62
7
  6
CONTINUOUS
 10
288.2158007229
 20
249.791924331
 40
21.5496966736
100
AcDbArc
 50
315.1528260606
 51
315.9205768479
  0
ARC
  5
3A2
100
AcDbEntity
  8
0
100
AcDbCircle
 62
7
  6
CONTINUOUS
 10
306.951719061
 20
235.6556676426
 40
8.068619477
100
AcDbArc
 50
186.082074615
 51
187.5559787573
  0
ARC
  5
3A3
100
AcDbEntity
  8
0
100
AcDbCircle
 62
7
  6
CONTINUOUS
 10
302.3246872931
 20
238.7840761748
 40
4.2299495597
100
AcDbArc
 50
273.9652744828
 51
274.0861361702
  0
ARC
  5
3A4
100
AcDbEntity
  8
0
100
AcDbCircle
 62
7
  6
CONTINUOUS
 10
302.6296011242
 20
237.2352353335
 40
2.6469381971
100
AcDbArc
 50
288.4373773093
 51
291.0212144916
  0
ARC
  5
3A5
100
AcDbEntity
  8
0
100
AcDbCircle
 62
7
  6
CONTINUOUS
 10
302.7001659829
 20
237.04997905
 40
2.4486986463
100
AcDbArc
 50
291.0349106496
 51
294.0025408689
  0
ARC
  5
3A6
100
AcDbEntity
  8
0
100
AcDbCircle
 62
7
  6
CONTINUOUS
 10
290.1926706295
 20
217.6717338741
 40
1.5719917199
100
AcDbArc
 50
252.3929227765
 51
254.1921444681
  0
ARC
  5
3A7
100
AcDbEntity
  8
0
100
AcDbCircle
 62
7
  6
CONTINUOUS
 10
290.191316646
 20
217.6674493306
 40
1.5674983298
100
AcDbArc
 50
251.7229521252
 51
252.3927229252
  0
ARC
  5
3A8
100
AcDbEntity
  8
0
100
AcDbCircle
 62
7
  6
CONTINUOUS
 10
115.5
 20
96.4875
 40
4.35
100
AcDbArc
 50
236.303295096
 51
303.696704904
  0
ARC
  5
3A9
100
AcDbEntity
  8
0
100
AcDbCircle
 62
7
  6
CONTINUOUS
 10
109.7426293492
 20
96.8448706508
 40
2.6426293492
100
AcDbArc
 50
20.4907782902
 51
180.0
  0
ARC
  5
3AA
100
AcDbEntity
  8
0
100
AcDbCircle
 62
7
  6
CONTINUOUS
 10
121.2573706508
 20
96.8448706508
 40
2.6426293492
100
AcDbArc
 50
0.0
 51
159.5092217098
  0
ARC
  5
3AB
100
AcDbEntity
  8
0
100
AcDbCircle
 62
7
  6
CONTINUOUS
 10
113.2016206583
 20
98.1375
 40
1.95
100
AcDbArc
 50
200.4907782902
 51
270.0
  0
ARC
  5
3AC
100
AcDbEntity
  8
0
100
AcDbCircle
 62
7
  6
CONTINUOUS
 10
117.7983793417
 20
98.1375
 40
1.95
100
AcDbArc
 50
270.0
 51
339.5092217098
  0
ARC
  5
3AD
100
AcDbEntity
  8
0
100
AcDbCircle
 62
7
  6
CONTINUOUS
 10
108.9
 20
94.6875
 40
1.8
100
AcDbArc
 50
180.0
 51
270.0
  0
ARC
  5
3AE
100
AcDbEntity
  8
0
100
AcDbCircle
 62
7
  6
CONTINUOUS
 10
122.1
 20
94.6875
 40
1.8
100
AcDbArc
 50
270.0
 51
360.0
  0
ARC
  5
3AF
100
AcDbEntity
  8
0
100
AcDbCircle
 62
7
  6
CONTINUOUS
 10
109.7426293492
 20
96.8448706508
 40
1.7426293492
100
AcDbArc
 50
20.4907782902
 51
180.0
  0
ARC
  5
3B0
100
AcDbEntity
  8
0
100
AcDbCircle
 62
7
  6
CONTINUOUS
 10
121.2573706508
 20
96.8448706508
 40
1.7426293492
100
AcDbArc
 50
0.0
 51
159.5092217098
  0
ARC
  5
3B1
100
AcDbEntity
  8
0
100
AcDbCircle
 62
7
  6
CONTINUOUS
 10
111.5871806815
 20
96.2021339973
 40
1.2918358998
100
AcDbArc
 50
359.2739421172
 51
0.7729760707
  0
ARC
  5
3B2
100
AcDbEntity
  8
0
100
AcDbCircle
 62
7
  6
CONTINUOUS
 10
119.4126757235
 20
96.2021355506
 40
1.2916923503
100
AcDbArc
 50
179.2261140536
 51
180.7259996616
  0
ARC
  5
3B3
100
AcDbEntity
  8
0
100
AcDbCircle
 62
7
  6
CONTINUOUS
 10
113.2016206583
 20
98.1375
 40
1.05
100
AcDbArc
 50
200.4907782902
 51
270.0
  0
ARC
  5
3B4
100
AcDbEntity
  8
0
100
AcDbCircle
 62
7
  6
CONTINUOUS
 10
117.7983793417
 20
98.1375
 40
1.05
100
AcDbArc
 50
270.0
 51
339.5092217098
  0
ARC
  5
3B5
100
AcDbEntity
  8
0
100
AcDbCircle
 62
7
  6
CONTINUOUS
 10
108.9
 20
94.6875
 40
0.9
100
AcDbArc
 50
180.0
 51
270.0
  0
ARC
  5
3B6
100
AcDbEntity
  8
0
100
AcDbCircle
 62
7
  6
CONTINUOUS
 10
122.1
 20
94.6875
 40
0.9
100
AcDbArc
 50
270.0
 51
360.0
  0
ARC
  5
3B7
100
AcDbEntity
  8
0
100
AcDbCircle
 62
7
  6
CONTINUOUS
 10
99.6819923412
 20
226.2163654029
 40
19.8015464491
100
AcDbArc
 50
337.4165702426
 51
338.3635109684
  0
ARC
  5
3B8
100
AcDbEntity
  8
0
100
AcDbCircle
 62
7
  6
CONTINUOUS
 10
131.3180076579
 20
226.2163654025
 40
19.8015464481
100
AcDbArc
 50
201.6364890316
 51
202.5834297575
  0
ARC
  5
3B9
100
AcDbEntity
  8
0
100
AcDbCircle
 62
7
  6
CONTINUOUS
 10
106.1899192052
 20
216.4949322271
 40
6.2769972557
100
AcDbArc
 50
25.8070643141
 51
30.1495794227
  0
ARC
  5
3BA
100
AcDbEntity
  8
0
100
AcDbCircle
 62
7
  6
CONTINUOUS
 10
124.6931012506
 20
216.5570745928
 40
6.1446335156
100
AcDbArc
 50
149.8036256116
 51
154.2397306505
  0
ARC
  5
3BB
100
AcDbEntity
  8
0
100
AcDbCircle
 62
7
  6
CONTINUOUS
 10
106.6227169956
 20
216.696786973
 40
5.7994925005
100
AcDbArc
 50
22.4898379905
 51
25.8731807101
  0
ARC
  5
3BC
100
AcDbEntity
  8
0
100
AcDbCircle
 62
7
  6
CONTINUOUS
 10
124.3772830044
 20
216.6967869731
 40
5.7994925005
100
AcDbArc
 50
154.1268192899
 51
157.5101620095
  0
ARC
  5
3BD
100
AcDbEntity
  8
0
100
AcDbCircle
 62
7
  6
CONTINUOUS
 10
242.25
 20
97.0875
 40
1.8
100
AcDbArc
 50
329.9986504928
 51
360.0
  0
ARC
  5
3BE
100
AcDbEntity
  8
0
100
AcDbCircle
 62
7
  6
CONTINUOUS
 10
273.0
 20
96.3793604168
 40
1.2
100
AcDbArc
 50
260.5369573084
 51
360.0
  0
ARC
  5
3BF
100
AcDbEntity
  8
0
100
AcDbCircle
 62
7
  6
CONTINUOUS
 10
258.9
 20
96.7875
 40
1.2
100
AcDbArc
 50
266.1035587805
 51
360.0
  0
ARC
  5
3C0
100
AcDbEntity
  8
0
100
AcDbCircle
 62
7
  6
CONTINUOUS
 10
240.3
 20
92.2875
 40
0.9
100
AcDbArc
 50
270.0
 51
360.0
  0
ARC
  5
3C1
100
AcDbEntity
  8
0
100
AcDbCircle
 62
7
  6
CONTINUOUS
 10
270.6
 20
96.4752526708
 40
0.9
100
AcDbArc
 50
180.0
 51
260.5369573084
  0
ARC
  5
3C2
100
AcDbEntity
  8
0
100
AcDbCircle
 62
7
  6
CONTINUOUS
 10
242.25
 20
97.0875
 40
0.9
100
AcDbArc
 50
270.0
 51
360.0
  0
ARC
  5
3C3
100
AcDbEntity
  8
0
100
AcDbCircle
 62
7
  6
CONTINUOUS
 10
239.85
 20
92.7375
 40
0.45
100
AcDbArc
 50
270.0
 51
360.0
  0
SPLINE
  5
3C4
100
AcDbEntity
  8
0
100
AcDbSpline
 62
7
  6
CONTINUOUS
 70
0
 71
3
 72
15
 73
11
 74
0
 42
0.0000001
 43
0.0000001
 44
0.0000000001
 40
0.0
 40
0.0
 40
0.0
 40
0.0
 40
0.10025729
 40
0.211878089
 40
0.3337760785
 40
0.4637218742
 40
0.5987441399
 40
0.7354542256
 40
0.8703319205
 40
1.0
 40
1.0
 40
1.0
 40
1.0
 10
281.5782854018
 20
195.1597450764
 30
0.0
 10
281.616285444
 20
195.0823090875
 30
0.0
 10
281.7168458531
 20
194.9283477943
 30
0.0
 10
281.9161266124
 20
194.719959706
 30
0.0
 10
282.1645890186
 20
194.5283599636
 30
0.0
 10
282.4530188418
 20
194.3605948234
 30
0.0
 10
282.7707489322
 20
194.22276601
 30
0.0
 10
283.1059268259
 20
194.1200346578
 30
0.0
 10
283.4459184563
 20
194.0562451877
 30
0.0
 10
283.673709076
 20
194.0408472912
 30
0.0
 10
283.7852703279
 20
194.0408472912
 30
0.0
  0
SPLINE
  5
3C5
100
AcDbEntity
  8
0
100
AcDbSpline
 62
7
  6
CONTINUOUS
 70
0
 71
3
 72
11
 73
7
 74
0
 42
0.0000001
 43
0.0000001
 44
0.0000000001
 40
0.0
 40
0.0
 40
0.0
 40
0.0
 40
0.234126204
 40
0.4888279118
 40
0.7493937718
 40
1.0
 40
1.0
 40
1.0
 40
1.0
 10
284.6716524704
 20
196.8799817896
 30
0.0
 10
284.7990352933
 20
196.7580207024
 30
0.0
 10
285.0977536909
 20
196.5369593157
 30
0.0
 10
285.6089632598
 20
196.2913264051
 30
0.0
 10
286.1663061629
 20
196.1324858001
 30
0.0
 10
286.551920347
 20
196.0921598973
 30
0.0
 10
286.7406882918
 20
196.0921598973
 30
0.0
  0
SPLINE
  5
3C6
100
AcDbEntity
  8
0
100
AcDbSpline
 62
7
  6
CONTINUOUS
 70
0
 71
3
 72
10
 73
6
 74
0
 42
0.0000001
 43
0.0000001
 44
0.0000000001
 40
0.0
 40
0.0
 40
0.0
 40
0.0
 40
0.5245945287
 40
0.765905331
 40
1.0
 40
1.0
 40
1.0
 40
1.0
 10
296.2231567032
 20
195.1597450764
 30
0.0
 10
296.2442114315
 20
195.1168400266
 30
0.0
 10
296.2666864745
 20
195.048818286
 30
0.0
 10
296.268631621
 20
194.9572131244
 30
0.0
 10
296.2603513386
 20
194.9142840364
 30
0.0
 10
296.2540467059
 20
194.8939102257
 30
0.0
  0
SPLINE
  5
3C7
100
AcDbEntity
  8
0
100
AcDbSpline
 62
7
  6
CONTINUOUS
 70
0
 71
3
 72
13
 73
9
 74
0
 42
0.0000001
 43
0.0000001
 44
0.0000000001
 40
0.0
 40
0.0
 40
0.0
 40
0.0
 40
0.3031261365
 40
0.5686417279
 40
0.6870613304
 40
0.7968974717
 40
0.9002025898
 40
1.0
 40
1.0
 40
1.0
 40
1.0
 10
290.9745838467
 20
196.0921598973
 30
0.0
 10
291.1271910135
 20
196.0921598973
 30
0.0
 10
291.4143297019
 20
196.116272293
 30
0.0
 10
291.7485428294
 20
196.2212744961
 30
0.0
 10
291.9630214717
 20
196.3490766352
 30
0.0
 10
292.0897643237
 20
196.4593035494
 30
0.0
 10
292.1857269959
 20
196.585753305
 30
0.0
 10
292.227818355
 20
196.6801555355
 30
0.0
 10
292.2426773094
 20
196.7281504868
 30
0.0
  0
SPLINE
  5
3C8
100
AcDbEntity
  8
0
100
AcDbSpline
 62
7
  6
CONTINUOUS
 70
0
 71
3
 72
13
 73
9
 74
0
 42
0.0000001
 43
0.0000001
 44
0.0000000001
 40
0.0
 40
0.0
 40
0.0
 40
0.0
 40
0.3031499176
 40
0.5686734903
 40
0.6870862428
 40
0.7969183488
 40
0.9002322173
 40
1.0
 40
1.0
 40
1.0
 40
1.0
 10
295.9432766914
 20
194.0408472912
 30
0.0
 10
296.0841953648
 20
194.0408472912
 30
0.0
 10
296.3493358597
 20
194.0631207661
 30
0.0
 10
296.6579304424
 20
194.1601162654
 30
0.0
 10
296.8559330962
 20
194.2781762352
 30
0.0
 10
296.9729174577
 20
194.380001416
 30
0.0
 10
297.0614491678
 20
194.4968009793
 30
0.0
 10
297.1002534459
 20
194.5839808462
 30
0.0
 10
297.1139459198
 20
194.628290326
 30
0.0
  0
SPLINE
  5
3C9
100
AcDbEntity
  8
0
100
AcDbSpline
 62
7
  6
CONTINUOUS
 70
0
 71
3
 72
14
 73
10
 74
0
 42
0.0000001
 43
0.0000001
 44
0.0000000001
 40
0.0
 40
0.0
 40
0.0
 40
0.0
 40
0.1055337295
 40
0.204258463
 40
0.3040833443
 40
0.4122544786
 40
0.5338723398
 40
0.6718142161
 40
1.0
 40
1.0
 40
1.0
 40
1.0
 10
302.6934165443
 20
232.9707236108
 30
0.0
 10
302.6846339276
 20
232.9707265003
 30
0.0
 10
302.6675092909
 20
232.9726640295
 30
0.0
 10
302.643905288
 20
232.9828201816
 30
0.0
 10
302.6243805454
 20
232.9998340439
 30
0.0
 10
302.6090777076
 20
233.0229066524
 30
0.0
 10
302.5977394626
 20
233.0515088435
 30
0.0
 10
302.5869421608
 20
233.0993507715
 30
0.0
 10
302.5853056634
 20
233.1384203151
 30
0.0
 10
302.5857525631
 20
233.1657285911
 30
0.0
  0
SPLINE
  5
3CA
100
AcDbEntity
  8
0
100
AcDbSpline
 62
7
  6
CONTINUOUS
 70
0
 71
3
 72
11
 73
7
 74
0
 42
0.0000001
 43
0.0000001
 44
0.0000000001
 40
0.0
 40
0.0
 40
0.0
 40
0.0
 40
0.1833312714
 40
0.4122506303
 40
0.686507226
 40
1.0
 40
1.0
 40
1.0
 40
1.0
 10
298.9589794602
 20
232.970730717
 30
0.0
 10
298.9352971663
 20
232.9707308084
 30
0.0
 10
298.8822164226
 20
232.9828042819
 30
0.0
 10
298.8028696311
 20
233.0232393518
 30
0.0
 10
298.7172971268
 20
233.085534356
 30
0.0
 10
298.6613529642
 20
233.1370622194
 30
0.0
 10
298.6327490315
 20
233.1657285911
 30
0.0
  0
SPLINE
  5
3CB
100
AcDbEntity
  8
0
100
AcDbSpline
 62
7
  6
CONTINUOUS
 70
0
 71
3
 72
23
 73
19
 74
0
 42
0.0000001
 43
0.0000001
 44
0.0000000001
 40
0.0
 40
0.0
 40
0.0
 40
0.0
 40
0.0543489766
 40
0.1139670387
 40
0.1785460697
 40
0.2473798907
 40
0.3194497322
 40
0.3935416699
 40
0.4683244737
 40
0.542429341
 40
0.6145245293
 40
0.6833930258
 40
0.7480175268
 40
0.8076794106
 40
0.8620795195
 40
0.9114860429
 40
0.9568753495
 40
1.0
 40
1.0
 40
1.0
 40
1.0
 10
300.0250153939
 20
208.2506920625
 30
0.0
 10
299.9784215742
 20
208.3456403387
 30
0.0
 10
299.8600717656
 20
208.534895257
 30
0.0
 10
299.6301397149
 20
208.7968980975
 30
0.0
 10
299.345755108
 20
209.0438780638
 30
0.0
 10
299.0145526493
 20
209.2693778608
 30
0.0
 10
298.6452515004
 20
209.4675298815
 30
0.0
 10
298.2477178266
 20
209.6330641743
 30
0.0
 10
297.8325819252
 20
209.7615511954
 30
0.0
 10
297.410971136
 20
209.8495484304
 30
0.0
 10
296.994167577
 20
209.8946981006
 30
0.0
 10
296.5932741952
 20
209.8957810545
 30
0.0
 10
296.2188760848
 20
209.8527166476
 30
0.0
 10
295.8807301317
 20
209.7664482378
 30
0.0
 10
295.5875582421
 20
209.6387948562
 30
0.0
 10
295.3471293018
 20
209.4719907669
 30
0.0
 10
295.1669000714
 20
209.2692664608
 30
0.0
 10
295.0910971398
 20
209.1114632586
 30
0.0
 10
295.0662969995
 20
209.0312895776
 30
0.0
  0
SPLINE
  5
3CC
100
AcDbEntity
  8
0
100
AcDbSpline
 62
7
  6
CONTINUOUS
 70
0
 71
3
 72
9
 73
5
 74
0
 42
0.0000001
 43
0.0000001
 44
0.0000000001
 40
0.0
 40
0.0
 40
0.0
 40
0.0
 40
0.4945392192
 40
1.0
 40
1.0
 40
1.0
 40
1.0
 10
305.4127558787
 20
235.4140063799
 30
0.0
 10
305.3870688927
 20
235.3307257585
 30
0.0
 10
305.3193640687
 20
235.1667979376
 30
0.0
 10
305.2232183626
 20
235.0179147682
 30
0.0
 10
305.1689231065
 20
234.947298234
 30
0.0
  0
SPLINE
  5
3CD
100
AcDbEntity
  8
0
100
AcDbSpline
 62
7
  6
CONTINUOUS
 70
0
 71
3
 72
11
 73
7
 74
0
 42
0.0000001
 43
0.0000001
 44
0.0000000001
 40
0.0
 40
0.0
 40
0.0
 40
0.0
 40
0.2506128798
 40
0.5111710078
 40
0.7658677953
 40
1.0
 40
1.0
 40
1.0
 40
1.0
 10
290.0971424194
 20
208.4015128633
 30
0.0
 10
289.9954955329
 20
208.4015128633
 30
0.0
 10
289.787855593
 20
208.4232189
 30
0.0
 10
289.4877594021
 20
208.5087751184
 30
0.0
 10
289.2124836457
 20
208.6410114524
 30
0.0
 10
289.0516386564
 20
208.7600516713
 30
0.0
 10
288.9830462079
 20
208.8257246514
 30
0.0
  0
SPLINE
  5
3CE
100
AcDbEntity
  8
0
100
AcDbSpline
 62
7
  6
CONTINUOUS
 70
0
 71
3
 72
19
 73
15
 74
0
 42
0.0000001
 43
0.0000001
 44
0.0000000001
 40
0.0
 40
0.0
 40
0.0
 40
0.0
 40
0.1319363311
 40
0.2752532271
 40
0.4226561328
 40
0.5661396648
 40
0.6341336476
 40
0.6985383377
 40
0.7587901665
 40
0.8145774413
 40
0.8659174331
 40
0.9132429243
 40
0.9574725161
 40
1.0
 40
1.0
 40
1.0
 40
1.0
 10
288.9830462079
 20
208.8257246514
 30
0.0
 10
288.8206562338
 20
208.9812028967
 30
0.0
 10
288.4425076039
 20
209.2652606996
 30
0.0
 10
287.7955224029
 20
209.5886706769
 30
0.0
 10
287.0859996832
 20
209.809234204
 30
0.0
 10
286.4770875643
 20
209.8946203419
 30
0.0
 10
286.0063369815
 20
209.8948528814
 30
0.0
 10
285.6790856292
 20
209.8618014867
 30
0.0
 10
285.3779177977
 20
209.7961816355
 30
0.0
 10
285.1087123428
 20
209.6990941917
 30
0.0
 10
284.8767811645
 20
209.5720999474
 30
0.0
 10
284.686930245
 20
209.417028111
 30
0.0
 10
284.5437899615
 20
209.2364861017
 30
0.0
 10
284.4818317331
 20
209.1002679793
 30
0.0
 10
284.4604330613
 20
209.0310324604
 30
0.0
  0
SPLINE
  5
3CF
100
AcDbEntity
  8
0
100
AcDbSpline
 62
7
  6
CONTINUOUS
 70
0
 71
3
 72
10
 73
6
 74
0
 42
0.0000001
 43
0.0000001
 44
0.0000000001
 40
0.0
 40
0.0
 40
0.0
 40
0.0
 40
0.2683565707
 40
0.5233847463
 40
1.0
 40
1.0
 40
1.0
 40
1.0
 10
303.758674425
 20
216.1306245913
 30
0.0
 10
303.772388175
 20
216.1750006013
 30
0.0
 10
303.7887716525
 20
216.2651237652
 30
0.0
 10
303.7819537437
 20
216.4390281406
 30
0.0
 10
303.7429828111
 20
216.5621530031
 30
0.0
 10
303.7086421311
 20
216.6371570834
 30
0.0
  0
SPLINE
  5
3D0
100
AcDbEntity
  8
0
100
AcDbSpline
 62
7
  6
CONTINUOUS
 70
0
 71
3
 72
11
 73
7
 74
0
 42
0.0000001
 43
0.0000001
 44
0.0000000001
 40
0.0
 40
0.0
 40
0.0
 40
0.0
 40
0.2336938281
 40
0.4744472285
 40
0.7284826555
 40
1.0
 40
1.0
 40
1.0
 40
1.0
 10
280.82944145
 20
197.281128387
 30
0.0
 10
280.8109517143
 20
197.2213047468
 30
0.0
 10
280.7866429197
 20
197.0953410836
 30
0.0
 10
280.7909052204
 20
196.8989026884
 30
0.0
 10
280.8349861649
 20
196.6972277646
 30
0.0
 10
280.8881479414
 20
196.5660981639
 30
0.0
 10
280.9201975018
 20
196.5007879891
 30
0.0
  0
SPLINE
  5
3D1
100
AcDbEntity
  8
0
100
AcDbSpline
 62
7
  6
CONTINUOUS
 70
0
 71
3
 72
18
 73
14
 74
0
 42
0.0000001
 43
0.0000001
 44
0.0000000001
 40
0.0
 40
0.0
 40
0.0
 40
0.0
 40
0.0425350246
 40
0.0867716858
 40
0.1341047141
 40
0.1854514846
 40
0.2412461908
 40
0.3015082072
 40
0.4337567345
 40
0.5772658282
 40
0.7246958768
 40
0.8680374303
 40
1.0
 40
1.0
 40
1.0
 40
1.0
 10
281.6892837409
 20
197.0152842931
 30
0.0
 10
281.7033923387
 20
197.0609425252
 30
0.0
 10
281.7442231095
 20
197.1507821476
 30
0.0
 10
281.838605252
 20
197.2698510677
 30
0.0
 10
281.9637962532
 20
197.3721138288
 30
0.0
 10
282.1167269278
 20
197.4558709299
 30
0.0
 10
282.2942473764
 20
197.5199233914
 30
0.0
 10
282.567468586
 20
197.579401202
 30
0.0
 10
282.9476144811
 20
197.5948273916
 30
0.0
 10
283.4205163178
 20
197.5285783356
 30
0.0
 10
283.8885583064
 20
197.3830969185
 30
0.0
 10
284.3151812476
 20
197.1698389069
 30
0.0
 10
284.5645620565
 20
196.9825141642
 30
0.0
 10
284.6716524704
 20
196.8799817896
 30
0.0
  0
SPLINE
  5
3D2
100
AcDbEntity
  8
0
100
AcDbSpline
 62
7
  6
CONTINUOUS
 70
0
 71
3
 72
21
 73
17
 74
0
 42
0.0000001
 43
0.0000001
 44
0.0000000001
 40
0.0
 40
0.0
 40
0.0
 40
0.0
 40
0.0431434757
 40
0.0885485564
 40
0.1379741474
 40
0.1923952643
 40
0.252080106
 40
0.3167286105
 40
0.3856213238
 40
0.4577408643
 40
0.6065092904
 40
0.7525400408
 40
0.8213962464
 40
0.885994047
 40
0.9456357547
 40
1.0
 40
1.0
 40
1.0
 40
1.0
 10
292.2951768422
 20
197.0156388556
 30
0.0
 10
292.3115416849
 20
197.0685079452
 30
0.0
 10
292.3615433256
 20
197.172563211
 30
0.0
 10
292.4804206833
 20
197.3062230208
 30
0.0
 10
292.6389760063
 20
197.4162027395
 30
0.0
 10
292.8323123184
 20
197.5003639773
 30
0.0
 10
293.0553028117
 20
197.5572320525
 30
0.0
 10
293.3021887684
 20
197.585610257
 30
0.0
 10
293.5665579565
 20
197.5848891609
 30
0.0
 10
293.9366739081
 20
197.5447386129
 30
0.0
 10
294.3950118594
 20
197.4254776005
 30
0.0
 10
294.8202423872
 20
197.2259309994
 30
0.0
 10
295.1171641602
 20
197.0238266656
 30
0.0
 10
295.3046945047
 20
196.8609546219
 30
0.0
 10
295.4563019898
 20
196.6881880888
 30
0.0
 10
295.5343463485
 20
196.5633938054
 30
0.0
 10
295.5650688033
 20
196.5007879891
 30
0.0
  0
SPLINE
  5
3D3
100
AcDbEntity
  8
0
100
AcDbSpline
 62
7
  6
CONTINUOUS
 70
0
 71
3
 72
11
 73
7
 74
0
 42
0.0000001
 43
0.0000001
 44
0.0000000001
 40
0.0
 40
0.0
 40
0.0
 40
0.0
 40
0.2083690143
 40
0.4434040951
 40
0.7081292457
 40
1.0
 40
1.0
 40
1.0
 40
1.0
 10
294.947752625
 20
208.6222650611
 30
0.0
 10
294.9181219111
 20
208.5860095782
 30
0.0
 10
294.8411199887
 20
208.51991866
 30
0.0
 10
294.6959841539
 20
208.4515067438
 30
0.0
 10
294.5219674224
 20
208.4100152813
 30
0.0
 10
294.396625497
 20
208.4015128633
 30
0.0
 10
294.3310379743
 20
208.4015128633
 30
0.0
  0
SPLINE
  5
3D4
100
AcDbEntity
  8
0
100
AcDbSpline
 62
7
  6
CONTINUOUS
 70
0
 71
3
 72
15
 73
11
 74
0
 42
0.0000001
 43
0.0000001
 44
0.0000000001
 40
0.0
 40
0.0
 40
0.0
 40
0.0
 40
0.1036488381
 40
0.2136809074
 40
0.3307152189
 40
0.4547346782
 40
0.5849247845
 40
0.7198928087
 40
0.8587693803
 40
1.0
 40
1.0
 40
1.0
 40
1.0
 10
302.7249358285
 20
241.1074790271
 30
0.0
 10
302.7133215977
 20
241.0643118056
 30
0.0
 10
302.6761292131
 20
240.9784921825
 30
0.0
 10
302.5865227453
 20
240.8657188681
 30
0.0
 10
302.4658871434
 20
240.7719909025
 30
0.0
 10
302.3199873562
 20
240.7031922956
 30
0.0
 10
302.1555875534
 20
240.6639516303
 30
0.0
 10
301.9802562647
 20
240.6583752152
 30
0.0
 10
301.8025738495
 20
240.6872759061
 30
0.0
 10
301.6881779274
 20
240.7287352551
 30
0.0
 10
301.6332217119
 20
240.7550020927
 30
0.0
  0
SPLINE
  5
3D5
100
AcDbEntity
  8
0
100
AcDbSpline
 62
7
  6
CONTINUOUS
 70
0
 71
3
 72
13
 73
9
 74
0
 42
0.0000001
 43
0.0000001
 44
0.0000000001
 40
0.0
 40
0.0
 40
0.0
 40
0.0
 40
0.2499521306
 40
0.4999027723
 40
0.6248831728
 40
0.7498746865
 40
0.8748952033
 40
1.0
 40
1.0
 40
1.0
 40
1.0
 10
300.6694347662
 20
224.0918104458
 30
0.0
 10
300.8759470419
 20
223.6197912545
 30
0.0
 10
301.2863990346
 20
222.6746287063
 30
0.0
 10
301.790180045
 20
221.4891543134
 30
0.0
 10
302.18382555
 20
220.5368232851
 30
0.0
 10
302.4724944672
 20
219.8197667892
 30
0.0
 10
302.7511803259
 20
219.0985052229
 30
0.0
 10
302.9260215535
 20
218.6133438267
 30
0.0
 10
303.0076756636
 20
218.3687385347
 30
0.0
  0
SPLINE
  5
3D6
100
AcDbEntity
  8
0
100
AcDbSpline
 62
7
  6
CONTINUOUS
 70
0
 71
3
 72
14
 73
10
 74
0
 42
0.0000001
 43
0.0000001
 44
0.0000000001
 40
0.0
 40
0.0
 40
0.0
 40
0.0
 40
0.0972251143
 40
0.2170133669
 40
0.3532240216
 40
0.4968574688
 40
0.7725640864
 40
0.8937361898
 40
1.0
 40
1.0
 40
1.0
 40
1.0
 10
300.2650943111
 20
225.8398860092
 30
0.0
 10
300.2641376664
 20
225.7814292239
 30
0.0
 10
300.2695789702
 20
225.6508401759
 30
0.0
 10
300.2931840363
 20
225.4396509277
 30
0.0
 10
300.3330313872
 20
225.2025440477
 30
0.0
 10
300.403881346
 20
224.8759976719
 30
0.0
 10
300.4922372065
 20
224.5627318957
 30
0.0
 10
300.5926325079
 20
224.2772522479
 30
0.0
 10
300.6438220897
 20
224.1503526067
 30
0.0
 10
300.6694347662
 20
224.0918104458
 30
0.0
  0
SPLINE
  5
3D7
100
AcDbEntity
  8
0
100
AcDbSpline
 62
7
  6
CONTINUOUS
 70
0
 71
3
 72
13
 73
9
 74
0
 42
0.0000001
 43
0.0000001
 44
0.0000000001
 40
0.0
 40
0.0
 40
0.0
 40
0.0
 40
0.123207389
 40
0.2475924431
 40
0.3725143088
 40
0.497729533
 40
0.7486629586
 40
1.0
 40
1.0
 40
1.0
 40
1.0
 10
287.7654375776
 20
217.5944843516
 30
0.0
 10
288.0419181557
 20
217.8804146415
 30
0.0
 10
288.6131321784
 20
218.4398740024
 30
0.0
 10
289.4939827634
 20
219.2585783641
 30
0.0
 10
290.3891103826
 20
220.0713404692
 30
0.0
 10
291.5943639573
 20
221.1501829274
 30
0.0
 10
293.1126891611
 20
222.491105478
 30
0.0
 10
294.3331526628
 20
223.5585999255
 30
0.0
 10
294.9447164309
 20
224.0918104458
 30
0.0
  0
SPLINE
  5
3D8
100
AcDbEntity
  8
0
100
AcDbSpline
 62
7
  6
CONTINUOUS
 70
0
 71
3
 72
14
 73
10
 74
0
 42
0.0000001
 43
0.0000001
 44
0.0000000001
 40
0.0
 40
0.0
 40
0.0
 40
0.0
 40
0.2556700773
 40
0.3870215883
 40
0.5183350001
 40
0.6471637855
 40
0.7709912345
 40
0.8884202945
 40
1.0
 40
1.0
 40
1.0
 40
1.0
 10
294.9447164309
 20
224.0918104458
 30
0.0
 10
295.0715920558
 20
224.2024308284
 30
0.0
 10
295.2411737015
 20
224.3991126801
 30
0.0
 10
295.3988614045
 20
224.7030905687
 30
0.0
 10
295.4761883366
 20
224.9506374187
 30
0.0
 10
295.5021381696
 20
225.2040400648
 30
0.0
 10
295.4709422077
 20
225.4481605635
 30
0.0
 10
295.3835101396
 20
225.6661768304
 30
0.0
 10
295.2909745708
 20
225.7878840775
 30
0.0
 10
295.2390859059
 20
225.8398860092
 30
0.0
  0
SPLINE
  5
3D9
100
AcDbEntity
  8
0
100
AcDbSpline
 62
7
  6
CONTINUOUS
 70
0
 71
3
 72
9
 73
5
 74
0
 42
0.0000001
 43
0.0000001
 44
0.0000000001
 40
0.0
 40
0.0
 40
0.0
 40
0.0
 40
0.2505049917
 40
1.0
 40
1.0
 40
1.0
 40
1.0
 10
302.4103088791
 20
217.5944843516
 30
0.0
 10
302.3938378869
 20
217.6599711362
 30
0.0
 10
302.3248275326
 20
217.9205729221
 30
0.0
 10
302.2444008327
 20
218.1780450411
 30
0.0
 10
302.1802656733
 20
218.3696296964
 30
0.0
  0
SPLINE
  5
3DA
100
AcDbEntity
  8
0
100
AcDbSpline
 62
7
  6
CONTINUOUS
 70
0
 71
3
 72
9
 73
5
 74
0
 42
0.0000001
 43
0.0000001
 44
0.0000000001
 40
0.0
 40
0.0
 40
0.0
 40
0.0
 40
0.2326856832
 40
1.0
 40
1.0
 40
1.0
 40
1.0
 10
298.0211885466
 20
235.0387457787
 30
0.0
 10
298.0123441737
 20
235.0707238082
 30
0.0
 10
297.9717262614
 20
235.2074325357
 30
0.0
 10
297.9219859265
 20
235.341315642
 30
0.0
 10
297.8806222211
 20
235.442606441
 30
0.0
  0
SPLINE
  5
3DB
100
AcDbEntity
  8
0
100
AcDbSpline
 62
7
  6
CONTINUOUS
 70
0
 71
3
 72
9
 73
5
 74
0
 42
0.0000001
 43
0.0000001
 44
0.0000000001
 40
0.0
 40
0.0
 40
0.0
 40
0.0
 40
0.4719963845
 40
1.0
 40
1.0
 40
1.0
 40
1.0
 10
298.0714707785
 20
234.8007733599
 30
0.0
 10
298.0665632833
 20
234.8387477778
 30
0.0
 10
298.0522221445
 20
234.9186990491
 30
0.0
 10
298.0325845243
 20
234.9974558229
 30
0.0
 10
298.0211885466
 20
235.0387457787
 30
0.0
  0
SPLINE
  5
3DC
100
AcDbEntity
  8
0
100
AcDbSpline
 62
7
  6
CONTINUOUS
 70
0
 71
3
 72
9
 73
5
 74
0
 42
0.0000001
 43
0.0000001
 44
0.0000000001
 40
0.0
 40
0.0
 40
0.0
 40
0.0
 40
0.2508355886
 40
1.0
 40
1.0
 40
1.0
 40
1.0
 10
298.1954649288
 20
233.605633914
 30
0.0
 10
298.1882277759
 20
233.7058453781
 30
0.0
 10
298.1555232024
 20
234.1050793117
 30
0.0
 10
298.1099305907
 20
234.5031696044
 30
0.0
 10
298.0714707785
 20
234.8007733599
 30
0.0
  0
SPLINE
  5
3DD
100
AcDbEntity
  8
0
100
AcDbSpline
 62
7
  6
CONTINUOUS
 70
0
 71
3
 72
12
 73
8
 74
0
 42
0.0000001
 43
0.0000001
 44
0.0000000001
 40
0.0
 40
0.0
 40
0.0
 40
0.0
 40
0.2548690266
 40
0.517295066
 40
0.7718762673
 40
0.8906058827
 40
1.0
 40
1.0
 40
1.0
 40
1.0
 10
297.8806222211
 20
235.442606441
 30
0.0
 10
297.8364323248
 20
235.5507364601
 30
0.0
 10
297.7388912595
 20
235.7670519984
 30
0.0
 10
297.5739404229
 20
236.0802127837
 30
0.0
 10
297.4217931583
 20
236.3290606627
 30
0.0
 10
297.2946400615
 20
236.510177346
 30
0.0
 10
297.2302686357
 20
236.5926574219
 30
0.0
 10
297.1980736482
 20
236.6310922406
 30
0.0
  0
SPLINE
  5
3DE
100
AcDbEntity
  8
0
100
AcDbSpline
 62
7
  6
CONTINUOUS
 70
0
 71
3
 72
11
 73
7
 74
0
 42
0.0000001
 43
0.0000001
 44
0.0000000001
 40
0.0
 40
0.0
 40
0.0
 40
0.0
 40
0.2378987816
 40
0.4924751635
 40
0.7503696674
 40
1.0
 40
1.0
 40
1.0
 40
1.0
 10
303.6965894394
 20
234.8007733599
 30
0.0
 10
303.7724983607
 20
234.8791351138
 30
0.0
 10
303.9174988011
 20
235.0530915174
 30
0.0
 10
304.1133052531
 20
235.3364580316
 30
0.0
 10
304.287734501
 20
235.6397600124
 30
0.0
 10
304.3831954765
 20
235.852852266
 30
0.0
 10
304.4217337636
 20
235.9606502139
 30
0.0
  0
SPLINE
  5
3DF
100
AcDbEntity
  8
0
100
AcDbSpline
 62
7
  6
CONTINUOUS
 70
0
 71
3
 72
9
 73
5
 74
0
 42
0.0000001
 43
0.0000001
 44
0.0000000001
 40
0.0
 40
0.0
 40
0.0
 40
0.0
 40
0.2489681879
 40
1.0
 40
1.0
 40
1.0
 40
1.0
 10
302.5937410718
 20
233.6679422689
 30
0.0
 10
302.6675589012
 20
233.7457386377
 30
0.0
 10
302.9651941068
 20
234.0571322112
 30
0.0
 10
303.2666525299
 20
234.3648529557
 30
0.0
 10
303.4943275411
 20
234.5946862599
 30
0.0
  0
SPLINE
  5
3E0
100
AcDbEntity
  8
0
100
AcDbSpline
 62
7
  6
CONTINUOUS
 70
0
 71
3
 72
11
 73
7
 74
0
 42
0.0000001
 43
0.0000001
 44
0.0000000001
 40
0.0
 40
0.0
 40
0.0
 40
0.0
 40
0.286120601
 40
0.5517729244
 40
0.7913185323
 40
1.0
 40
1.0
 40
1.0
 40
1.0
 10
304.4217337636
 20
235.9606502139
 30
0.0
 10
304.4437527626
 20
236.0221327068
 30
0.0
 10
304.4819784593
 20
236.1422891255
 30
0.0
 10
304.521628674
 20
236.3188002006
 30
0.0
 10
304.5399899795
 20
236.4810381779
 30
0.0
 10
304.536777002
 20
236.5839461074
 30
0.0
 10
304.5299971391
 20
236.6310922406
 30
0.0
  0
SPLINE
  5
3E1
100
AcDbEntity
  8
0
100
AcDbSpline
 62
7
  6
CONTINUOUS
 70
0
 71
3
 72
10
 73
6
 74
0
 42
0.0000001
 43
0.0000001
 44
0.0000000001
 40
0.0
 40
0.0
 40
0.0
 40
0.0
 40
0.479250344
 40
0.7287758999
 40
1.0
 40
1.0
 40
1.0
 40
1.0
 10
302.7249360516
 20
241.1074789875
 30
0.0
 10
302.786768276
 20
241.3372947684
 30
0.0
 10
302.8762457146
 20
241.687973946
 30
0.0
 10
303.0071613509
 20
242.1670106962
 30
0.0
 10
303.0805271504
 20
242.4150119333
 30
0.0
 10
303.1202927425
 20
242.5436935558
 30
0.0
  0
SPLINE
  5
3E2
100
AcDbEntity
  8
0
100
AcDbSpline
 62
7
  6
CONTINUOUS
 70
0
 71
3
 72
9
 73
5
 74
0
 42
0.0000001
 43
0.0000001
 44
0.0000000001
 40
0.0
 40
0.0
 40
0.0
 40
0.0
 40
0.508411801
 40
1.0
 40
1.0
 40
1.0
 40
1.0
 10
307.2032245787
 20
241.7218406019
 30
0.0
 10
307.219479722
 20
241.608804814
 30
0.0
 10
307.229441022
 20
241.3824802349
 30
0.0
 10
307.1882684664
 20
241.1593484748
 30
0.0
 10
307.1556597104
 20
241.0538535438
 30
0.0
  0
SPLINE
  5
3E3
100
AcDbEntity
  8
0
100
AcDbSpline
 62
7
  6
CONTINUOUS
 70
0
 71
3
 72
11
 73
7
 74
0
 42
0.0000001
 43
0.0000001
 44
0.0000000001
 40
0.0
 40
0.0
 40
0.0
 40
0.0
 40
0.2283325499
 40
0.4729214198
 40
0.7312595329
 40
1.0
 40
1.0
 40
1.0
 40
1.0
 10
300.1455342491
 20
241.8493770627
 30
0.0
 10
300.2364318443
 20
241.7408622641
 30
0.0
 10
300.4408606164
 20
241.5293753321
 30
0.0
 10
300.7926106895
 20
241.2420343046
 30
0.0
 10
301.1932524239
 20
240.9791870802
 30
0.0
 10
301.482634723
 20
240.8262843515
 30
0.0
 10
301.6332217315
 20
240.755002437
 30
0.0
  0
SPLINE
  5
3E4
100
AcDbEntity
  8
0
100
AcDbSpline
 62
7
  6
CONTINUOUS
 70
0
 71
3
 72
13
 73
9
 74
0
 42
0.0000001
 43
0.0000001
 44
0.0000000001
 40
0.0
 40
0.0
 40
0.0
 40
0.0
 40
0.2643339275
 40
0.5358573912
 40
0.6659247231
 40
0.7879127056
 40
0.899679059
 40
1.0
 40
1.0
 40
1.0
 40
1.0
 10
283.5107328442
 20
194.6002961838
 30
0.0
 10
283.3971253387
 20
194.6002961838
 30
0.0
 10
283.1664191103
 20
194.6314625579
 30
0.0
 10
282.8953809243
 20
194.7306818391
 30
0.0
 10
282.7004068303
 20
194.844048441
 30
0.0
 10
282.5761502378
 20
194.9398518827
 30
0.0
 10
282.4765360475
 20
195.044063163
 30
0.0
 10
282.4262351288
 20
195.121037828
 30
0.0
 10
282.4072403811
 20
195.1597450764
 30
0.0
  0
SPLINE
  5
3E5
100
AcDbEntity
  8
0
100
AcDbSpline
 62
7
  6
CONTINUOUS
 70
0
 71
3
 72
13
 73
9
 74
0
 42
0.0000001
 43
0.0000001
 44
0.0000000001
 40
0.0
 40
0.0
 40
0.0
 40
0.0
 40
0.0997550578
 40
0.2030737744
 40
0.3129226856
 40
0.4313271968
 40
0.6968638917
 40
1.0
 40
1.0
 40
1.0
 40
1.0
 10
296.2540467059
 20
194.8939102257
 30
0.0
 10
296.2471937852
 20
194.8717645879
 30
0.0
 10
296.2277527429
 20
194.8282044589
 30
0.0
 10
296.1835071528
 20
194.7698039472
 30
0.0
 10
296.1249921641
 20
194.7189291694
 30
0.0
 10
296.0260125093
 20
194.6598957515
 30
0.0
 10
295.8717290423
 20
194.6114328547
 30
0.0
 10
295.7391838975
 20
194.6002961838
 30
0.0
 10
295.6687392077
 20
194.6002961838
 30
0.0
  0
SPLINE
  5
3E6
100
AcDbEntity
  8
0
100
AcDbSpline
 62
7
  6
CONTINUOUS
 70
0
 71
3
 72
14
 73
10
 74
0
 42
0.0000001
 43
0.0000001
 44
0.0000000001
 40
0.0
 40
0.0
 40
0.0
 40
0.0
 40
0.2514577293
 40
0.5024620529
 40
0.6276884645
 40
0.7525996755
 40
0.8148678562
 40
0.8769370878
 40
1.0
 40
1.0
 40
1.0
 40
1.0
 10
295.8107484125
 20
224.0918104458
 30
0.0
 10
295.1947752642
 20
223.559523429
 30
0.0
 10
293.9659099855
 20
222.493627569
 30
0.0
 10
292.4380263708
 20
221.1537476028
 30
0.0
 10
291.2261565009
 20
220.0749777122
 30
0.0
 10
290.475721959
 20
219.3968616553
 30
0.0
 10
289.8823649047
 20
218.8499484852
 30
0.0
 10
289.2986203552
 20
218.3015452668
 30
0.0
 10
288.8704516254
 20
217.8817603305
 30
0.0
 10
288.5943925569
 20
217.5944843516
 30
0.0
  0
SPLINE
  5
3E7
100
AcDbEntity
  8
0
100
AcDbSpline
 62
7
  6
CONTINUOUS
 70
0
 71
3
 72
14
 73
10
 74
0
 42
0.0000001
 43
0.0000001
 44
0.0000000001
 40
0.0
 40
0.0
 40
0.0
 40
0.0
 40
0.1115507531
 40
0.2289401476
 40
0.35273686
 40
0.4815489736
 40
0.6128594317
 40
0.7442188957
 40
1.0
 40
1.0
 40
1.0
 40
1.0
 10
296.1152411408
 20
225.8398860092
 30
0.0
 10
296.1672013072
 20
225.78781242
 30
0.0
 10
296.2597794272
 20
225.6658385366
 30
0.0
 10
296.3466239722
 20
225.4471896201
 30
0.0
 10
296.3765068402
 20
225.2025204673
 30
0.0
 10
296.3487730756
 20
224.948904958
 30
0.0
 10
296.2695030619
 20
224.7015360269
 30
0.0
 10
296.1093841094
 20
224.398116334
 30
0.0
 10
295.9383751355
 20
224.2020977982
 30
0.0
 10
295.8107484125
 20
224.0918104458
 30
0.0
  0
SPLINE
  5
3E8
100
AcDbEntity
  8
0
100
AcDbSpline
 62
7
  6
CONTINUOUS
 70
0
 71
3
 72
11
 73
7
 74
0
 42
0.0000001
 43
0.0000001
 44
0.0000000001
 40
0.0
 40
0.0
 40
0.0
 40
0.0
 40
0.2506128798
 40
0.5111710078
 40
0.7658677953
 40
1.0
 40
1.0
 40
1.0
 40
1.0
 10
286.4661508081
 20
196.6516087899
 30
0.0
 10
286.3645039216
 20
196.6516087899
 30
0.0
 10
286.1568639817
 20
196.6733148266
 30
0.0
 10
285.8567677907
 20
196.758871045
 30
0.0
 10
285.5814920343
 20
196.891107379
 30
0.0
 10
285.4206470451
 20
197.0101475979
 30
0.0
 10
285.3520545966
 20
197.075820578
 30
0.0
  0
SPLINE
  5
3E9
100
AcDbEntity
  8
0
100
AcDbSpline
 62
7
  6
CONTINUOUS
 70
0
 71
3
 72
14
 73
10
 74
0
 42
0.0000001
 43
0.0000001
 44
0.0000000001
 40
0.0
 40
0.0
 40
0.0
 40
0.0
 40
0.1061697268
 40
0.2271747407
 40
0.5026560846
 40
0.6463637477
 40
0.7827538788
 40
0.9027131917
 40
1.0
 40
1.0
 40
1.0
 40
1.0
 10
299.8034027846
 20
224.0918104458
 30
0.0
 10
299.7772717728
 20
224.1501669965
 30
0.0
 10
299.7250025439
 20
224.276681149
 30
0.0
 10
299.6223174557
 20
224.5615222803
 30
0.0
 10
299.5317306782
 20
224.8744811719
 30
0.0
 10
299.4589624436
 20
225.2011451358
 30
0.0
 10
299.4179529401
 20
225.4386885868
 30
0.0
 10
299.3936222625
 20
225.6503743507
 30
0.0
 10
299.3879803753
 20
225.7813035796
 30
0.0
 10
299.3889390761
 20
225.8398860092
 30
0.0
  0
SPLINE
  5
3EA
100
AcDbEntity
  8
0
100
AcDbSpline
 62
7
  6
CONTINUOUS
 70
0
 71
3
 72
13
 73
9
 74
0
 42
0.0000001
 43
0.0000001
 44
0.0000000001
 40
0.0
 40
0.0
 40
0.0
 40
0.0
 40
0.1250971071
 40
0.2501105172
 40
0.3750977846
 40
0.5000768627
 40
0.7500327505
 40
1.0
 40
1.0
 40
1.0
 40
1.0
 10
302.1802656733
 20
218.3696296964
 30
0.0
 10
302.0982218166
 20
218.6147112417
 30
0.0
 10
301.9220049936
 20
219.1006173876
 30
0.0
 10
301.6398280711
 20
219.8223865498
 30
0.0
 10
301.3469319597
 20
220.5396160305
 30
0.0
 10
300.9467793911
 20
221.4917957037
 30
0.0
 10
300.4335478293
 20
222.6764783399
 30
0.0
 10
300.0144577348
 20
223.6204762694
 30
0.0
 10
299.8034027846
 20
224.0918104458
 30
0.0
  0
SPLINE
  5
3EB
100
AcDbEntity
  8
0
100
AcDbSpline
 62
7
  6
CONTINUOUS
 70
0
 71
3
 72
13
 73
9
 74
0
 42
0.0000001
 43
0.0000001
 44
0.0000000001
 40
0.0
 40
0.0
 40
0.0
 40
0.0
 40
0.0998226259
 40
0.2031430567
 40
0.3129745208
 40
0.4313976702
 40
0.6969045452
 40
1.0
 40
1.0
 40
1.0
 40
1.0
 10
291.3827754422
 20
196.9938174986
 30
0.0
 10
291.3747528508
 20
196.9679827765
 30
0.0
 10
291.3520769784
 20
196.9171644054
 30
0.0
 10
291.3003619621
 20
196.8491279977
 30
0.0
 10
291.2321029674
 20
196.7898323646
 30
0.0
 10
291.1166347612
 20
196.7210742606
 30
0.0
 10
290.9367371359
 20
196.664578091
 30
0.0
 10
290.7821845483
 20
196.6516087899
 30
0.0
 10
290.7000463629
 20
196.6516087899
 30
0.0
  0
SPLINE
  5
3EC
100
AcDbEntity
  8
0
100
AcDbSpline
 62
7
  6
CONTINUOUS
 70
0
 71
3
 72
12
 73
8
 74
0
 42
0.0000001
 43
0.0000001
 44
0.0000000001
 40
0.0
 40
0.0
 40
0.0
 40
0.0
 40
0.2297092519
 40
0.3523277441
 40
0.4788797313
 40
0.7388557502
 40
1.0
 40
1.0
 40
1.0
 40
1.0
 10
299.8594510492
 20
231.9363488291
 30
0.0
 10
299.9112989612
 20
231.8843877393
 30
0.0
 10
299.9990201763
 20
231.8125478373
 30
0.0
 10
300.1284298927
 20
231.7307441725
 30
0.0
 10
300.272004972
 20
231.6538963113
 30
0.0
 10
300.4647075314
 20
231.576533416
 30
0.0
 10
300.6266928419
 20
231.5354179909
 30
0.0
 10
300.7088433928
 20
231.5207531192
 30
0.0
  0
SPLINE
  5
3ED
100
AcDbEntity
  8
0
100
AcDbSpline
 62
7
  6
CONTINUOUS
 70
0
 71
3
 72
11
 73
7
 74
0
 42
0.0000001
 43
0.0000001
 44
0.0000000001
 40
0.0
 40
0.0
 40
0.0
 40
0.0
 40
0.2754827573
 40
0.5303991326
 40
0.7695038848
 40
1.0
 40
1.0
 40
1.0
 40
1.0
 10
299.1078609023
 20
224.0625002967
 30
0.0
 10
299.1377709829
 20
224.0769098505
 30
0.0
 10
299.1934367025
 20
224.109018137
 30
0.0
 10
299.2646383351
 20
224.1693282019
 30
0.0
 10
299.3184652863
 20
224.2389739825
 30
0.0
 10
299.3418644144
 20
224.2912117346
 30
0.0
 10
299.3500695422
 20
224.3177507863
 30
0.0
  0
SPLINE
  5
3EE
100
AcDbEntity
  8
0
100
AcDbSpline
 62
7
  6
CONTINUOUS
 70
0
 71
3
 72
11
 73
7
 74
0
 42
0.0000001
 43
0.0000001
 44
0.0000000001
 40
0.0
 40
0.0
 40
0.0
 40
0.0
 40
0.2766734667
 40
0.5422127154
 40
0.7856085212
 40
1.0
 40
1.0
 40
1.0
 40
1.0
 10
298.1407467597
 20
224.0625002967
 30
0.0
 10
298.2272820868
 20
224.0341945876
 30
0.0
 10
298.4012875119
 20
223.9914202348
 30
0.0
 10
298.6598617784
 20
223.9677143176
 30
0.0
 10
298.8982760258
 20
223.9877078166
 30
0.0
 10
299.0443008774
 20
224.0318794632
 30
0.0
 10
299.1078609023
 20
224.0625002967
 30
0.0
  0
SPLINE
  5
3EF
100
AcDbEntity
  8
0
100
AcDbSpline
 62
7
  6
CONTINUOUS
 70
0
 71
3
 72
10
 73
6
 74
0
 42
0.0000001
 43
0.0000001
 44
0.0000000001
 40
0.0
 40
0.0
 40
0.0
 40
0.0
 40
0.2305771971
 40
0.4772353162
 40
1.0
 40
1.0
 40
1.0
 40
1.0
 10
297.535616418
 20
224.4164102222
 30
0.0
 10
297.573961474
 20
224.3779814635
 30
0.0
 10
297.6595482634
 20
224.3045036673
 30
0.0
 10
297.8562391597
 20
224.17442715
 30
0.0
 10
298.0237657014
 20
224.1007648058
 30
0.0
 10
298.1407467597
 20
224.0625002967
 30
0.0
  0
SPLINE
  5
3F0
100
AcDbEntity
  8
0
100
AcDbSpline
 62
7
  6
CONTINUOUS
 70
0
 71
3
 72
19
 73
15
 74
0
 42
0.0000001
 43
0.0000001
 44
0.0000000001
 40
0.0
 40
0.0
 40
0.0
 40
0.0
 40
0.1319363311
 40
0.2752532271
 40
0.4226561328
 40
0.5661396648
 40
0.6341336476
 40
0.6985383377
 40
0.7587901665
 40
0.8145774413
 40
0.8659174331
 40
0.9132429243
 40
0.9574725161
 40
1.0
 40
1.0
 40
1.0
 40
1.0
 10
285.3520545966
 20
197.075820578
 30
0.0
 10
285.1896646225
 20
197.2312988233
 30
0.0
 10
284.8115159925
 20
197.5153566262
 30
0.0
 10
284.1645307916
 20
197.8387666035
 30
0.0
 10
283.4550080719
 20
198.0593301306
 30
0.0
 10
282.846095953
 20
198.1447162685
 30
0.0
 10
282.3753453701
 20
198.144948808
 30
0.0
 10
282.0480940178
 20
198.1118974133
 30
0.0
 10
281.7469261864
 20
198.0462775621
 30
0.0
 10
281.4777207314
 20
197.9491901183
 30
0.0
 10
281.2457895531
 20
197.822195874
 30
0.0
 10
281.0559386337
 20
197.6671240376
 30
0.0
 10
280.9127983501
 20
197.4865820283
 30
0.0
 10
280.8508401217
 20
197.3503639059
 30
0.0
 10
280.82944145
 20
197.281128387
 30
0.0
  0
SPLINE
  5
3F1
100
AcDbEntity
  8
0
100
AcDbSpline
 62
7
  6
CONTINUOUS
 70
0
 71
3
 72
11
 73
7
 74
0
 42
0.0000001
 43
0.0000001
 44
0.0000000001
 40
0.0
 40
0.0
 40
0.0
 40
0.0
 40
0.3265374103
 40
0.6067207522
 40
0.8314589583
 40
1.0
 40
1.0
 40
1.0
 40
1.0
 10
303.029137237
 20
233.2029779194
 30
0.0
 10
302.9987310228
 20
233.1693803651
 30
0.0
 10
302.9399283036
 20
233.1089815171
 30
0.0
 10
302.8509759548
 20
233.0348954574
 30
0.0
 10
302.770859483
 20
232.9863214341
 30
0.0
 10
302.7168050489
 20
232.9707159161
 30
0.0
 10
302.6934165443
 20
232.9707236108
 30
0.0
  0
SPLINE
  5
3F2
100
AcDbEntity
  8
0
100
AcDbSpline
 62
7
  6
CONTINUOUS
 70
0
 71
3
 72
9
 73
5
 74
0
 42
0.0000001
 43
0.0000001
 44
0.0000000001
 40
0.0
 40
0.0
 40
0.0
 40
0.0
 40
0.5027308792
 40
1.0
 40
1.0
 40
1.0
 40
1.0
 10
304.5536353669
 20
234.8007733599
 30
0.0
 10
304.2931085362
 20
234.5379046113
 30
0.0
 10
303.7783372772
 20
234.0115884254
 30
0.0
 10
303.2747822386
 20
233.4744050443
 30
0.0
 10
303.029137237
 20
233.2029779194
 30
0.0
  0
SPLINE
  5
3F3
100
AcDbEntity
  8
0
100
AcDbSpline
 62
7
  6
CONTINUOUS
 70
0
 71
3
 72
9
 73
5
 74
0
 42
0.0000001
 43
0.0000001
 44
0.0000000001
 40
0.0
 40
0.0
 40
0.0
 40
0.0
 40
0.2582273959
 40
1.0
 40
1.0
 40
1.0
 40
1.0
 10
304.761733202
 20
235.0387457787
 30
0.0
 10
304.7449864808
 20
235.0172879525
 30
0.0
 10
304.6790439334
 20
234.9350561503
 30
0.0
 10
304.6086753995
 20
234.8563081563
 30
0.0
 10
304.5536353669
 20
234.8007733599
 30
0.0
  0
SPLINE
  5
3F4
100
AcDbEntity
  8
0
100
AcDbSpline
 62
7
  6
CONTINUOUS
 70
0
 71
3
 72
13
 73
9
 74
0
 42
0.0000001
 43
0.0000001
 44
0.0000000001
 40
0.0
 40
0.0
 40
0.0
 40
0.0
 40
0.0942748471
 40
0.2007131297
 40
0.3177416838
 40
0.4436717287
 40
0.7147569479
 40
1.0
 40
1.0
 40
1.0
 40
1.0
 10
305.3813699407
 20
236.6310922406
 30
0.0
 10
305.3869910938
 20
236.5920035984
 30
0.0
 10
305.3911513964
 20
236.5076343488
 30
0.0
 10
305.3807217627
 20
236.3747126022
 30
0.0
 10
305.3547258947
 20
236.2304675026
 30
0.0
 10
305.2994444735
 20
236.0221716951
 30
0.0
 10
305.1976152342
 20
235.7543073667
 30
0.0
 10
305.0916531604
 20
235.5462549568
 30
0.0
 10
305.0322079655
 20
235.4426064412
 30
0.0
  0
SPLINE
  5
3F5
100
AcDbEntity
  8
0
100
AcDbSpline
 62
7
  6
CONTINUOUS
 70
0
 71
3
 72
9
 73
5
 74
0
 42
0.0000001
 43
0.0000001
 44
0.0000000001
 40
0.0
 40
0.0
 40
0.0
 40
0.0
 40
0.5050995727
 40
1.0
 40
1.0
 40
1.0
 40
1.0
 10
305.0322079655
 20
235.4426064412
 30
0.0
 10
304.9914843561
 20
235.3715627094
 30
0.0
 10
304.9059278543
 20
235.2336888815
 30
0.0
 10
304.8111202131
 20
235.101979289
 30
0.0
 10
304.761733202
 20
235.0387457787
 30
0.0
  0
SPLINE
  5
3F6
100
AcDbEntity
  8
0
100
AcDbSpline
 62
7
  6
CONTINUOUS
 70
0
 71
3
 72
14
 73
10
 74
0
 42
0.0000001
 43
0.0000001
 44
0.0000000001
 40
0.0
 40
0.0
 40
0.0
 40
0.0
 40
0.3213029299
 40
0.4573461375
 40
0.5781002185
 40
0.6866756439
 40
0.7884220717
 40
0.8904353109
 40
1.0
 40
1.0
 40
1.0
 40
1.0
 10
299.0884444136
 20
233.2029779194
 30
0.0
 10
299.090225953
 20
233.170786303
 30
0.0
 10
299.0897715654
 20
233.1244482894
 30
0.0
 10
299.0777825898
 20
233.0674997342
 30
0.0
 10
299.0642262501
 20
233.0331873736
 30
0.0
 10
299.0453041541
 20
233.0054613593
 30
0.0
 10
299.0208672433
 20
232.9851059115
 30
0.0
 10
298.9913499532
 20
232.9730133929
 30
0.0
 10
298.9699736379
 20
232.9707306745
 30
0.0
 10
298.9589794602
 20
232.970730717
 30
0.0
  0
SPLINE
  5
3F7
100
AcDbEntity
  8
0
100
AcDbSpline
 62
7
  6
CONTINUOUS
 70
0
 71
3
 72
9
 73
5
 74
0
 42
0.0000001
 43
0.0000001
 44
0.0000000001
 40
0.0
 40
0.0
 40
0.0
 40
0.0
 40
0.4986663631
 40
1.0
 40
1.0
 40
1.0
 40
1.0
 10
298.9531605177
 20
234.5946862599
 30
0.0
 10
298.9828447972
 20
234.3641287451
 30
0.0
 10
299.0373002057
 20
233.9011058065
 30
0.0
 10
299.0755305948
 20
233.4363248308
 30
0.0
 10
299.0884444136
 20
233.2029779194
 30
0.0
  0
SPLINE
  5
3F8
100
AcDbEntity
  8
0
100
AcDbSpline
 62
7
  6
CONTINUOUS
 70
0
 71
3
 72
10
 73
6
 74
0
 42
0.0000001
 43
0.0000001
 44
0.0000000001
 40
0.0
 40
0.0
 40
0.0
 40
0.0
 40
0.2254662113
 40
0.4722067228
 40
1.0
 40
1.0
 40
1.0
 40
1.0
 10
298.0494464498
 20
236.6310922406
 30
0.0
 10
298.0881486853
 20
236.5848889798
 30
0.0
 10
298.1652566111
 20
236.4847961248
 30
0.0
 10
298.3160160466
 20
236.2639516838
 30
0.0
 10
298.4206572669
 20
236.0849156134
 30
0.0
 10
298.487470879
 20
235.9606502139
 30
0.0
  0
SPLINE
  5
3F9
100
AcDbEntity
  8
0
100
AcDbSpline
 62
7
  6
CONTINUOUS
 70
0
 71
3
 72
11
 73
7
 74
0
 42
0.0000001
 43
0.0000001
 44
0.0000000001
 40
0.0
 40
0.0
 40
0.0
 40
0.0
 40
0.2833088852
 40
0.5530619265
 40
0.7964054801
 40
1.0
 40
1.0
 40
1.0
 40
1.0
 10
298.487470879
 20
235.9606502139
 30
0.0
 10
298.5432016065
 20
235.8568761439
 30
0.0
 10
298.6486497396
 20
235.6524490172
 30
0.0
 10
298.7835447448
 20
235.3497145008
 30
0.0
 10
298.8809733581
 20
235.0676751023
 30
0.0
 10
298.9195240433
 20
234.8849433593
 30
0.0
 10
298.928516706
 20
234.8007733599
 30
0.0
  0
SPLINE
  5
3FA
100
AcDbEntity
  8
0
100
AcDbSpline
 62
7
  6
CONTINUOUS
 70
0
 71
3
 72
11
 73
7
 74
0
 42
0.0000001
 43
0.0000001
 44
0.0000000001
 40
0.0
 40
0.0
 40
0.0
 40
0.0
 40
0.2714890378
 40
0.5255559641
 40
0.7663165942
 40
1.0
 40
1.0
 40
1.0
 40
1.0
 10
281.7491524811
 20
196.5007879891
 30
0.0
 10
281.7280236925
 20
196.5438439581
 30
0.0
 10
281.692978546
 20
196.6303027773
 30
0.0
 10
281.6638970541
 20
196.7632691048
 30
0.0
 10
281.6610781459
 20
196.8927903656
 30
0.0
 10
281.6770959739
 20
196.9758422517
 30
0.0
 10
281.6892837409
 20
197.0152842931
 30
0.0
  0
SPLINE
  5
3FB
100
AcDbEntity
  8
0
100
AcDbSpline
 62
7
  6
CONTINUOUS
 70
0
 71
3
 72
11
 73
7
 74
0
 42
0.0000001
 43
0.0000001
 44
0.0000000001
 40
0.0
 40
0.0
 40
0.0
 40
0.0
 40
0.233685556
 40
0.4744443655
 40
0.7285051759
 40
1.0
 40
1.0
 40
1.0
 40
1.0
 10
297.1139459198
 20
194.628290326
 30
0.0
 10
297.1265360737
 20
194.669032647
 30
0.0
 10
297.1430848886
 20
194.7548215355
 30
0.0
 10
297.1401747887
 20
194.8886110334
 30
0.0
 10
297.110138876
 20
195.0259607028
 30
0.0
 10
297.0739373749
 20
195.1152689662
 30
0.0
 10
297.0521116826
 20
195.1597450764
 30
0.0
  0
SPLINE
  5
3FC
100
AcDbEntity
  8
0
100
AcDbSpline
 62
7
  6
CONTINUOUS
 70
0
 71
3
 72
11
 73
7
 74
0
 42
0.0000001
 43
0.0000001
 44
0.0000000001
 40
0.0
 40
0.0
 40
0.0
 40
0.0
 40
0.2417451461
 40
0.492638338
 40
0.7472619102
 40
1.0
 40
1.0
 40
1.0
 40
1.0
 10
304.0216688597
 20
240.1938106139
 30
0.0
 10
303.8225795967
 20
240.1950930346
 30
0.0
 10
303.4167382646
 20
240.2230392604
 30
0.0
 10
302.8100459398
 20
240.3327249904
 30
0.0
 10
302.2094334295
 20
240.5075705071
 30
0.0
 10
301.8217525097
 20
240.6660746438
 30
0.0
 10
301.6339454368
 20
240.7558165122
 30
0.0
  0
SPLINE
  5
3FD
100
AcDbEntity
  8
0
100
AcDbSpline
 62
7
  6
CONTINUOUS
 70
0
 71
3
 72
11
 73
7
 74
0
 42
0.0000001
 43
0.0000001
 44
0.0000000001
 40
0.0
 40
0.0
 40
0.0
 40
0.0
 40
0.2113793747
 40
0.4532067894
 40
0.7195852969
 40
1.0
 40
1.0
 40
1.0
 40
1.0
 10
289.0519550299
 20
216.6620695307
 30
0.0
 10
289.0776006957
 20
216.6098091283
 30
0.0
 10
289.1510926335
 20
216.506695039
 30
0.0
 10
289.3004478165
 20
216.3747544829
 30
0.0
 10
289.4865911555
 20
216.2609855978
 30
0.0
 10
289.6264000834
 20
216.2032486538
 30
0.0
 10
289.6997302026
 20
216.179029436
 30
0.0
  0
SPLINE
  5
3FE
100
AcDbEntity
  8
0
100
AcDbSpline
 62
7
  6
CONTINUOUS
 70
0
 71
3
 72
9
 73
5
 74
0
 42
0.0000001
 43
0.0000001
 44
0.0000000001
 40
0.0
 40
0.0
 40
0.0
 40
0.0
 40
0.5084652901
 40
1.0
 40
1.0
 40
1.0
 40
1.0
 10
305.4603486053
 20
236.0818866467
 30
0.0
 10
305.4766024196
 20
235.9688600996
 30
0.0
 10
305.486389358
 20
235.7425677793
 30
0.0
 10
305.4452910862
 20
235.519489845
 30
0.0
 10
305.4127558787
 20
235.4140063799
 30
0.0
  0
SPLINE
  5
3FF
100
AcDbEntity
  8
0
100
AcDbSpline
 62
7
  6
CONTINUOUS
 70
0
 71
3
 72
13
 73
9
 74
0
 42
0.0000001
 43
0.0000001
 44
0.0000000001
 40
0.0
 40
0.0
 40
0.0
 40
0.0
 40
0.1086717679
 40
0.2247071864
 40
0.3470986127
 40
0.4744921184
 40
0.7375153523
 40
1.0
 40
1.0
 40
1.0
 40
1.0
 10
298.4026582757
 20
236.2094231075
 30
0.0
 10
298.488958298
 20
236.1063969545
 30
0.0
 10
298.6820285763
 20
235.9053782923
 30
0.0
 10
299.0126572605
 20
235.6304718146
 30
0.0
 10
299.3884201867
 20
235.3772209974
 30
0.0
 10
299.9450318889
 20
235.0717653086
 30
0.0
 10
300.7003319011
 20
234.7757509423
 30
0.0
 10
301.3387371413
 20
234.6370914384
 30
0.0
 10
301.6607519885
 20
234.5960725673
 30
0.0
  0
SPLINE
  5
400
100
AcDbEntity
  8
0
100
AcDbSpline
 62
7
  6
CONTINUOUS
 70
0
 71
3
 72
9
 73
5
 74
0
 42
0.0000001
 43
0.0000001
 44
0.0000000001
 40
0.0
 40
0.0
 40
0.0
 40
0.0
 40
0.5181719026
 40
1.0
 40
1.0
 40
1.0
 40
1.0
 10
302.6260969682
 20
234.5648789188
 30
0.0
 10
302.7737904301
 20
234.5754298822
 30
0.0
 10
303.058034471
 20
234.61064904
 30
0.0
 10
303.3361317391
 20
234.6806017989
 30
0.0
 10
303.4667429098
 20
234.724164755
 30
0.0
  0
SPLINE
  5
401
100
AcDbEntity
  8
0
100
AcDbSpline
 62
7
  6
CONTINUOUS
 70
0
 71
3
 72
23
 73
19
 74
0
 42
0.0000001
 43
0.0000001
 44
0.0000000001
 40
0.0
 40
0.0
 40
0.0
 40
0.0
 40
0.0543489766
 40
0.1139670387
 40
0.1785460697
 40
0.2473798907
 40
0.3194497322
 40
0.3935416699
 40
0.4683244737
 40
0.542429341
 40
0.6145245293
 40
0.6833930258
 40
0.7480175268
 40
0.8076794106
 40
0.8620795195
 40
0.9114860429
 40
0.9568753495
 40
1.0
 40
1.0
 40
1.0
 40
1.0
 10
296.3940237826
 20
196.5007879891
 30
0.0
 10
296.3474299629
 20
196.5957362653
 30
0.0
 10
296.2290801542
 20
196.7849911836
 30
0.0
 10
295.9991481035
 20
197.0469940241
 30
0.0
 10
295.7147634967
 20
197.2939739904
 30
0.0
 10
295.383561038
 20
197.5194737874
 30
0.0
 10
295.014259889
 20
197.7176258081
 30
0.0
 10
294.6167262153
 20
197.8831601009
 30
0.0
 10
294.2015903138
 20
198.011647122
 30
0.0
 10
293.7799795247
 20
198.099644357
 30
0.0
 10
293.3631759657
 20
198.1447940272
 30
0.0
 10
292.9622825839
 20
198.1458769811
 30
0.0
 10
292.5878844734
 20
198.1028125742
 30
0.0
 10
292.2497385204
 20
198.0165441644
 30
0.0
 10
291.9565666307
 20
197.8888907828
 30
0.0
 10
291.7161376905
 20
197.7220866935
 30
0.0
 10
291.5359084601
 20
197.5193623874
 30
0.0
 10
291.4601055284
 20
197.3615591852
 30
0.0
 10
291.4353053881
 20
197.2813855042
 30
0.0
  0
SPLINE
  5
402
100
AcDbEntity
  8
0
100
AcDbSpline
 62
7
  6
CONTINUOUS
 70
0
 71
3
 72
14
 73
10
 74
0
 42
0.0000001
 43
0.0000001
 44
0.0000000001
 40
0.0
 40
0.0
 40
0.0
 40
0.0
 40
0.3669551679
 40
0.5276014708
 40
0.6687310548
 40
0.787791617
 40
0.8828690872
 40
0.9531320069
 40
1.0
 40
1.0
 40
1.0
 40
1.0
 10
113.0886651785
 20
92.8668076203
 30
0.0
 10
113.1508346098
 20
92.8248164902
 30
0.0
 10
113.2413842468
 20
92.7661608566
 30
0.0
 10
113.3570482415
 20
92.6932832915
 30
0.0
 10
113.4295825775
 20
92.6469755708
 30
0.0
 10
113.4899569267
 20
92.6066646913
 30
0.0
 10
113.5368795168
 20
92.5720466651
 30
0.0
 10
113.5690533498
 20
92.5432319783
 30
0.0
 10
113.5837461479
 20
92.5232487679
 30
0.0
 10
113.5865110387
 20
92.5140744441
 30
0.0
  0
SPLINE
  5
403
100
AcDbEntity
  8
0
100
AcDbSpline
 62
7
  6
CONTINUOUS
 70
0
 71
3
 72
14
 73
10
 74
0
 42
0.0000001
 43
0.0000001
 44
0.0000000001
 40
0.0
 40
0.0
 40
0.0
 40
0.0
 40
0.046868397
 40
0.1171321704
 40
0.2122110246
 40
0.3312720945
 40
0.4724021859
 40
0.6330480587
 40
1.0
 40
1.0
 40
1.0
 40
1.0
 10
117.4134889934
 20
92.5140744571
 30
0.0
 10
117.4162539049
 20
92.5232488843
 30
0.0
 10
117.4309471612
 20
92.543232191
 30
0.0
 10
117.4631212372
 20
92.5720474862
 30
0.0
 10
117.5100446213
 20
92.6066656778
 30
0.0
 10
117.5704195144
 20
92.6469768953
 30
0.0
 10
117.6429540317
 20
92.6932849423
 30
0.0
 10
117.7586177497
 20
92.7661623213
 30
0.0
 10
117.8491675463
 20
92.8248168505
 30
0.0
 10
117.9113358964
 20
92.8668087166
 30
0.0
  0
LINE
  5
404
100
AcDbEntity
  8
0
100
AcDbLine
 62
7
  6
CONTINUOUS
 10
113.5865110128
 20
92.5140744546
 11
113.7
 21
92.1375
  0
LINE
  5
405
100
AcDbEntity
  8
0
100
AcDbLine
 62
7
  6
CONTINUOUS
 10
117.4134889872
 20
92.5140744546
 11
117.3
 21
92.1375
  0
SPLINE
  5
406
100
AcDbEntity
  8
0
100
AcDbSpline
 62
7
  6
CONTINUOUS
 70
0
 71
3
 72
9
 73
5
 74
0
 42
0.0000001
 43
0.0000001
 44
0.0000000001
 40
0.0
 40
0.0
 40
0.0
 40
0.0
 40
0.4808044847
 40
1.0
 40
1.0
 40
1.0
 40
1.0
 10
118.7645308148
 20
95.7056119713
 30
0.0
 10
118.8202502469
 20
95.8069282003
 30
0.0
 10
118.919531089
 20
96.0269456771
 30
0.0
 10
118.9895169193
 20
96.2577884777
 30
0.0
 10
119.0179809313
 20
96.3793604168
 30
0.0
  0
SPLINE
  5
407
100
AcDbEntity
  8
0
100
AcDbSpline
 62
7
  6
CONTINUOUS
 70
0
 71
3
 72
9
 73
5
 74
0
 42
0.0000001
 43
0.0000001
 44
0.0000000001
 40
0.0
 40
0.0
 40
0.0
 40
0.0
 40
0.5191956568
 40
1.0
 40
1.0
 40
1.0
 40
1.0
 10
111.9820190687
 20
96.3793604168
 30
0.0
 10
112.0104828031
 20
96.2577896632
 30
0.0
 10
112.0804677916
 20
96.0269491474
 30
0.0
 10
112.1797471743
 20
95.8069336959
 30
0.0
 10
112.2354656891
 20
95.7056183241
 30
0.0
  0
SPLINE
  5
408
100
AcDbEntity
  8
0
100
AcDbSpline
 62
7
  6
CONTINUOUS
 70
0
 71
3
 72
12
 73
8
 74
0
 42
0.0000001
 43
0.0000001
 44
0.0000000001
 40
0.0
 40
0.0
 40
0.0
 40
0.0
 40
0.1123710282
 40
0.2324701091
 40
0.4829152117
 40
0.7397544594
 40
1.0
 40
1.0
 40
1.0
 40
1.0
 10
123.0
 20
96.1875
 30
0.0
 10
122.8342226704
 20
96.1643486364
 30
0.0
 10
122.4907458519
 20
96.1202108349
 30
0.0
 10
121.7764136577
 20
96.0354507055
 30
0.0
 10
120.8476742673
 20
95.9314136076
 30
0.0
 10
119.7110912324
 20
95.8076684555
 30
0.0
 10
118.9452161757
 20
95.7257646348
 30
0.0
 10
118.5597320912
 20
95.6847711263
 30
0.0
  0
LINE
  5
409
100
AcDbEntity
  8
0
100
AcDbLine
 62
7
  6
CONTINUOUS
 10
118.5597320912
 20
95.6847711263
 11
118.5449887906
 21
95.6832033979
  0
LINE
  5
40A
100
AcDbEntity
  8
0
100
AcDbLine
 62
7
  6
CONTINUOUS
 10
118.5449887906
 20
95.6832033979
 11
118.438042747
 21
95.6718382387
  0
LINE
  5
40B
100
AcDbEntity
  8
0
100
AcDbLine
 62
7
  6
CONTINUOUS
 10
112.5619275609
 20
95.6718413879
 11
112.4550146077
 21
95.6832030337
  0
LINE
  5
40C
100
AcDbEntity
  8
0
100
AcDbLine
 62
7
  6
CONTINUOUS
 10
112.4550146077
 20
95.6832030337
 11
112.397813546
 21
95.6892868297
  0
SPLINE
  5
40D
100
AcDbEntity
  8
0
100
AcDbSpline
 62
7
  6
CONTINUOUS
 70
0
 71
3
 72
12
 73
8
 74
0
 42
0.0000001
 43
0.0000001
 44
0.0000000001
 40
0.0
 40
0.0
 40
0.0
 40
0.0
 40
0.2602707246
 40
0.517119525
 40
0.7675469174
 40
0.887625242
 40
1.0
 40
1.0
 40
1.0
 40
1.0
 10
112.397813546
 20
95.6892868297
 30
0.0
 10
112.0159772282
 20
95.7299101281
 30
0.0
 10
111.2573722079
 20
95.8110738436
 30
0.0
 10
110.1316299445
 20
95.9337040696
 30
0.0
 10
109.2118135301
 20
96.0368099209
 30
0.0
 10
108.5043649207
 20
96.120823343
 30
0.0
 10
108.1641989702
 20
96.1645690597
 30
0.0
 10
108.0
 20
96.1875
 30
0.0
  0
SPLINE
  5
40E
100
AcDbEntity
  8
0
100
AcDbSpline
 62
7
  6
CONTINUOUS
 70
0
 71
3
 72
9
 73
5
 74
0
 42
0.0000001
 43
0.0000001
 44
0.0000000001
 40
0.0
 40
0.0
 40
0.0
 40
0.0
 40
0.4863845422
 40
1.0
 40
1.0
 40
1.0
 40
1.0
 10
111.257696946
 20
95.8084942868
 30
0.0
 10
111.214891544
 20
95.896891985
 30
0.0
 10
111.1379108426
 20
96.0840910387
 30
0.0
 10
111.0813236808
 20
96.2783762291
 30
0.0
 10
111.0576799423
 20
96.3793604168
 30
0.0
  0
SPLINE
  5
40F
100
AcDbEntity
  8
0
100
AcDbSpline
 62
7
  6
CONTINUOUS
 70
0
 71
3
 72
9
 73
5
 74
0
 42
0.0000001
 43
0.0000001
 44
0.0000000001
 40
0.0
 40
0.0
 40
0.0
 40
0.0
 40
0.5136154153
 40
1.0
 40
1.0
 40
1.0
 40
1.0
 10
119.9423200577
 20
96.3793604168
 30
0.0
 10
119.9186763574
 20
96.2783763922
 30
0.0
 10
119.862089299
 20
96.0840914961
 30
0.0
 10
119.785108765
 20
95.8968927109
 30
0.0
 10
119.7423034593
 20
95.8084951238
 30
0.0
  0
SPLINE
  5
410
100
AcDbEntity
  8
0
100
AcDbSpline
 62
7
  6
CONTINUOUS
 70
0
 71
3
 72
9
 73
5
 74
0
 42
0.0000001
 43
0.0000001
 44
0.0000000001
 40
0.0
 40
0.0
 40
0.0
 40
0.0
 40
0.5000603487
 40
1.0
 40
1.0
 40
1.0
 40
1.0
 10
112.8784807388
 20
215.8125
 30
0.0
 10
112.8888628282
 20
215.8125
 30
0.0
 10
112.9098430251
 20
215.8156908658
 30
0.0
 10
112.9283159018
 20
215.8262248077
 30
0.0
 10
112.9363713394
 20
215.8327704688
 30
0.0
  0
SPLINE
  5
411
100
AcDbEntity
  8
0
100
AcDbSpline
 62
7
  6
CONTINUOUS
 70
0
 71
3
 72
13
 73
9
 74
0
 42
0.0000001
 43
0.0000001
 44
0.0000000001
 40
0.0
 40
0.0
 40
0.0
 40
0.0
 40
0.1414468435
 40
0.241456359
 40
0.3622555231
 40
0.5020979537
 40
0.6576772799
 40
1.0
 40
1.0
 40
1.0
 40
1.0
 10
112.9363713394
 20
215.8327704688
 30
0.0
 10
112.9641402426
 20
215.855334833
 30
0.0
 10
112.9892431545
 20
215.9172340793
 30
0.0
 10
112.9999748754
 20
216.0072846731
 30
0.0
 10
112.998450383
 20
216.0990959639
 30
0.0
 10
112.9858004483
 20
216.2036389549
 30
0.0
 10
112.9539846609
 20
216.3619601539
 30
0.0
 10
112.9173455356
 20
216.482792924
 30
0.0
 10
112.8887490894
 20
216.5645297481
 30
0.0
  0
SPLINE
  5
412
100
AcDbEntity
  8
0
100
AcDbSpline
 62
7
  6
CONTINUOUS
 70
0
 71
3
 72
9
 73
5
 74
0
 42
0.0000001
 43
0.0000001
 44
0.0000000001
 40
0.0
 40
0.0
 40
0.0
 40
0.0
 40
0.2448107036
 40
1.0
 40
1.0
 40
1.0
 40
1.0
 10
112.8371244903
 20
227.5125
 30
0.0
 10
112.8526977871
 20
227.512499998
 30
0.0
 10
112.9162941131
 20
227.5149720406
 30
0.0
 10
112.9794568894
 20
227.5271814616
 30
0.0
 10
113.0253818349
 20
227.5412801393
 30
0.0
  0
SPLINE
  5
413
100
AcDbEntity
  8
0
100
AcDbSpline
 62
7
  6
CONTINUOUS
 70
0
 71
3
 72
9
 73
5
 74
0
 42
0.0000001
 43
0.0000001
 44
0.0000000001
 40
0.0
 40
0.0
 40
0.0
 40
0.0
 40
0.2471597923
 40
1.0
 40
1.0
 40
1.0
 40
1.0
 10
113.0253818349
 20
227.5412801393
 30
0.0
 10
113.0348934279
 20
227.5442001403
 30
0.0
 10
113.0731106526
 20
227.5568689599
 30
0.0
 10
113.1102009829
 20
227.5729074761
 30
0.0
 10
113.137213164
 20
227.5866488425
 30
0.0
  0
SPLINE
  5
414
100
AcDbEntity
  8
0
100
AcDbSpline
 62
7
  6
CONTINUOUS
 70
0
 71
3
 72
11
 73
7
 74
0
 42
0.0000001
 43
0.0000001
 44
0.0000000001
 40
0.0
 40
0.0
 40
0.0
 40
0.0
 40
0.2362185344
 40
0.4834540089
 40
0.738904455
 40
1.0
 40
1.0
 40
1.0
 40
1.0
 10
113.137213164
 20
227.5866488425
 30
0.0
 10
113.1994892158
 20
227.6183292923
 30
0.0
 10
113.3180785794
 20
227.7019612721
 30
0.0
 10
113.4588025552
 20
227.8722908314
 30
0.0
 10
113.5547900835
 20
228.0794403208
 30
0.0
 10
113.58238869
 20
228.2316942513
 30
0.0
 10
113.5865110387
 20
228.3088135211
 30
0.0
  0
SPLINE
  5
415
100
AcDbEntity
  8
0
100
AcDbSpline
 62
7
  6
CONTINUOUS
 70
0
 71
3
 72
11
 73
7
 74
0
 42
0.0000001
 43
0.0000001
 44
0.0000000001
 40
0.0
 40
0.0
 40
0.0
 40
0.0
 40
0.2610952115
 40
0.5165454422
 40
0.7637803659
 40
1.0
 40
1.0
 40
1.0
 40
1.0
 10
117.4134889934
 20
228.3088135251
 30
0.0
 10
117.4176108877
 20
228.231702425
 30
0.0
 10
117.4452044297
 20
228.0794646151
 30
0.0
 10
117.5411729616
 20
227.8723336803
 30
0.0
 10
117.6818694093
 20
227.7020119097
 30
0.0
 10
117.8004374453
 20
227.6183768237
 30
0.0
 10
117.8627031429
 20
227.5866914337
 30
0.0
  0
SPLINE
  5
416
100
AcDbEntity
  8
0
100
AcDbSpline
 62
7
  6
CONTINUOUS
 70
0
 71
3
 72
9
 73
5
 74
0
 42
0.0000001
 43
0.0000001
 44
0.0000000001
 40
0.0
 40
0.0
 40
0.0
 40
0.0
 40
0.2531315353
 40
1.0
 40
1.0
 40
1.0
 40
1.0
 10
117.8627031429
 20
227.5866914337
 30
0.0
 10
117.8718290943
 20
227.5820474749
 30
0.0
 10
117.9082631693
 20
227.5644641734
 30
0.0
 10
117.9462026218
 20
227.5499803431
 30
0.0
 10
117.975090825
 20
227.5411348972
 30
0.0
  0
SPLINE
  5
417
100
AcDbEntity
  8
0
100
AcDbSpline
 62
7
  6
CONTINUOUS
 70
0
 71
3
 72
9
 73
5
 74
0
 42
0.0000001
 43
0.0000001
 44
0.0000000001
 40
0.0
 40
0.0
 40
0.0
 40
0.0
 40
0.4985258292
 40
1.0
 40
1.0
 40
1.0
 40
1.0
 10
113.5865110128
 20
228.3088135243
 30
0.0
 10
113.6060855738
 20
228.6750076867
 30
0.0
 10
113.6631787179
 20
229.408301054
 30
0.0
 10
113.7
 20
230.1436142329
 30
0.0
 10
113.7
 20
230.5125
 30
0.0
  0
SPLINE
  5
418
100
AcDbEntity
  8
0
100
AcDbSpline
 62
7
  6
CONTINUOUS
 70
0
 71
3
 72
9
 73
5
 74
0
 42
0.0000001
 43
0.0000001
 44
0.0000000001
 40
0.0
 40
0.0
 40
0.0
 40
0.0
 40
0.4985258292
 40
1.0
 40
1.0
 40
1.0
 40
1.0
 10
117.4134889872
 20
228.3088135243
 30
0.0
 10
117.3939144262
 20
228.6750076867
 30
0.0
 10
117.3368212821
 20
229.408301054
 30
0.0
 10
117.3
 20
230.1436142329
 30
0.0
 10
117.3
 20
230.5125
 30
0.0
  0
SPLINE
  5
419
100
AcDbEntity
  8
0
100
AcDbSpline
 62
7
  6
CONTINUOUS
 70
0
 71
3
 72
14
 73
10
 74
0
 42
0.0000001
 43
0.0000001
 44
0.0000000001
 40
0.0
 40
0.0
 40
0.0
 40
0.0
 40
0.3535020827
 40
0.5100726753
 40
0.649839592
 40
0.7703455948
 40
0.8693340305
 40
0.9454507535
 40
1.0
 40
1.0
 40
1.0
 40
1.0
 10
111.6177462405
 20
219.6476117575
 30
0.0
 10
111.5652322621
 20
219.7377205428
 30
0.0
 10
111.4859514728
 20
219.8658113624
 30
0.0
 10
111.3757721489
 20
220.0227643228
 30
0.0
 10
111.3003941338
 20
220.1200306729
 30
0.0
 10
111.2304015865
 20
220.1996905065
 30
0.0
 10
111.1668655248
 20
220.2598859392
 30
0.0
 10
111.1116125353
 20
220.2991101247
 30
0.0
 10
111.0737737035
 20
220.3125
 30
0.0
 10
111.0576799423
 20
220.3125
 30
0.0
  0
SPLINE
  5
41A
100
AcDbEntity
  8
0
100
AcDbSpline
 62
7
  6
CONTINUOUS
 70
0
 71
3
 72
9
 73
5
 74
0
 42
0.0000001
 43
0.0000001
 44
0.0000000001
 40
0.0
 40
0.0
 40
0.0
 40
0.0
 40
0.4999334127
 40
1.0
 40
1.0
 40
1.0
 40
1.0
 10
112.8887490894
 20
216.5645297481
 30
0.0
 10
112.7500675814
 20
216.9609211724
 30
0.0
 10
112.4560807856
 20
217.7480206682
 30
0.0
 10
112.14161886
 20
218.527005122
 30
0.0
 10
111.9811429601
 20
218.9152063308
 30
0.0
  0
SPLINE
  5
41B
100
AcDbEntity
  8
0
100
AcDbSpline
 62
7
  6
CONTINUOUS
 70
0
 71
3
 72
14
 73
10
 74
0
 42
0.0000001
 43
0.0000001
 44
0.0000000001
 40
0.0
 40
0.0
 40
0.0
 40
0.0
 40
0.0545492464
 40
0.1306659693
 40
0.2296544049
 40
0.3501604078
 40
0.4899273245
 40
0.6464979171
 40
1.0
 40
1.0
 40
1.0
 40
1.0
 10
119.9423200577
 20
220.3125
 30
0.0
 10
119.9262262965
 20
220.3125
 30
0.0
 10
119.8883874648
 20
220.2991101248
 30
0.0
 10
119.8331344753
 20
220.2598859393
 30
0.0
 10
119.7695984137
 20
220.1996905067
 30
0.0
 10
119.6996058663
 20
220.1200306731
 30
0.0
 10
119.6242278513
 20
220.022764323
 30
0.0
 10
119.5140485274
 20
219.8658113626
 30
0.0
 10
119.434767738
 20
219.7377205429
 30
0.0
 10
119.3822537595
 20
219.6476117577
 30
0.0
  0
SPLINE
  5
41C
100
AcDbEntity
  8
0
100
AcDbSpline
 62
7
  6
CONTINUOUS
 70
0
 71
3
 72
13
 73
9
 74
0
 42
0.0000001
 43
0.0000001
 44
0.0000000001
 40
0.0
 40
0.0
 40
0.0
 40
0.0
 40
0.2500120546
 40
0.5000200962
 40
0.6250221274
 40
0.7500217981
 40
0.8750159374
 40
1.0
 40
1.0
 40
1.0
 40
1.0
 10
118.6076757063
 20
204.9309560137
 30
0.0
 10
119.0665608752
 20
204.2109582093
 30
0.0
 10
119.9813110617
 20
202.7690529286
 30
0.0
 10
121.1133058652
 20
200.9594412975
 30
0.0
 10
122.0061176576
 20
199.5038850302
 30
0.0
 10
122.6655208503
 20
198.4060303379
 30
0.0
 10
123.3081297875
 20
197.2983453809
 30
0.0
 10
123.7114077132
 20
196.5453994915
 30
0.0
 10
123.9
 20
196.1625
 30
0.0
  0
SPLINE
  5
41D
100
AcDbEntity
  8
0
100
AcDbSpline
 62
7
  6
CONTINUOUS
 70
0
 71
3
 72
11
 73
7
 74
0
 42
0.0000001
 43
0.0000001
 44
0.0000000001
 40
0.0
 40
0.0
 40
0.0
 40
0.0
 40
0.2577304663
 40
0.4967585077
 40
0.7368930004
 40
1.0
 40
1.0
 40
1.0
 40
1.0
 10
118.2283795124
 20
206.2125
 30
0.0
 10
118.2185251124
 20
206.2125
 30
0.0
 10
118.1993985236
 20
206.2104974151
 30
0.0
 10
118.1729566289
 20
206.199482543
 30
0.0
 10
118.1514222933
 20
206.180237913
 30
0.0
 10
118.1414889904
 20
206.1634300876
 30
0.0
 10
118.1373713141
 20
206.1542514273
 30
0.0
  0
SPLINE
  5
41E
100
AcDbEntity
  8
0
100
AcDbSpline
 62
7
  6
CONTINUOUS
 70
0
 71
3
 72
16
 73
12
 74
0
 42
0.0000001
 43
0.0000001
 44
0.0000000001
 40
0.0
 40
0.0
 40
0.0
 40
0.0
 40
0.0288331776
 40
0.0631300333
 40
0.103479624
 40
0.1499484835
 40
0.2599928924
 40
0.3892077132
 40
0.5323516757
 40
0.684472486
 40
1.0
 40
1.0
 40
1.0
 40
1.0
 10
118.1373713141
 20
206.1542514273
 30
0.0
 10
118.1321133977
 20
206.1425310721
 30
0.0
 10
118.1242510219
 20
206.1152241357
 30
0.0
 10
118.1199688679
 20
206.069163539
 30
0.0
 10
118.1222166288
 20
206.0151241733
 30
0.0
 10
118.1345748346
 20
205.9281905775
 30
0.0
 10
118.1671639948
 20
205.8047514919
 30
0.0
 10
118.2257184027
 20
205.6446297497
 30
0.0
 10
118.3025549592
 20
205.471691609
 30
0.0
 10
118.425880584
 20
205.2290383851
 30
0.0
 10
118.5321227436
 20
205.0494997606
 30
0.0
 10
118.6076757063
 20
204.9309560137
 30
0.0
  0
SPLINE
  5
41F
100
AcDbEntity
  8
0
100
AcDbSpline
 62
7
  6
CONTINUOUS
 70
0
 71
3
 72
9
 73
5
 74
0
 42
0.0000001
 43
0.0000001
 44
0.0000000001
 40
0.0
 40
0.0
 40
0.0
 40
0.0
 40
0.5000665873
 40
1.0
 40
1.0
 40
1.0
 40
1.0
 10
119.0188570399
 20
218.9152063308
 30
0.0
 10
118.85838114
 20
218.527005122
 30
0.0
 10
118.5439192144
 20
217.7480206682
 30
0.0
 10
118.2499324186
 20
216.9609211724
 30
0.0
 10
118.1112509106
 20
216.5645297481
 30
0.0
  0
SPLINE
  5
420
100
AcDbEntity
  8
0
100
AcDbSpline
 62
7
  6
CONTINUOUS
 70
0
 71
3
 72
16
 73
12
 74
0
 42
0.0000001
 43
0.0000001
 44
0.0000000001
 40
0.0
 40
0.0
 40
0.0
 40
0.0
 40
0.1851081652
 40
0.3605660309
 40
0.5209132751
 40
0.6611159191
 40
0.7775774472
 40
0.8694734563
 40
0.9402431058
 40
0.9707001401
 40
1.0
 40
1.0
 40
1.0
 40
1.0
 10
118.1112509106
 20
216.5645297481
 30
0.0
 10
118.0949505446
 20
216.5179386387
 30
0.0
 10
118.0654622905
 20
216.426366261
 30
0.0
 10
118.0308289435
 20
216.2917486195
 30
0.0
 10
118.0083130965
 20
216.1666819253
 30
0.0
 10
117.9990201628
 20
216.0556600212
 30
0.0
 10
118.0034131111
 20
215.9624235825
 30
0.0
 10
118.0207866272
 20
215.8894967026
 30
0.0
 10
118.0481890575
 20
215.8440268685
 30
0.0
 10
118.0762879814
 20
215.8228191769
 30
0.0
 10
118.0913554782
 20
215.8169602684
 30
0.0
 10
118.0989489187
 20
215.8151211199
 30
0.0
  0
SPLINE
  5
421
100
AcDbEntity
  8
0
100
AcDbSpline
 62
7
  6
CONTINUOUS
 70
0
 71
3
 72
13
 73
9
 74
0
 42
0.0000001
 43
0.0000001
 44
0.0000000001
 40
0.0
 40
0.0
 40
0.0
 40
0.0
 40
0.1249841483
 40
0.2499783185
 40
0.3749779756
 40
0.499979987
 40
0.7499879863
 40
1.0
 40
1.0
 40
1.0
 40
1.0
 10
107.1
 20
196.1625
 30
0.0
 10
107.2885924152
 20
196.5453997521
 30
0.0
 10
107.6918720103
 20
197.2983451995
 30
0.0
 10
108.3344800226
 20
198.4060310607
 30
0.0
 10
108.9938833259
 20
199.5038856818
 30
0.0
 10
109.8866945174
 20
200.9594419982
 30
0.0
 10
111.0186891505
 20
202.7690533131
 30
0.0
 10
111.9334392022
 20
204.2109583307
 30
0.0
 10
112.3923242937
 20
204.9309560137
 30
0.0
  0
SPLINE
  5
422
100
AcDbEntity
  8
0
100
AcDbSpline
 62
7
  6
CONTINUOUS
 70
0
 71
3
 72
15
 73
11
 74
0
 42
0.0000001
 43
0.0000001
 44
0.0000000001
 40
0.0
 40
0.0
 40
0.0
 40
0.0
 40
0.3228542386
 40
0.4778878676
 40
0.6227650375
 40
0.7519133413
 40
0.8596120694
 40
0.9040771588
 40
0.9420163078
 40
1.0
 40
1.0
 40
1.0
 40
1.0
 10
112.3923242937
 20
204.9309560137
 30
0.0
 10
112.4708367757
 20
205.0541432913
 30
0.0
 10
112.5808921109
 20
205.2406249729
 30
0.0
 10
112.7074526242
 20
205.4924824681
 30
0.0
 10
112.7849150252
 20
205.670647407
 30
0.0
 10
112.8420002442
 20
205.8338451299
 30
0.0
 10
112.8715936817
 20
205.95804764
 30
0.0
 10
112.8798264155
 20
206.0439802691
 30
0.0
 10
112.878316671
 20
206.1072209318
 30
0.0
 10
112.8670622203
 20
206.1514878537
 30
0.0
 10
112.8521122224
 20
206.1730470715
 30
0.0
  0
SPLINE
  5
423
100
AcDbEntity
  8
0
100
AcDbSpline
 62
7
  6
CONTINUOUS
 70
0
 71
3
 72
9
 73
5
 74
0
 42
0.0000001
 43
0.0000001
 44
0.0000000001
 40
0.0
 40
0.0
 40
0.0
 40
0.0
 40
0.2596079022
 40
1.0
 40
1.0
 40
1.0
 40
1.0
 10
112.8521122224
 20
206.1730470715
 30
0.0
 10
112.8503274491
 20
206.1756208722
 30
0.0
 10
112.8430163505
 20
206.1852216573
 30
0.0
 10
112.8337938622
 20
206.1933953507
 30
0.0
 10
112.8262363907
 20
206.1981571837
 30
0.0
  0
SPLINE
  5
424
100
AcDbEntity
  8
0
100
AcDbSpline
 62
7
  6
CONTINUOUS
 70
0
 71
3
 72
11
 73
7
 74
0
 42
0.0000001
 43
0.0000001
 44
0.0000000001
 40
0.0
 40
0.0
 40
0.0
 40
0.0
 40
0.2144727977
 40
0.4612871386
 40
0.7276036579
 40
1.0
 40
1.0
 40
1.0
 40
1.0
 10
112.2785725827
 20
220.0505157825
 30
0.0
 10
112.3349070977
 20
219.9762659124
 30
0.0
 10
112.4508470934
 20
219.8125552887
 30
0.0
 10
112.6168975359
 20
219.5432010935
 30
0.0
 10
112.7750451386
 20
219.2403304841
 30
0.0
 10
112.8679767516
 20
219.0252321537
 30
0.0
 10
112.9116414238
 20
218.9152063308
 30
0.0
  0
SPLINE
  5
425
100
AcDbEntity
  8
0
100
AcDbSpline
 62
7
  6
CONTINUOUS
 70
0
 71
3
 72
13
 73
9
 74
0
 42
0.0000001
 43
0.0000001
 44
0.0000000001
 40
0.0
 40
0.0
 40
0.0
 40
0.0
 40
0.0665928842
 40
0.1483682983
 40
0.2475660325
 40
0.364701985
 40
0.6507979453
 40
1.0
 40
1.0
 40
1.0
 40
1.0
 10
111.9820190687
 20
220.3125
 30
0.0
 10
111.9909842711
 20
220.3125
 30
0.0
 10
112.0109318749
 20
220.3084443424
 30
0.0
 10
112.0412073625
 20
220.2941619552
 30
0.0
 10
112.0746135461
 20
220.2717154607
 30
0.0
 10
112.1265649819
 20
220.2282772295
 30
0.0
 10
112.1965170894
 20
220.154644187
 30
0.0
 10
112.2501315263
 20
220.0879488948
 30
0.0
 10
112.2785725827
 20
220.0505157825
 30
0.0
  0
SPLINE
  5
426
100
AcDbEntity
  8
0
100
AcDbSpline
 62
7
  6
CONTINUOUS
 70
0
 71
3
 72
9
 73
5
 74
0
 42
0.0000001
 43
0.0000001
 44
0.0000000001
 40
0.0
 40
0.0
 40
0.0
 40
0.0
 40
0.5000565392
 40
1.0
 40
1.0
 40
1.0
 40
1.0
 10
113.0348176783
 20
218.6120109982
 30
0.0
 10
113.1746578799
 20
218.2734377343
 30
0.0
 10
113.4495633957
 20
217.594394283
 30
0.0
 10
113.7091231056
 20
216.9092392191
 30
0.0
 10
113.8328236987
 20
216.5645297481
 30
0.0
  0
SPLINE
  5
427
100
AcDbEntity
  8
0
100
AcDbSpline
 62
7
  6
CONTINUOUS
 70
0
 71
3
 72
17
 73
13
 74
0
 42
0.0000001
 43
0.0000001
 44
0.0000000001
 40
0.0
 40
0.0
 40
0.0
 40
0.0
 40
0.1904652727
 40
0.3701533276
 40
0.5327102547
 40
0.6724378808
 40
0.785619981
 40
0.8322029774
 40
0.8726430246
 40
0.9391489133
 40
0.9692892696
 40
1.0
 40
1.0
 40
1.0
 40
1.0
 10
113.8328236987
 20
216.5645297481
 30
0.0
 10
113.8504699238
 20
216.515356007
 30
0.0
 10
113.8822836042
 20
216.4188665606
 30
0.0
 10
113.9192117787
 20
216.2773765364
 30
0.0
 10
113.942405078
 20
216.1470187573
 30
0.0
 10
113.9504878567
 20
216.03312493
 30
0.0
 10
113.9442491167
 20
215.9506434132
 30
0.0
 10
113.9299127438
 20
215.8973976085
 30
0.0
 10
113.9129659725
 20
215.8588316636
 30
0.0
 10
113.8874461098
 20
215.8287073875
 30
0.0
 10
113.8549528011
 20
215.8145557789
 30
0.0
 10
113.8381501291
 20
215.8125
 30
0.0
 10
113.8297262602
 20
215.8125
 30
0.0
  0
SPLINE
  5
428
100
AcDbEntity
  8
0
100
AcDbSpline
 62
7
  6
CONTINUOUS
 70
0
 71
3
 72
9
 73
5
 74
0
 42
0.0000001
 43
0.0000001
 44
0.0000000001
 40
0.0
 40
0.0
 40
0.0
 40
0.0
 40
0.499614229
 40
1.0
 40
1.0
 40
1.0
 40
1.0
 10
113.9016581118
 20
228.4598976414
 30
0.0
 10
113.8626960866
 20
228.8013037844
 30
0.0
 10
113.7617378024
 20
229.4812845236
 30
0.0
 10
113.7
 20
230.1683471854
 30
0.0
 10
113.7
 20
230.5125
 30
0.0
  0
SPLINE
  5
429
100
AcDbEntity
  8
0
100
AcDbSpline
 62
7
  6
CONTINUOUS
 70
0
 71
3
 72
13
 73
9
 74
0
 42
0.0000001
 43
0.0000001
 44
0.0000000001
 40
0.0
 40
0.0
 40
0.0
 40
0.0
 40
0.2732352296
 40
0.5354377586
 40
0.6606726942
 40
0.7800032396
 40
0.8932718092
 40
1.0
 40
1.0
 40
1.0
 40
1.0
 10
113.9016578989
 20
228.4598976294
 30
0.0
 10
113.9154507406
 20
228.3390368097
 30
0.0
 10
113.8957078773
 20
228.0942804774
 30
0.0
 10
113.7569116826
 20
227.825454466
 30
0.0
 10
113.5962552437
 20
227.6650396524
 30
0.0
 10
113.4615924252
 20
227.577537075
 30
0.0
 10
113.3187308092
 20
227.5247833098
 30
0.0
 10
113.2204800914
 20
227.5125
 30
0.0
 10
113.1729643178
 20
227.5125
 30
0.0
  0
SPLINE
  5
42A
100
AcDbEntity
  8
0
100
AcDbSpline
 62
7
  6
CONTINUOUS
 70
0
 71
3
 72
9
 73
5
 74
0
 42
0.0000001
 43
0.0000001
 44
0.0000000001
 40
0.0
 40
0.0
 40
0.0
 40
0.0
 40
0.2568626719
 40
1.0
 40
1.0
 40
1.0
 40
1.0
 10
113.5865110129
 20
228.3088135243
 30
0.0
 10
113.6144110033
 20
228.3196788627
 30
0.0
 10
113.7222818065
 20
228.3638460998
 30
0.0
 10
113.8269409703
 20
228.4160690425
 30
0.0
 10
113.9016581118
 20
228.4598976414
 30
0.0
  0
SPLINE
  5
42B
100
AcDbEntity
  8
0
100
AcDbSpline
 62
7
  6
CONTINUOUS
 70
0
 71
3
 72
13
 73
9
 74
0
 42
0.0000001
 43
0.0000001
 44
0.0000000001
 40
0.0
 40
0.0
 40
0.0
 40
0.0
 40
0.1067292754
 40
0.2199916477
 40
0.3393203511
 40
0.4645587982
 40
0.7267677459
 40
1.0
 40
1.0
 40
1.0
 40
1.0
 10
117.82703597
 20
227.5125
 30
0.0
 10
117.7795196907
 20
227.5125
 30
0.0
 10
117.6812710298
 20
227.5247815926
 30
0.0
 10
117.5384121783
 20
227.5775345453
 30
0.0
 10
117.4037515628
 20
227.6650364557
 30
0.0
 10
117.2430885325
 20
227.8254498975
 30
0.0
 10
117.1042913369
 20
228.0942805219
 30
0.0
 10
117.08454932
 20
228.3390380743
 30
0.0
 10
117.0983420449
 20
228.4598976326
 30
0.0
  0
SPLINE
  5
42C
100
AcDbEntity
  8
0
100
AcDbSpline
 62
7
  6
CONTINUOUS
 70
0
 71
3
 72
17
 73
13
 74
0
 42
0.0000001
 43
0.0000001
 44
0.0000000001
 40
0.0
 40
0.0
 40
0.0
 40
0.0
 40
0.0307107862
 40
0.0608513257
 40
0.1273580879
 40
0.16779849
 40
0.214382387
 40
0.3275653847
 40
0.4672931474
 40
0.6298495828
 40
0.8095356818
 40
1.0
 40
1.0
 40
1.0
 40
1.0
 10
117.1702737398
 20
215.8125
 30
0.0
 10
117.161849856
 20
215.8125
 30
0.0
 10
117.1450471251
 20
215.8145558203
 30
0.0
 10
117.1125535295
 20
215.828707583
 30
0.0
 10
117.0870336903
 20
215.8588324155
 30
0.0
 10
117.0700866237
 20
215.8973988643
 30
0.0
 10
117.0557509303
 20
215.9506454839
 30
0.0
 10
117.0495120619
 20
216.0331274251
 30
0.0
 10
117.0575951389
 20
216.1470214331
 30
0.0
 10
117.0807886724
 20
216.2773784963
 30
0.0
 10
117.1177167126
 20
216.4188675823
 30
0.0
 10
117.1495301655
 20
216.5153562559
 30
0.0
 10
117.1671763013
 20
216.5645297481
 30
0.0
  0
SPLINE
  5
42D
100
AcDbEntity
  8
0
100
AcDbSpline
 62
7
  6
CONTINUOUS
 70
0
 71
3
 72
9
 73
5
 74
0
 42
0.0000001
 43
0.0000001
 44
0.0000000001
 40
0.0
 40
0.0
 40
0.0
 40
0.0
 40
0.499614229
 40
1.0
 40
1.0
 40
1.0
 40
1.0
 10
117.0983418882
 20
228.4598976414
 30
0.0
 10
117.1373039134
 20
228.8013037844
 30
0.0
 10
117.2382621976
 20
229.4812845236
 30
0.0
 10
117.3
 20
230.1683471854
 30
0.0
 10
117.3
 20
230.5125
 30
0.0
  0
SPLINE
  5
42E
100
AcDbEntity
  8
0
100
AcDbSpline
 62
7
  6
CONTINUOUS
 70
0
 71
3
 72
14
 73
10
 74
0
 42
0.0000001
 43
0.0000001
 44
0.0000000001
 40
0.0
 40
0.0
 40
0.0
 40
0.0
 40
0.2500148581
 40
0.5000249961
 40
0.6250278366
 40
0.7500275223
 40
0.8125262378
 40
0.8750231465
 40
1.0
 40
1.0
 40
1.0
 40
1.0
 10
113.3325789552
 20
204.9309560137
 30
0.0
 10
112.8685100271
 20
204.2121464773
 30
0.0
 10
111.9439208795
 20
202.7722533987
 30
0.0
 10
110.8011765429
 20
200.9640856868
 30
0.0
 10
109.9012122503
 20
199.5087142652
 30
0.0
 10
109.3476857101
 20
198.5936366057
 30
0.0
 10
108.9143490371
 20
197.855935765
 30
0.0
 10
108.4901983443
 20
197.1130763483
 30
0.0
 10
108.1874826667
 20
196.5469119078
 30
0.0
 10
108.0
 20
196.1625
 30
0.0
  0
SPLINE
  5
42F
100
AcDbEntity
  8
0
100
AcDbSpline
 62
7
  6
CONTINUOUS
 70
0
 71
3
 72
19
 73
15
 74
0
 42
0.0000001
 43
0.0000001
 44
0.0000000001
 40
0.0
 40
0.0
 40
0.0
 40
0.0
 40
0.0269001911
 40
0.0520088036
 40
0.07947973
 40
0.1129212553
 40
0.1542952946
 40
0.2042389026
 40
0.262484416
 40
0.3282766423
 40
0.4781440997
 40
0.6449761248
 40
0.8209377275
 40
1.0
 40
1.0
 40
1.0
 40
1.0
 10
113.7228660089
 20
206.2125
 30
0.0
 10
113.7359057487
 20
206.2125
 30
0.0
 10
113.7615556087
 20
206.2089821151
 30
0.0
 10
113.7950887928
 20
206.187469916
 30
0.0
 10
113.8174096597
 20
206.1509463889
 30
0.0
 10
113.8286866057
 20
206.1021430797
 30
0.0
 10
113.8300000625
 20
206.0414038944
 30
0.0
 10
113.8214055395
 20
205.9692539436
 30
0.0
 10
113.8032719126
 20
205.8867896353
 30
0.0
 10
113.7652213312
 20
205.7594916303
 30
0.0
 10
113.6968235072
 20
205.5868253623
 30
0.0
 10
113.5928096074
 20
205.3717090283
 30
0.0
 10
113.4700301614
 20
205.1504078053
 30
0.0
 10
113.3796583232
 20
205.0038785833
 30
0.0
 10
113.3325789552
 20
204.9309560137
 30
0.0
  0
SPLINE
  5
430
100
AcDbEntity
  8
0
100
AcDbSpline
 62
7
  6
CONTINUOUS
 70
0
 71
3
 72
14
 73
10
 74
0
 42
0.0000001
 43
0.0000001
 44
0.0000000001
 40
0.0
 40
0.0
 40
0.0
 40
0.0
 40
0.1249774167
 40
0.1874742492
 40
0.2499729573
 40
0.3749725649
 40
0.4999753275
 40
0.749985305
 40
1.0
 40
1.0
 40
1.0
 40
1.0
 10
123.0
 20
196.1625
 30
0.0
 10
122.8125164857
 20
196.5469136455
 30
0.0
 10
122.5098092391
 20
197.1130846088
 30
0.0
 10
122.0856452717
 20
197.8559384047
 30
0.0
 10
121.6523138624
 20
198.5936416432
 30
0.0
 10
121.0987853681
 20
199.5087175606
 30
0.0
 10
120.1988219206
 20
200.964088218
 30
0.0
 10
119.056078265
 20
202.7722547929
 30
0.0
 10
118.1314896766
 20
204.2121469364
 30
0.0
 10
117.6674210448
 20
204.9309560137
 30
0.0
  0
SPLINE
  5
431
100
AcDbEntity
  8
0
100
AcDbSpline
 62
7
  6
CONTINUOUS
 70
0
 71
3
 72
19
 73
15
 74
0
 42
0.0000001
 43
0.0000001
 44
0.0000000001
 40
0.0
 40
0.0
 40
0.0
 40
0.0
 40
0.1790639105
 40
0.3550256361
 40
0.5218561997
 40
0.6717222303
 40
0.7375142681
 40
0.7957600458
 40
0.845704011
 40
0.8870784837
 40
0.9205203365
 40
0.9479913172
 40
0.9730998694
 40
1.0
 40
1.0
 40
1.0
 40
1.0
 10
117.6674210448
 20
204.9309560137
 30
0.0
 10
117.6203412464
 20
205.0038792499
 30
0.0
 10
117.5299690013
 20
205.1504092246
 30
0.0
 10
117.4071895666
 20
205.3717106165
 30
0.0
 10
117.3031763116
 20
205.586825774
 30
0.0
 10
117.2347790691
 20
205.7594906514
 30
0.0
 10
117.1967284886
 20
205.8867879743
 30
0.0
 10
117.1785947341
 20
205.9692524616
 30
0.0
 10
117.1699999874
 20
206.041402919
 30
0.0
 10
117.1713134774
 20
206.1021426125
 30
0.0
 10
117.1825902202
 20
206.1509464306
 30
0.0
 10
117.2049114092
 20
206.1874699183
 30
0.0
 10
117.2384444265
 20
206.208982302
 30
0.0
 10
117.2640942807
 20
206.2125
 30
0.0
 10
117.2771339911
 20
206.2125
 30
0.0
  0
SPLINE
  5
432
100
AcDbEntity
  8
0
100
AcDbSpline
 62
7
  6
CONTINUOUS
 70
0
 71
3
 72
9
 73
5
 74
0
 42
0.0000001
 43
0.0000001
 44
0.0000000001
 40
0.0
 40
0.0
 40
0.0
 40
0.0
 40
0.2425691632
 40
1.0
 40
1.0
 40
1.0
 40
1.0
 10
117.0983418882
 20
228.4598976414
 30
0.0
 10
117.1227313936
 20
228.4455909756
 30
0.0
 10
117.2245663121
 20
228.3888137313
 30
0.0
 10
117.3312149296
 20
228.3408535997
 30
0.0
 10
117.4134889872
 20
228.3088135243
 30
0.0
  0
SPLINE
  5
433
100
AcDbEntity
  8
0
100
AcDbSpline
 62
7
  6
CONTINUOUS
 70
0
 71
3
 72
13
 73
9
 74
0
 42
0.0000001
 43
0.0000001
 44
0.0000000001
 40
0.0
 40
0.0
 40
0.0
 40
0.0
 40
0.3492025037
 40
0.6352985375
 40
0.7524344053
 40
0.8516319547
 40
0.9334071581
 40
1.0
 40
1.0
 40
1.0
 40
1.0
 10
118.7214274173
 20
220.0505157825
 30
0.0
 10
118.7498685104
 20
220.087948943
 30
0.0
 10
118.8034829953
 20
220.1546442867
 30
0.0
 10
118.8734351505
 20
220.2282773684
 30
0.0
 10
118.9253865896
 20
220.2717155549
 30
0.0
 10
118.9587927246
 20
220.2941620048
 30
0.0
 10
118.9890681634
 20
220.3084443586
 30
0.0
 10
119.0090157345
 20
220.3125
 30
0.0
 10
119.0179809313
 20
220.3125
 30
0.0
  0
SPLINE
  5
434
100
AcDbEntity
  8
0
100
AcDbSpline
 62
7
  6
CONTINUOUS
 70
0
 71
3
 72
9
 73
5
 74
0
 42
0.0000001
 43
0.0000001
 44
0.0000000001
 40
0.0
 40
0.0
 40
0.0
 40
0.0
 40
0.4999434599
 40
1.0
 40
1.0
 40
1.0
 40
1.0
 10
117.1671763013
 20
216.5645297481
 30
0.0
 10
117.2908768942
 20
216.9092392185
 30
0.0
 10
117.5504366044
 20
217.5943942823
 30
0.0
 10
117.8253421199
 20
218.2734377337
 30
0.0
 10
117.9651823217
 20
218.6120109982
 30
0.0
  0
SPLINE
  5
435
100
AcDbEntity
  8
0
100
AcDbSpline
 62
7
  6
CONTINUOUS
 70
0
 71
3
 72
11
 73
7
 74
0
 42
0.0000001
 43
0.0000001
 44
0.0000000001
 40
0.0
 40
0.0
 40
0.0
 40
0.0
 40
0.2723992674
 40
0.538715687
 40
0.7855287309
 40
1.0
 40
1.0
 40
1.0
 40
1.0
 10
118.0883585762
 20
218.9152063308
 30
0.0
 10
118.1320237172
 20
219.0252333348
 30
0.0
 10
118.2249560188
 20
219.2403327085
 30
0.0
 10
118.38310401
 20
219.5432038602
 30
0.0
 10
118.5491539959
 20
219.8125568423
 30
0.0
 10
118.665093304
 20
219.9762664419
 30
0.0
 10
118.7214274173
 20
220.0505157825
 30
0.0
  0
SPLINE
  5
436
100
AcDbEntity
  8
0
100
AcDbSpline
 62
7
  6
CONTINUOUS
 70
0
 71
3
 72
14
 73
10
 74
0
 42
0.0000001
 43
0.0000001
 44
0.0000000001
 40
0.0
 40
0.0
 40
0.0
 40
0.0
 40
0.1000051114
 40
0.1996988092
 40
0.306293076
 40
0.4243754616
 40
0.555517291
 40
0.6979240953
 40
1.0
 40
1.0
 40
1.0
 40
1.0
 10
281.4
 20
93.9404606554
 30
0.0
 10
281.4
 20
93.8993816829
 30
0.0
 10
281.4108465137
 20
93.8166763746
 30
0.0
 10
281.4654797571
 20
93.701232223
 30
0.0
 10
281.5553509322
 20
93.6007900885
 30
0.0
 10
281.675855266
 20
93.5164899094
 30
0.0
 10
281.8212231012
 20
93.4464519451
 30
0.0
 10
282.0451770205
 20
93.369470339
 30
0.0
 10
282.2248021127
 20
93.3327860488
 30
0.0
 10
282.3473976326
 20
93.3136284756
 30
0.0
  0
SPLINE
  5
437
100
AcDbEntity
  8
0
100
AcDbSpline
 62
7
  6
CONTINUOUS
 70
0
 71
3
 72
9
 73
5
 74
0
 42
0.0000001
 43
0.0000001
 44
0.0000000001
 40
0.0
 40
0.0
 40
0.0
 40
0.0
 40
0.5008179656
 40
1.0
 40
1.0
 40
1.0
 40
1.0
 10
282.3473976414
 20
93.3136284176
 30
0.0
 10
282.6892553605
 20
93.2602075434
 30
0.0
 10
283.3656312403
 20
93.1226083956
 30
0.0
 10
284.0551237484
 20
93.0375
 30
0.0
 10
284.4
 20
93.0375
 30
0.0
  0
SPLINE
  5
438
100
AcDbEntity
  8
0
100
AcDbSpline
 62
7
  6
CONTINUOUS
 70
0
 71
3
 72
9
 73
5
 74
0
 42
0.0000001
 43
0.0000001
 44
0.0000000001
 40
0.0
 40
0.0
 40
0.0
 40
0.0
 40
0.250869527
 40
1.0
 40
1.0
 40
1.0
 40
1.0
 10
282.1963135243
 20
92.5140744546
 30
0.0
 10
282.3804286637
 20
92.4814181341
 30
0.0
 10
283.107361427
 20
92.3231834198
 30
0.0
 10
283.8416259844
 20
92.1375
 30
0.0
 10
284.4
 20
92.1375
 30
0.0
  0
SPLINE
  5
439
100
AcDbEntity
  8
0
100
AcDbSpline
 62
7
  6
CONTINUOUS
 70
0
 71
3
 72
9
 73
5
 74
0
 42
0.0000001
 43
0.0000001
 44
0.0000000001
 40
0.0
 40
0.0
 40
0.0
 40
0.0
 40
0.2522114086
 40
1.0
 40
1.0
 40
1.0
 40
1.0
 10
282.3473976414
 20
93.3136284176
 30
0.0
 10
282.3333159921
 20
93.2466819969
 30
0.0
 10
282.2785956796
 20
92.9810133637
 30
0.0
 10
282.2293954788
 20
92.7141932475
 30
0.0
 10
282.1963135243
 20
92.5140744546
 30
0.0
  0
SPLINE
  5
43A
100
AcDbEntity
  8
0
100
AcDbSpline
 62
7
  6
CONTINUOUS
 70
0
 71
3
 72
14
 73
10
 74
0
 42
0.0000001
 43
0.0000001
 44
0.0000000001
 40
0.0
 40
0.0
 40
0.0
 40
0.0
 40
0.3113686118
 40
0.4541833594
 40
0.5844650753
 40
0.7012646809
 40
0.8062678795
 40
0.9037147211
 40
1.0
 40
1.0
 40
1.0
 40
1.0
 10
282.1963135251
 20
92.5140744571
 30
0.0
 10
282.0905768204
 20
92.5328288684
 30
0.0
 10
281.9371264297
 20
92.5674452479
 30
0.0
 10
281.7476594936
 20
92.6371412241
 30
0.0
 10
281.6273449831
 20
92.6980972215
 30
0.0
 10
281.5284702475
 20
92.7697752103
 30
0.0
 10
281.4547188965
 20
92.8530722356
 30
0.0
 10
281.4094371183
 20
92.9472514415
 30
0.0
 10
281.3999999898
 20
93.0145834851
 30
0.0
 10
281.4
 20
93.047791046
 30
0.0
  0
ELLIPSE
  5
43B
100
AcDbEntity
  8
0
100
AcDbEllipse
 62
7
  6
CONTINUOUS
 10
291.8038443228
 20
195.7191939689
 30
0.0
 11
-0.0601884853
 21
2.6999060523
 31
0.0
 40
0.3740438115
 41
-1.4088621899
 42
-1.2027333093
  0
ELLIPSE
  5
43C
100
AcDbEntity
  8
0
100
AcDbEllipse
 62
7
  6
CONTINUOUS
 10
293.1820499129
 20
197.5851727069
 30
0.0
 11
-0.0334380474
 21
1.4999478068
 31
0.0
 40
0.3740438115
 41
-4.5963311049
 42
-4.3443259629
  0
ELLIPSE
  5
43D
100
AcDbEntity
  8
0
100
AcDbEllipse
 62
7
  6
CONTINUOUS
 10
291.0574628036
 20
212.043983126
 30
0.0
 11
0.020630877
 21
0.8999612889
 31
0.0
 40
0.4044546547
 41
-2.2323210404
 42
-0.6615247136
  0
ELLIPSE
  5
43E
100
AcDbEntity
  8
0
100
AcDbEllipse
 62
7
  6
CONTINUOUS
 10
286.277477794
 20
195.7191939689
 30
0.0
 11
0.041261754
 21
1.7999225777
 31
0.0
 40
0.4044546547
 41
-2.2323210404
 42
-1.3511164749
  0
ELLIPSE
  5
43F
100
AcDbEntity
  8
0
100
AcDbEllipse
 62
7
  6
CONTINUOUS
 10
295.6219323891
 20
212.043983126
 30
0.0
 11
-0.0401256569
 21
1.7999373682
 31
0.0
 40
0.3740438115
 41
-2.2499308605
 42
-0.6791345337
  0
ELLIPSE
  5
440
100
AcDbEntity
  8
0
100
AcDbEllipse
 62
7
  6
CONTINUOUS
 10
295.6219323891
 20
212.043983126
 30
0.0
 11
-0.0200628284
 21
0.8999686841
 31
0.0
 40
0.3740438115
 41
-2.2499308605
 42
-0.6791345337
  0
ELLIPSE
  5
441
100
AcDbEntity
  8
0
100
AcDbEllipse
 62
7
  6
CONTINUOUS
 10
293.1820499129
 20
197.5851727069
 30
0.0
 11
-0.0535008759
 21
2.3999164909
 31
0.0
 40
0.3740438115
 41
1.8096830597
 42
1.9388593443
  0
ELLIPSE
  5
442
100
AcDbEntity
  8
0
100
AcDbEllipse
 62
7
  6
CONTINUOUS
 10
291.8038443228
 20
195.7191939689
 30
0.0
 11
-0.0401256569
 21
1.7999373682
 31
0.0
 40
0.3740438115
 41
-2.2499308605
 42
-1.2027333093
  0
ELLIPSE
  5
443
100
AcDbEntity
  8
0
100
AcDbEllipse
 62
7
  6
CONTINUOUS
 10
118.5
 20
95.5875
 30
0.0
 11
0.0
 21
1.8
 31
0.0
 40
0.0265734266
 41
-4.1887902048
 42
-3.1415926536
  0
ELLIPSE
  5
444
100
AcDbEntity
  8
0
100
AcDbEllipse
 62
7
  6
CONTINUOUS
 10
112.5
 20
95.5875
 30
0.0
 11
-0.0
 21
1.8
 31
0.0
 40
0.0265734266
 41
-3.1415926536
 42
-2.0943951024
  0
ELLIPSE
  5
445
100
AcDbEntity
  8
0
100
AcDbEllipse
 62
7
  6
CONTINUOUS
 10
118.3987416451
 20
93.7875
 30
0.0
 11
-0.0
 21
2.4
 31
0.0
 40
0.0265734266
 41
-1.0471975512
 42
-0.0
  0
ELLIPSE
  5
446
100
AcDbEntity
  8
0
100
AcDbEllipse
 62
7
  6
CONTINUOUS
 10
112.6012583549
 20
93.7875
 30
0.0
 11
0.0
 21
2.4
 31
0.0
 40
0.0265734266
 41
6.2831853072
 42
7.3303828584
  0
ENDSEC
  0
SECTION
  2
OBJECTS
  0
DICTIONARY
  5
447
100
AcDbDictionary
  3
ACAD_GROUP
350
448
  3
ACAD_MLINESTYLE
350
449
  0
DICTIONARY
  5
448
102
{ACAD_REACTORS
330
447
102
}
100
AcDbDictionary
  0
DICTIONARY
  5
449
102
{ACAD_REACTORS
330
447
102
}
100
AcDbDictionary
  3
STANDARD
350
44A
  0
MLINESTYLE
  5
44A
102
{ACAD_REACTORS
330
449
102
}
100
AcDbMlineStyle
  2
STANDARD
 70
0
  3

 62
256
 51
90.0
 52
90.0
 71
2
 49
0.5
 62
256
  6
BYLAYER
 49
-0.5
 62
256
  6
BYLAYER
  0
ENDSEC
  0
EOF
