  0
SECTION
  2
HEADER
  9
$ACADVER
  1
AC1014
  9
$HANDSEED
  5
FFFF
  9
$MEASUREMENT
 70
     1
  0
ENDSEC
  0
SECTION
  2
TABLES
  0
TABLE
  2
VPORT
  5
8
330
0
100
AcDbSymbolTable
 70
     4
  0
VPORT
  5
2E
330
8
100
AcDbSymbolTableRecord
100
AcDbViewportTableRecord
  2
*ACTIVE
 70
     0
 10
0.0
 20
0.0
 11
1.0
 21
1.0
 12
210.0
 22
148.5
 13
0.0
 23
0.0
 14
10.0
 24
10.0
 15
10.0
 25
10.0
 16
0.0
 26
0.0
 36
1.0
 17
0.0
 27
0.0
 37
0.0
 40
341.0
 41
1.24
 42
50.0
 43
0.0
 44
0.0
 50
0.0
 51
0.0
 71
     0
 72
   100
 73
     1
 74
     3
 75
     0
 76
     0
 77
     0
 78
     0
  0
ENDTAB
  0
TABLE
  2
LTYPE
  5
5
330
0
100
AcDbSymbolTable
 70
     1
  0
LTYPE
  5
14
330
5
100
AcDbSymbolTableRecord
100
AcDbLinetypeTableRecord
  2
BYBLOCK
 70
     0
  3

 72
    65
 73
     0
 40
0.0
  0
LTYPE
  5
15
330
5
100
AcDbSymbolTableRecord
100
AcDbLinetypeTableRecord
  2
BYLAYER
 70
     0
  3

 72
    65
 73
     0
 40
0.0
  0
LTYPE
  5
16
330
5
100
AcDbSymbolTableRecord
100
AcDbLinetypeTableRecord
  2
CONTINUOUS
 70
     0
  3
Solid line
 72
    65
 73
     0
 40
0.0
  0
ENDTAB
  0
TABLE
  2
LAYER
  5
2
100
AcDbSymbolTable
 70
2
  0
LAYER
  5
50
100
AcDbSymbolTableRecord
100
AcDbLayerTableRecord
  2
0
 70
0
  6
CONTINUOUS
  0
LAYER
  5
51
100
AcDbSymbolTableRecord
100
AcDbLayerTableRecord
  2
레이어_1
 70
0
  6
CONTINUOUS
  0
ENDTAB
  0
TABLE
  2
STYLE
  5
3
330
0
100
AcDbSymbolTable
 70
     1
  0
STYLE
  5
11
330
3
100
AcDbSymbolTableRecord
100
AcDbTextStyleTableRecord
  2
STANDARD
 70
     0
 40
0.0
 41
1.0
 50
0.0
 71
     0
 42
2.5
  3
txt
  4

  0
ENDTAB
  0
TABLE
  2
VIEW
  5
6
330
0
100
AcDbSymbolTable
 70
     0
  0
ENDTAB
  0
TABLE
  2
UCS
  5
7
330
0
100
AcDbSymbolTable
 70
     0
  0
ENDTAB
  0
TABLE
  2
APPID
  5
9
330
0
100
AcDbSymbolTable
 70
     2
  0
APPID
  5
12
330
9
100
AcDbSymbolTableRecord
100
AcDbRegAppTableRecord
  2
ACAD
 70
     0
  0
ENDTAB
  0
TABLE
  2
DIMSTYLE
  5
A
330
0
100
AcDbSymbolTable
 70
     1
  0
DIMSTYLE
105
27
330
A
100
AcDbSymbolTableRecord
100
AcDbDimStyleTableRecord
  2
ISO-25
 70
     0
  3

  4

  5

  6

  7

 40
1.0
 41
2.5
 42
0.625
 43
3.75
 44
1.25
 45
0.0
 46
0.0
 47
0.0
 48
0.0
140
2.5
141
2.5
142
0.0
143
0.03937007874016
144
1.0
145
0.0
146
1.0
147
0.625
 71
     0
 72
     0
 73
     0
 74
     0
 75
     0
 76
     0
 77
     1
 78
     8
170
     0
171
     3
172
     1
173
     0
174
     0
175
     0
176
     0
177
     0
178
     0
270
     2
271
     2
272
     2
273
     2
274
     3
340
11
275
     0
280
     0
281
     0
282
     0
283
     0
284
     8
285
     0
286
     0
287
     3
288
     0
  0
ENDTAB
  0
TABLE
  2
BLOCK_RECORD
  5
1
330
0
100
AcDbSymbolTable
 70
     1
  0
BLOCK_RECORD
  5
1F
330
1
100
AcDbSymbolTableRecord
100
AcDbBlockTableRecord
  2
*MODEL_SPACE
  0
BLOCK_RECORD
  5
1B
330
1
100
AcDbSymbolTableRecord
100
AcDbBlockTableRecord
  2
*PAPER_SPACE
  0
ENDTAB
  0
ENDSEC
  0
SECTION
  2
BLOCKS
  0
BLOCK
  5
20
330
1F
100
AcDbEntity
  8
0
100
AcDbBlockBegin
  2
*MODEL_SPACE
 70
     0
 10
0.0
 20
0.0
 30
0.0
  3
*MODEL_SPACE
  1

  0
ENDBLK
  5
21
330
1F
100
AcDbEntity
  8
0
100
AcDbBlockEnd
  0
BLOCK
  5
1C
330
1B
100
AcDbEntity
 67
     1
  8
0
100
AcDbBlockBegin
  2
*PAPER_SPACE
  1

  0
ENDBLK
  5
1D
330
1B
100
AcDbEntity
 67
     1
  8
0
100
AcDbBlockEnd
  0
ENDSEC
  0
SECTION
  2
ENTITIES
  0
SPLINE
  5
100
100
AcDbEntity
  8
레이어_1
 62
7
100
AcDbSpline
 70
8
 71
3
 72
8
 73
4
 74
0
 40
0
 40
0
 40
0
 40
0
 40
1
 40
1
 40
1
 40
1
 10
130.023810
 20
218.380951
 30
0.0
 10
130.023809
 20
195.000898
 30
0.0
 10
107.347565
 20
176.047620
 30
0.0
 10
79.375000
 20
176.047620
 30
0.0
  0
SPLINE
  5
101
100
AcDbEntity
  8
레이어_1
 62
7
100
AcDbSpline
 70
8
 71
3
 72
8
 73
4
 74
0
 40
0
 40
0
 40
0
 40
0
 40
1
 40
1
 40
1
 40
1
 10
79.375000
 20
176.047620
 30
0.0
 10
51.402435
 20
176.047620
 30
0.0
 10
28.726190
 20
195.000898
 30
0.0
 10
28.726189
 20
218.380951
 30
0.0
  0
SPLINE
  5
102
100
AcDbEntity
  8
레이어_1
 62
7
100
AcDbSpline
 70
8
 71
3
 72
8
 73
4
 74
0
 40
0
 40
0
 40
0
 40
0
 40
1
 40
1
 40
1
 40
1
 10
28.726189
 20
218.380951
 30
0.0
 10
28.726189
 20
229.608449
 30
0.0
 10
34.062388
 20
240.376097
 30
0.0
 10
43.560882
 20
248.315137
 30
0.0
  0
SPLINE
  5
103
100
AcDbEntity
  8
레이어_1
 62
7
100
AcDbSpline
 70
8
 71
3
 72
8
 73
4
 74
0
 40
0
 40
0
 40
0
 40
0
 40
1
 40
1
 40
1
 40
1
 10
43.560882
 20
248.315137
 30
0.0
 10
53.059377
 20
256.254177
 30
0.0
 10
65.942100
 20
260.714283
 30
0.0
 10
79.375000
 20
260.714283
 30
0.0
  0
SPLINE
  5
104
100
AcDbEntity
  8
레이어_1
 62
7
100
AcDbSpline
 70
8
 71
3
 72
8
 73
4
 74
0
 40
0
 40
0
 40
0
 40
0
 40
1
 40
1
 40
1
 40
1
 10
79.375000
 20
260.714283
 30
0.0
 10
107.347566
 20
260.714283
 30
0.0
 10
130.023810
 20
241.761004
 30
0.0
 10
130.023810
 20
218.380951
 30
0.0
  0
LWPOLYLINE
  5
105
100
AcDbEntity
  8
레이어_1
 62
7
100
AcDbPolyline
 90
1
 70
1
 10
130.023810
 20
218.380951
 30
0.0
  0
SPLINE
  5
106
100
AcDbEntity
  8
레이어_1
 62
7
100
AcDbSpline
 70
8
 71
3
 72
8
 73
4
 74
0
 40
0
 40
0
 40
0
 40
0
 40
1
 40
1
 40
1
 40
1
 10
35.778201
 20
85.344060
 30
0.0
 10
35.054184
 20
88.983607
 30
0.0
 10
34.356024
 20
92.570657
 30
0.0
 10
33.683723
 20
96.105210
 30
0.0
  0
SPLINE
  5
107
100
AcDbEntity
  8
레이어_1
 62
7
100
AcDbSpline
 70
8
 71
3
 72
8
 73
4
 74
0
 40
0
 40
0
 40
0
 40
0
 40
1
 40
1
 40
1
 40
1
 10
33.683723
 20
96.105210
 30
0.0
 10
33.028660
 20
99.674757
 30
0.0
 10
32.339119
 20
103.279303
 30
0.0
 10
31.615102
 20
106.918850
 30
0.0
  0
SPLINE
  5
108
100
AcDbEntity
  8
레이어_1
 62
7
100
AcDbSpline
 70
8
 71
3
 72
8
 73
4
 74
0
 40
0
 40
0
 40
0
 40
0
 40
1
 40
1
 40
1
 40
1
 10
31.615102
 20
106.918850
 30
0.0
 10
30.891084
 20
103.279303
 30
0.0
 10
30.175686
 20
99.674757
 30
0.0
 10
29.468907
 20
96.105210
 30
0.0
  0
SPLINE
  5
109
100
AcDbEntity
  8
레이어_1
 62
7
100
AcDbSpline
 70
8
 71
3
 72
8
 73
4
 74
0
 40
0
 40
0
 40
0
 40
0
 40
1
 40
1
 40
1
 40
1
 10
29.468907
 20
96.105210
 30
0.0
 10
28.779367
 20
92.570657
 30
0.0
 10
28.072588
 20
88.983607
 30
0.0
 10
27.348570
 20
85.344060
 30
0.0
  0
LWPOLYLINE
  5
10a
100
AcDbEntity
  8
레이어_1
 62
7
100
AcDbPolyline
 90
4
 70
1
 10
78.619049
 20
215.357140
 30
0.0
 10
178.404760
 20
215.357140
 30
0.0
 10
178.404760
 20
138.250000
 30
0.0
 10
78.619049
 20
138.250000
 30
0.0
  0
SPLINE
  5
10b
100
AcDbEntity
  8
레이어_1
 62
7
100
AcDbSpline
 70
8
 71
3
 72
8
 73
4
 74
0
 40
0
 40
0
 40
0
 40
0
 40
1
 40
1
 40
1
 40
1
 10
40.277453
 20
72.325690
 30
0.0
 10
40.363646
 20
71.835757
 30
0.0
 10
40.286072
 20
71.590790
 30
0.0
 10
40.044733
 20
71.590790
 30
0.0
  0
LWPOLYLINE
  5
10c
100
AcDbEntity
  8
레이어_1
 62
7
100
AcDbPolyline
 90
2
 70
0
 10
27.348570
 20
85.344060
 30
0.0
 10
35.778201
 20
85.344060
 30
0.0
  0
SPLINE
  5
10d
100
AcDbEntity
  8
레이어_1
 62
7
100
AcDbSpline
 70
8
 71
3
 72
8
 73
4
 74
0
 40
0
 40
0
 40
0
 40
0
 40
1
 40
1
 40
1
 40
1
 10
38.803560
 20
71.590790
 30
0.0
 10
38.700129
 20
71.590790
 30
0.0
 10
38.605318
 20
71.625790
 30
0.0
 10
38.519125
 20
71.695790
 30
0.0
  0
SPLINE
  5
10e
100
AcDbEntity
  8
레이어_1
 62
7
100
AcDbSpline
 70
8
 71
3
 72
8
 73
4
 74
0
 40
0
 40
0
 40
0
 40
0
 40
1
 40
1
 40
1
 40
1
 10
38.519125
 20
71.695790
 30
0.0
 10
38.450171
 20
71.765797
 30
0.0
 10
38.381217
 20
71.975773
 30
0.0
 10
38.312262
 20
72.325720
 30
0.0
  0
LWPOLYLINE
  5
10f
100
AcDbEntity
  8
레이어_1
 62
7
100
AcDbPolyline
 90
2
 70
0
 10
40.044733
 20
71.590790
 30
0.0
 10
38.803560
 20
71.590790
 30
0.0
  0
SPLINE
  5
110
100
AcDbEntity
  8
레이어_1
 62
7
100
AcDbSpline
 70
8
 71
3
 72
8
 73
4
 74
0
 40
0
 40
0
 40
0
 40
0
 40
1
 40
1
 40
1
 40
1
 10
26.676269
 20
81.984500
 30
0.0
 10
26.348737
 20
80.339713
 30
0.0
 10
26.029824
 20
78.729917
 30
0.0
 10
25.719531
 20
77.155110
 30
0.0
  0
SPLINE
  5
111
100
AcDbEntity
  8
레이어_1
 62
7
100
AcDbSpline
 70
8
 71
3
 72
8
 73
4
 74
0
 40
0
 40
0
 40
0
 40
0
 40
1
 40
1
 40
1
 40
1
 10
25.719531
 20
77.155110
 30
0.0
 10
25.409238
 20
75.580303
 30
0.0
 10
25.098945
 20
73.970507
 30
0.0
 10
24.788651
 20
72.325720
 30
0.0
  0
SPLINE
  5
112
100
AcDbEntity
  8
레이어_1
 62
7
100
AcDbSpline
 70
8
 71
3
 72
8
 73
4
 74
0
 40
0
 40
0
 40
0
 40
0
 40
1
 40
1
 40
1
 40
1
 10
24.788651
 20
72.325720
 30
0.0
 10
24.719698
 20
71.975767
 30
0.0
 10
24.642125
 20
71.765790
 30
0.0
 10
24.555932
 20
71.695790
 30
0.0
  0
SPLINE
  5
113
100
AcDbEntity
  8
레이어_1
 62
7
100
AcDbSpline
 70
8
 71
3
 72
8
 73
4
 74
0
 40
0
 40
0
 40
0
 40
0
 40
1
 40
1
 40
1
 40
1
 10
24.555932
 20
71.695790
 30
0.0
 10
24.486977
 20
71.625790
 30
0.0
 10
24.400785
 20
71.590790
 30
0.0
 10
24.297354
 20
71.590790
 30
0.0
  0
LWPOLYLINE
  5
114
100
AcDbEntity
  8
레이어_1
 62
7
100
AcDbPolyline
 90
3
 70
0
 10
38.312262
 20
72.325720
 30
0.0
 10
36.398788
 20
81.984500
 30
0.0
 10
26.676269
 20
81.984500
 30
0.0
  0
SPLINE
  5
115
100
AcDbEntity
  8
레이어_1
 62
7
100
AcDbSpline
 70
8
 71
3
 72
8
 73
4
 74
0
 40
0
 40
0
 40
0
 40
0
 40
1
 40
1
 40
1
 40
1
 10
23.082039
 20
71.590790
 30
0.0
 10
22.840700
 20
71.590790
 30
0.0
 10
22.763126
 20
71.835757
 30
0.0
 10
22.849319
 20
72.325690
 30
0.0
  0
LWPOLYLINE
  5
116
100
AcDbEntity
  8
레이어_1
 62
7
100
AcDbPolyline
 90
2
 70
0
 10
24.297354
 20
71.590790
 30
0.0
 10
23.082039
 20
71.590790
 30
0.0
  0
SPLINE
  5
117
100
AcDbEntity
  8
레이어_1
 62
7
100
AcDbSpline
 70
8
 71
3
 72
8
 73
4
 74
0
 40
0
 40
0
 40
0
 40
0
 40
1
 40
1
 40
1
 40
1
 10
30.451502
 20
109.910980
 30
0.0
 10
30.537695
 20
110.330927
 30
0.0
 10
30.692841
 20
110.540900
 30
0.0
 10
30.916942
 20
110.540900
 30
0.0
  0
LWPOLYLINE
  5
118
100
AcDbEntity
  8
레이어_1
 62
7
100
AcDbPolyline
 90
2
 70
0
 10
22.849319
 20
72.325690
 30
0.0
 10
30.451502
 20
109.910980
 30
0.0
  0
SPLINE
  5
119
100
AcDbEntity
  8
레이어_1
 62
7
100
AcDbSpline
 70
8
 71
3
 72
8
 73
4
 74
0
 40
0
 40
0
 40
0
 40
0
 40
1
 40
1
 40
1
 40
1
 10
32.494266
 20
110.540900
 30
0.0
 10
32.718367
 20
110.540900
 30
0.0
 10
32.873513
 20
110.330927
 30
0.0
 10
32.959705
 20
109.910980
 30
0.0
  0
LWPOLYLINE
  5
11a
100
AcDbEntity
  8
레이어_1
 62
7
100
AcDbPolyline
 90
2
 70
0
 10
30.916942
 20
110.540900
 30
0.0
 10
32.494266
 20
110.540900
 30
0.0
  0
SPLINE
  5
11b
100
AcDbEntity
  8
레이어_1
 62
7
100
AcDbSpline
 70
8
 71
3
 72
8
 73
4
 74
0
 40
0
 40
0
 40
0
 40
0
 40
1
 40
1
 40
1
 40
1
 10
43.110495
 20
72.115710
 30
0.0
 10
42.834679
 20
72.290690
 30
0.0
 10
42.722629
 20
72.605650
 30
0.0
 10
42.774344
 20
73.060590
 30
0.0
  0
LWPOLYLINE
  5
11c
100
AcDbEntity
  8
레이어_1
 62
7
100
AcDbPolyline
 90
2
 70
0
 10
32.959705
 20
109.910980
 30
0.0
 10
40.277453
 20
72.325690
 30
0.0
  0
SPLINE
  5
11d
100
AcDbEntity
  8
레이어_1
 62
7
100
AcDbSpline
 70
8
 71
3
 72
8
 73
4
 74
0
 40
0
 40
0
 40
0
 40
0
 40
1
 40
1
 40
1
 40
1
 10
42.877774
 20
75.475290
 30
0.0
 10
42.912247
 20
75.755257
 30
0.0
 10
42.963963
 20
75.947733
 30
0.0
 10
43.032921
 20
76.052720
 30
0.0
  0
SPLINE
  5
11e
100
AcDbEntity
  8
레이어_1
 62
7
100
AcDbSpline
 70
8
 71
3
 72
8
 73
4
 74
0
 40
0
 40
0
 40
0
 40
0
 40
1
 40
1
 40
1
 40
1
 10
43.032921
 20
76.052720
 30
0.0
 10
43.119114
 20
76.157707
 30
0.0
 10
43.213926
 20
76.140240
 30
0.0
 10
43.317357
 20
76.000320
 30
0.0
  0
SPLINE
  5
11f
100
AcDbEntity
  8
레이어_1
 62
7
100
AcDbSpline
 70
8
 71
3
 72
8
 73
4
 74
0
 40
0
 40
0
 40
0
 40
0
 40
1
 40
1
 40
1
 40
1
 10
43.317357
 20
76.000320
 30
0.0
 10
43.920704
 20
75.335400
 30
0.0
 10
44.524052
 20
74.845460
 30
0.0
 10
45.127400
 20
74.530500
 30
0.0
  0
SPLINE
  5
120
100
AcDbEntity
  8
레이어_1
 62
7
100
AcDbSpline
 70
8
 71
3
 72
8
 73
4
 74
0
 40
0
 40
0
 40
0
 40
0
 40
1
 40
1
 40
1
 40
1
 10
45.127400
 20
74.530500
 30
0.0
 10
45.747987
 20
74.250533
 30
0.0
 10
46.454766
 20
74.110550
 30
0.0
 10
47.247737
 20
74.110550
 30
0.0
  0
SPLINE
  5
121
100
AcDbEntity
  8
레이어_1
 62
7
100
AcDbSpline
 70
8
 71
3
 72
8
 73
4
 74
0
 40
0
 40
0
 40
0
 40
0
 40
1
 40
1
 40
1
 40
1
 10
47.247737
 20
74.110550
 30
0.0
 10
48.506148
 20
74.110550
 30
0.0
 10
49.531840
 20
74.810463
 30
0.0
 10
50.324811
 20
76.210290
 30
0.0
  0
SPLINE
  5
122
100
AcDbEntity
  8
레이어_1
 62
7
100
AcDbSpline
 70
8
 71
3
 72
8
 73
4
 74
0
 40
0
 40
0
 40
0
 40
0
 40
1
 40
1
 40
1
 40
1
 10
50.324811
 20
76.210290
 30
0.0
 10
51.135021
 20
77.610110
 30
0.0
 10
51.540126
 20
79.587363
 30
0.0
 10
51.540126
 20
82.142050
 30
0.0
  0
SPLINE
  5
123
100
AcDbEntity
  8
레이어_1
 62
7
100
AcDbSpline
 70
8
 71
3
 72
8
 73
4
 74
0
 40
0
 40
0
 40
0
 40
0
 40
1
 40
1
 40
1
 40
1
 10
51.540126
 20
82.142050
 30
0.0
 10
51.540126
 20
83.156923
 30
0.0
 10
51.341883
 20
84.171793
 30
0.0
 10
50.945397
 20
85.186660
 30
0.0
  0
SPLINE
  5
124
100
AcDbEntity
  8
레이어_1
 62
7
100
AcDbSpline
 70
8
 71
3
 72
8
 73
4
 74
0
 40
0
 40
0
 40
0
 40
0
 40
1
 40
1
 40
1
 40
1
 10
50.945397
 20
85.186660
 30
0.0
 10
50.566150
 20
86.201533
 30
0.0
 10
50.031756
 20
87.163913
 30
0.0
 10
49.342216
 20
88.073800
 30
0.0
  0
SPLINE
  5
125
100
AcDbEntity
  8
레이어_1
 62
7
100
AcDbSpline
 70
8
 71
3
 72
8
 73
4
 74
0
 40
0
 40
0
 40
0
 40
0
 40
1
 40
1
 40
1
 40
1
 10
49.342216
 20
88.073800
 30
0.0
 10
48.738868
 20
88.843700
 30
0.0
 10
48.057947
 20
89.648600
 30
0.0
 10
47.299453
 20
90.488500
 30
0.0
  0
SPLINE
  5
126
100
AcDbEntity
  8
레이어_1
 62
7
100
AcDbSpline
 70
8
 71
3
 72
8
 73
4
 74
0
 40
0
 40
0
 40
0
 40
0
 40
1
 40
1
 40
1
 40
1
 10
47.299453
 20
90.488500
 30
0.0
 10
46.540958
 20
91.328393
 30
0.0
 10
45.816941
 20
92.238280
 30
0.0
 10
45.127400
 20
93.218160
 30
0.0
  0
SPLINE
  5
127
100
AcDbEntity
  8
레이어_1
 62
7
100
AcDbSpline
 70
8
 71
3
 72
8
 73
4
 74
0
 40
0
 40
0
 40
0
 40
0
 40
1
 40
1
 40
1
 40
1
 10
45.127400
 20
93.218160
 30
0.0
 10
44.437860
 20
94.233033
 30
0.0
 10
43.860370
 20
95.352890
 30
0.0
 10
43.394930
 20
96.577730
 30
0.0
  0
SPLINE
  5
128
100
AcDbEntity
  8
레이어_1
 62
7
100
AcDbSpline
 70
8
 71
3
 72
8
 73
4
 74
0
 40
0
 40
0
 40
0
 40
0
 40
1
 40
1
 40
1
 40
1
 10
43.394930
 20
96.577730
 30
0.0
 10
42.929491
 20
97.837577
 30
0.0
 10
42.696771
 20
99.289897
 30
0.0
 10
42.696771
 20
100.934690
 30
0.0
  0
SPLINE
  5
129
100
AcDbEntity
  8
레이어_1
 62
7
100
AcDbSpline
 70
8
 71
3
 72
8
 73
4
 74
0
 40
0
 40
0
 40
0
 40
0
 40
1
 40
1
 40
1
 40
1
 10
42.696771
 20
100.934690
 30
0.0
 10
42.696771
 20
102.614477
 30
0.0
 10
42.869156
 20
104.084290
 30
0.0
 10
43.213926
 20
105.344130
 30
0.0
  0
SPLINE
  5
12a
100
AcDbEntity
  8
레이어_1
 62
7
100
AcDbSpline
 70
8
 71
3
 72
8
 73
4
 74
0
 40
0
 40
0
 40
0
 40
0
 40
1
 40
1
 40
1
 40
1
 10
43.213926
 20
105.344130
 30
0.0
 10
43.558696
 20
106.638970
 30
0.0
 10
44.015516
 20
107.706340
 30
0.0
 10
44.584387
 20
108.546240
 30
0.0
  0
SPLINE
  5
12b
100
AcDbEntity
  8
레이어_1
 62
7
100
AcDbSpline
 70
8
 71
3
 72
8
 73
4
 74
0
 40
0
 40
0
 40
0
 40
0
 40
1
 40
1
 40
1
 40
1
 10
44.584387
 20
108.546240
 30
0.0
 10
45.170496
 20
109.421127
 30
0.0
 10
45.834179
 20
110.086043
 30
0.0
 10
46.575435
 20
110.540990
 30
0.0
  0
SPLINE
  5
12c
100
AcDbEntity
  8
레이어_1
 62
7
100
AcDbSpline
 70
8
 71
3
 72
8
 73
4
 74
0
 40
0
 40
0
 40
0
 40
0
 40
1
 40
1
 40
1
 40
1
 10
46.575435
 20
110.540990
 30
0.0
 10
47.316691
 20
110.995930
 30
0.0
 10
48.075186
 20
111.223400
 30
0.0
 10
48.850919
 20
111.223400
 30
0.0
  0
SPLINE
  5
12d
100
AcDbEntity
  8
레이어_1
 62
7
100
AcDbSpline
 70
8
 71
3
 72
8
 73
4
 74
0
 40
0
 40
0
 40
0
 40
0
 40
1
 40
1
 40
1
 40
1
 10
48.850919
 20
111.223400
 30
0.0
 10
49.523220
 20
111.223400
 30
0.0
 10
50.117949
 20
111.135910
 30
0.0
 10
50.635104
 20
110.960930
 30
0.0
  0
SPLINE
  5
12e
100
AcDbEntity
  8
레이어_1
 62
7
100
AcDbSpline
 70
8
 71
3
 72
8
 73
4
 74
0
 40
0
 40
0
 40
0
 40
0
 40
1
 40
1
 40
1
 40
1
 10
50.635104
 20
110.960930
 30
0.0
 10
51.152259
 20
110.820950
 30
0.0
 10
51.712511
 20
110.558483
 30
0.0
 10
52.315859
 20
110.173530
 30
0.0
  0
SPLINE
  5
12f
100
AcDbEntity
  8
레이어_1
 62
7
100
AcDbSpline
 70
8
 71
3
 72
8
 73
4
 74
0
 40
0
 40
0
 40
0
 40
0
 40
1
 40
1
 40
1
 40
1
 10
52.315859
 20
110.173530
 30
0.0
 10
52.574436
 20
109.998550
 30
0.0
 10
52.677867
 20
109.683590
 30
0.0
 10
52.626152
 20
109.228650
 30
0.0
  0
LWPOLYLINE
  5
130
100
AcDbEntity
  8
레이어_1
 62
7
100
AcDbPolyline
 90
2
 70
0
 10
42.774344
 20
73.060590
 30
0.0
 10
42.877774
 20
75.475290
 30
0.0
  0
SPLINE
  5
131
100
AcDbEntity
  8
레이어_1
 62
7
100
AcDbSpline
 70
8
 71
3
 72
8
 73
4
 74
0
 40
0
 40
0
 40
0
 40
0
 40
1
 40
1
 40
1
 40
1
 10
52.419290
 20
107.181400
 30
0.0
 10
52.367577
 20
106.586473
 30
0.0
 10
52.221049
 20
106.428993
 30
0.0
 10
51.979708
 20
106.708960
 30
0.0
  0
SPLINE
  5
132
100
AcDbEntity
  8
레이어_1
 62
7
100
AcDbSpline
 70
8
 71
3
 72
8
 73
4
 74
0
 40
0
 40
0
 40
0
 40
0
 40
1
 40
1
 40
1
 40
1
 10
51.979708
 20
106.708960
 30
0.0
 10
51.497030
 20
107.163900
 30
0.0
 10
51.022971
 20
107.461363
 30
0.0
 10
50.557531
 20
107.601350
 30
0.0
  0
SPLINE
  5
133
100
AcDbEntity
  8
레이어_1
 62
7
100
AcDbSpline
 70
8
 71
3
 72
8
 73
4
 74
0
 40
0
 40
0
 40
0
 40
0
 40
1
 40
1
 40
1
 40
1
 10
50.557531
 20
107.601350
 30
0.0
 10
50.109330
 20
107.776337
 30
0.0
 10
49.531839
 20
107.863830
 30
0.0
 10
48.825060
 20
107.863830
 30
0.0
  0
SPLINE
  5
134
100
AcDbEntity
  8
레이어_1
 62
7
100
AcDbSpline
 70
8
 71
3
 72
8
 73
4
 74
0
 40
0
 40
0
 40
0
 40
0
 40
1
 40
1
 40
1
 40
1
 10
48.825060
 20
107.863830
 30
0.0
 10
48.256189
 20
107.863830
 30
0.0
 10
47.713176
 20
107.723847
 30
0.0
 10
47.196021
 20
107.443880
 30
0.0
  0
SPLINE
  5
135
100
AcDbEntity
  8
레이어_1
 62
7
100
AcDbSpline
 70
8
 71
3
 72
8
 73
4
 74
0
 40
0
 40
0
 40
0
 40
0
 40
1
 40
1
 40
1
 40
1
 10
47.196021
 20
107.443880
 30
0.0
 10
46.696105
 20
107.163913
 30
0.0
 10
46.256523
 20
106.743963
 30
0.0
 10
45.877276
 20
106.184030
 30
0.0
  0
SPLINE
  5
136
100
AcDbEntity
  8
레이어_1
 62
7
100
AcDbSpline
 70
8
 71
3
 72
8
 73
4
 74
0
 40
0
 40
0
 40
0
 40
0
 40
1
 40
1
 40
1
 40
1
 10
45.877276
 20
106.184030
 30
0.0
 10
45.515267
 20
105.624097
 30
0.0
 10
45.222212
 20
104.924183
 30
0.0
 10
44.998111
 20
104.084290
 30
0.0
  0
SPLINE
  5
137
100
AcDbEntity
  8
레이어_1
 62
7
100
AcDbSpline
 70
8
 71
3
 72
8
 73
4
 74
0
 40
0
 40
0
 40
0
 40
0
 40
1
 40
1
 40
1
 40
1
 10
44.998111
 20
104.084290
 30
0.0
 10
44.774011
 20
103.244390
 30
0.0
 10
44.661961
 20
102.247017
 30
0.0
 10
44.661961
 20
101.092170
 30
0.0
  0
SPLINE
  5
138
100
AcDbEntity
  8
레이어_1
 62
7
100
AcDbSpline
 70
8
 71
3
 72
8
 73
4
 74
0
 40
0
 40
0
 40
0
 40
0
 40
1
 40
1
 40
1
 40
1
 10
44.661961
 20
101.092170
 30
0.0
 10
44.661961
 20
100.182277
 30
0.0
 10
44.808488
 20
99.324883
 30
0.0
 10
45.101543
 20
98.519990
 30
0.0
  0
SPLINE
  5
139
100
AcDbEntity
  8
레이어_1
 62
7
100
AcDbSpline
 70
8
 71
3
 72
8
 73
4
 74
0
 40
0
 40
0
 40
0
 40
0
 40
1
 40
1
 40
1
 40
1
 10
45.101543
 20
98.519990
 30
0.0
 10
45.411836
 20
97.715090
 30
0.0
 10
45.782463
 20
96.962683
 30
0.0
 10
46.213426
 20
96.262770
 30
0.0
  0
SPLINE
  5
13a
100
AcDbEntity
  8
레이어_1
 62
7
100
AcDbSpline
 70
8
 71
3
 72
8
 73
4
 74
0
 40
0
 40
0
 40
0
 40
0
 40
1
 40
1
 40
1
 40
1
 10
46.213426
 20
96.262770
 30
0.0
 10
46.661627
 20
95.562863
 30
0.0
 10
47.135687
 20
94.915447
 30
0.0
 10
47.635604
 20
94.320520
 30
0.0
  0
SPLINE
  5
13b
100
AcDbEntity
  8
레이어_1
 62
7
100
AcDbSpline
 70
8
 71
3
 72
8
 73
4
 74
0
 40
0
 40
0
 40
0
 40
0
 40
1
 40
1
 40
1
 40
1
 10
47.635604
 20
94.320520
 30
0.0
 10
48.152759
 20
93.760593
 30
0.0
 10
48.618198
 20
93.235657
 30
0.0
 10
49.031922
 20
92.745710
 30
0.0
  0
SPLINE
  5
13c
100
AcDbEntity
  8
레이어_1
 62
7
100
AcDbSpline
 70
8
 71
3
 72
8
 73
4
 74
0
 40
0
 40
0
 40
0
 40
0
 40
1
 40
1
 40
1
 40
1
 10
49.031922
 20
92.745710
 30
0.0
 10
49.600793
 20
92.080797
 30
0.0
 10
50.152426
 20
91.398383
 30
0.0
 10
50.686820
 20
90.698470
 30
0.0
  0
SPLINE
  5
13d
100
AcDbEntity
  8
레이어_1
 62
7
100
AcDbSpline
 70
8
 71
3
 72
8
 73
4
 74
0
 40
0
 40
0
 40
0
 40
0
 40
1
 40
1
 40
1
 40
1
 10
50.686820
 20
90.698470
 30
0.0
 10
51.221213
 20
89.998557
 30
0.0
 10
51.695272
 20
89.211153
 30
0.0
 10
52.108997
 20
88.336260
 30
0.0
  0
SPLINE
  5
13e
100
AcDbEntity
  8
레이어_1
 62
7
100
AcDbSpline
 70
8
 71
3
 72
8
 73
4
 74
0
 40
0
 40
0
 40
0
 40
0
 40
1
 40
1
 40
1
 40
1
 10
52.108997
 20
88.336260
 30
0.0
 10
52.522721
 20
87.461373
 30
0.0
 10
52.858872
 20
86.498997
 30
0.0
 10
53.117450
 20
85.449130
 30
0.0
  0
SPLINE
  5
13f
100
AcDbEntity
  8
레이어_1
 62
7
100
AcDbSpline
 70
8
 71
3
 72
8
 73
4
 74
0
 40
0
 40
0
 40
0
 40
0
 40
1
 40
1
 40
1
 40
1
 10
53.117450
 20
85.449130
 30
0.0
 10
53.376027
 20
84.399263
 30
0.0
 10
53.505316
 20
83.191917
 30
0.0
 10
53.505316
 20
81.827090
 30
0.0
  0
SPLINE
  5
140
100
AcDbEntity
  8
레이어_1
 62
7
100
AcDbSpline
 70
8
 71
3
 72
8
 73
4
 74
0
 40
0
 40
0
 40
0
 40
0
 40
1
 40
1
 40
1
 40
1
 10
53.505316
 20
81.827090
 30
0.0
 10
53.505316
 20
80.077310
 30
0.0
 10
53.324312
 20
78.520003
 30
0.0
 10
52.962303
 20
77.155170
 30
0.0
  0
SPLINE
  5
141
100
AcDbEntity
  8
레이어_1
 62
7
100
AcDbSpline
 70
8
 71
3
 72
8
 73
4
 74
0
 40
0
 40
0
 40
0
 40
0
 40
1
 40
1
 40
1
 40
1
 10
52.962303
 20
77.155170
 30
0.0
 10
52.617533
 20
75.790343
 30
0.0
 10
52.152093
 20
74.635487
 30
0.0
 10
51.565984
 20
73.690600
 30
0.0
  0
SPLINE
  5
142
100
AcDbEntity
  8
레이어_1
 62
7
100
AcDbSpline
 70
8
 71
3
 72
8
 73
4
 74
0
 40
0
 40
0
 40
0
 40
0
 40
1
 40
1
 40
1
 40
1
 10
51.565984
 20
73.690600
 30
0.0
 10
50.979875
 20
72.745720
 30
0.0
 10
50.298953
 20
72.028310
 30
0.0
 10
49.523220
 20
71.538370
 30
0.0
  0
SPLINE
  5
143
100
AcDbEntity
  8
레이어_1
 62
7
100
AcDbSpline
 70
8
 71
3
 72
8
 73
4
 74
0
 40
0
 40
0
 40
0
 40
0
 40
1
 40
1
 40
1
 40
1
 10
49.523220
 20
71.538370
 30
0.0
 10
48.764725
 20
71.013443
 30
0.0
 10
47.971754
 20
70.750980
 30
0.0
 10
47.144306
 20
70.750980
 30
0.0
  0
SPLINE
  5
144
100
AcDbEntity
  8
레이어_1
 62
7
100
AcDbSpline
 70
8
 71
3
 72
8
 73
4
 74
0
 40
0
 40
0
 40
0
 40
0
 40
1
 40
1
 40
1
 40
1
 10
47.144306
 20
70.750980
 30
0.0
 10
46.385811
 20
70.750980
 30
0.0
 10
45.704890
 20
70.855963
 30
0.0
 10
45.101543
 20
71.065930
 30
0.0
  0
SPLINE
  5
145
100
AcDbEntity
  8
레이어_1
 62
7
100
AcDbSpline
 70
8
 71
3
 72
8
 73
4
 74
0
 40
0
 40
0
 40
0
 40
0
 40
1
 40
1
 40
1
 40
1
 10
45.101543
 20
71.065930
 30
0.0
 10
44.515433
 20
71.275910
 30
0.0
 10
43.851750
 20
71.625867
 30
0.0
 10
43.110495
 20
72.115800
 30
0.0
  0
LWPOLYLINE
  5
146
100
AcDbEntity
  8
레이어_1
 62
7
100
AcDbPolyline
 90
2
 70
0
 10
52.626152
 20
109.228650
 30
0.0
 10
52.419290
 20
107.181400
 30
0.0
  0
SPLINE
  5
147
100
AcDbEntity
  8
레이어_1
 62
7
100
AcDbSpline
 70
8
 71
3
 72
8
 73
4
 74
0
 40
0
 40
0
 40
0
 40
0
 40
1
 40
1
 40
1
 40
1
 10
69.948834
 20
91.328310
 30
0.0
 10
69.948834
 20
96.892610
 30
0.0
 10
69.190340
 20
101.004590
 30
0.0
 10
67.673351
 20
103.664250
 30
0.0
  0
SPLINE
  5
148
100
AcDbEntity
  8
레이어_1
 62
7
100
AcDbSpline
 70
8
 71
3
 72
8
 73
4
 74
0
 40
0
 40
0
 40
0
 40
0
 40
1
 40
1
 40
1
 40
1
 10
67.673351
 20
103.664250
 30
0.0
 10
66.328747
 20
106.008957
 30
0.0
 10
64.484226
 20
107.181310
 30
0.0
 10
62.139789
 20
107.181310
 30
0.0
  0
LWPOLYLINE
  5
149
100
AcDbEntity
  8
레이어_1
 62
7
100
AcDbPolyline
 90
1
 70
1
 10
43.110495
 20
72.115800
 30
0.0
  0
SPLINE
  5
14a
100
AcDbEntity
  8
레이어_1
 62
7
100
AcDbSpline
 70
8
 71
3
 72
8
 73
4
 74
0
 40
0
 40
0
 40
0
 40
0
 40
1
 40
1
 40
1
 40
1
 10
60.924474
 20
74.897870
 30
0.0
 10
66.940714
 20
74.897870
 30
0.0
 10
69.948834
 20
80.374683
 30
0.0
 10
69.948834
 20
91.328310
 30
0.0
  0
LWPOLYLINE
  5
14b
100
AcDbEntity
  8
레이어_1
 62
7
100
AcDbPolyline
 90
4
 70
0
 10
62.139789
 20
107.181310
 30
0.0
 10
59.347150
 20
107.181310
 30
0.0
 10
59.347150
 20
74.897870
 30
0.0
 10
60.924474
 20
74.897870
 30
0.0
  0
SPLINE
  5
14c
100
AcDbEntity
  8
레이어_1
 62
7
100
AcDbSpline
 70
8
 71
3
 72
8
 73
4
 74
0
 40
0
 40
0
 40
0
 40
0
 40
1
 40
1
 40
1
 40
1
 10
71.836453
 20
91.118330
 30
0.0
 10
71.836453
 20
87.863743
 30
0.0
 10
71.560636
 20
84.959107
 30
0.0
 10
71.009002
 20
82.404420
 30
0.0
  0
SPLINE
  5
14d
100
AcDbEntity
  8
레이어_1
 62
7
100
AcDbSpline
 70
8
 71
3
 72
8
 73
4
 74
0
 40
0
 40
0
 40
0
 40
0
 40
1
 40
1
 40
1
 40
1
 10
71.009002
 20
82.404420
 30
0.0
 10
70.457370
 20
79.849747
 30
0.0
 10
69.690256
 20
77.732513
 30
0.0
 10
68.707661
 20
76.052720
 30
0.0
  0
SPLINE
  5
14e
100
AcDbEntity
  8
레이어_1
 62
7
100
AcDbSpline
 70
8
 71
3
 72
8
 73
4
 74
0
 40
0
 40
0
 40
0
 40
0
 40
1
 40
1
 40
1
 40
1
 10
68.707661
 20
76.052720
 30
0.0
 10
67.776782
 20
74.617900
 30
0.0
 10
66.647660
 20
73.515540
 30
0.0
 10
65.320295
 20
72.745640
 30
0.0
  0
SPLINE
  5
14f
100
AcDbEntity
  8
레이어_1
 62
7
100
AcDbSpline
 70
8
 71
3
 72
8
 73
4
 74
0
 40
0
 40
0
 40
0
 40
0
 40
1
 40
1
 40
1
 40
1
 10
65.320295
 20
72.745640
 30
0.0
 10
63.992929
 20
71.975740
 30
0.0
 10
62.493178
 20
71.590790
 30
0.0
 10
60.821043
 20
71.590790
 30
0.0
  0
LWPOLYLINE
  5
150
100
AcDbEntity
  8
레이어_1
 62
7
100
AcDbPolyline
 90
1
 70
1
 10
69.948834
 20
91.328310
 30
0.0
  0
SPLINE
  5
151
100
AcDbEntity
  8
레이어_1
 62
7
100
AcDbSpline
 70
8
 71
3
 72
8
 73
4
 74
0
 40
0
 40
0
 40
0
 40
0
 40
1
 40
1
 40
1
 40
1
 10
58.157693
 20
71.590790
 30
0.0
 10
57.795684
 20
71.590790
 30
0.0
 10
57.580203
 20
71.660780
 30
0.0
 10
57.511249
 20
71.800760
 30
0.0
  0
SPLINE
  5
152
100
AcDbEntity
  8
레이어_1
 62
7
100
AcDbSpline
 70
8
 71
3
 72
8
 73
4
 74
0
 40
0
 40
0
 40
0
 40
0
 40
1
 40
1
 40
1
 40
1
 10
57.511249
 20
71.800760
 30
0.0
 10
57.459536
 20
71.905740
 30
0.0
 10
57.433679
 20
72.325683
 30
0.0
 10
57.433679
 20
73.060590
 30
0.0
  0
LWPOLYLINE
  5
153
100
AcDbEntity
  8
레이어_1
 62
7
100
AcDbPolyline
 90
2
 70
0
 10
60.821043
 20
71.590790
 30
0.0
 10
58.157693
 20
71.590790
 30
0.0
  0
SPLINE
  5
154
100
AcDbEntity
  8
레이어_1
 62
7
100
AcDbSpline
 70
8
 71
3
 72
8
 73
4
 74
0
 40
0
 40
0
 40
0
 40
0
 40
1
 40
1
 40
1
 40
1
 10
57.433679
 20
108.966100
 30
0.0
 10
57.433679
 20
109.701007
 30
0.0
 10
57.459536
 20
110.120950
 30
0.0
 10
57.511249
 20
110.225930
 30
0.0
  0
SPLINE
  5
155
100
AcDbEntity
  8
레이어_1
 62
7
100
AcDbSpline
 70
8
 71
3
 72
8
 73
4
 74
0
 40
0
 40
0
 40
0
 40
0
 40
1
 40
1
 40
1
 40
1
 10
57.511249
 20
110.225930
 30
0.0
 10
57.580203
 20
110.365910
 30
0.0
 10
57.795684
 20
110.435900
 30
0.0
 10
58.157693
 20
110.435900
 30
0.0
  0
LWPOLYLINE
  5
156
100
AcDbEntity
  8
레이어_1
 62
7
100
AcDbPolyline
 90
2
 70
0
 10
57.433679
 20
73.060590
 30
0.0
 10
57.433679
 20
108.966100
 30
0.0
  0
SPLINE
  5
157
100
AcDbEntity
  8
레이어_1
 62
7
100
AcDbSpline
 70
8
 71
3
 72
8
 73
4
 74
0
 40
0
 40
0
 40
0
 40
0
 40
1
 40
1
 40
1
 40
1
 10
62.217363
 20
110.435900
 30
0.0
 10
65.492680
 20
110.435900
 30
0.0
 10
67.957786
 20
108.633630
 30
0.0
 10
69.612683
 20
105.029090
 30
0.0
  0
SPLINE
  5
158
100
AcDbEntity
  8
레이어_1
 62
7
100
AcDbSpline
 70
8
 71
3
 72
8
 73
4
 74
0
 40
0
 40
0
 40
0
 40
0
 40
1
 40
1
 40
1
 40
1
 10
69.612683
 20
105.029090
 30
0.0
 10
71.095196
 20
101.704510
 30
0.0
 10
71.836453
 20
97.067590
 30
0.0
 10
71.836453
 20
91.118330
 30
0.0
  0
LWPOLYLINE
  5
159
100
AcDbEntity
  8
레이어_1
 62
7
100
AcDbPolyline
 90
2
 70
0
 10
58.157693
 20
110.435900
 30
0.0
 10
62.217363
 20
110.435900
 30
0.0
  0
SPLINE
  5
15a
100
AcDbEntity
  8
레이어_1
 62
7
100
AcDbSpline
 70
8
 71
3
 72
8
 73
4
 74
0
 40
0
 40
0
 40
0
 40
0
 40
1
 40
1
 40
1
 40
1
 10
78.030999
 20
72.325690
 30
0.0
 10
78.030999
 20
71.835757
 30
0.0
 10
77.910330
 20
71.590790
 30
0.0
 10
77.668992
 20
71.590790
 30
0.0
  0
LWPOLYLINE
  5
15b
100
AcDbEntity
  8
레이어_1
 62
7
100
AcDbPolyline
 90
1
 70
1
 10
71.836453
 20
91.118330
 30
0.0
  0
SPLINE
  5
15c
100
AcDbEntity
  8
레이어_1
 62
7
100
AcDbSpline
 70
8
 71
3
 72
8
 73
4
 74
0
 40
0
 40
0
 40
0
 40
0
 40
1
 40
1
 40
1
 40
1
 10
76.479535
 20
71.590790
 30
0.0
 10
76.238193
 20
71.590790
 30
0.0
 10
76.117522
 20
71.835757
 30
0.0
 10
76.117522
 20
72.325690
 30
0.0
  0
LWPOLYLINE
  5
15d
100
AcDbEntity
  8
레이어_1
 62
7
100
AcDbPolyline
 90
2
 70
0
 10
77.668992
 20
71.590790
 30
0.0
 10
76.479535
 20
71.590790
 30
0.0
  0
SPLINE
  5
15e
100
AcDbEntity
  8
레이어_1
 62
7
100
AcDbSpline
 70
8
 71
3
 72
8
 73
4
 74
0
 40
0
 40
0
 40
0
 40
0
 40
1
 40
1
 40
1
 40
1
 10
76.117522
 20
108.913590
 30
0.0
 10
76.117522
 20
109.683503
 30
0.0
 10
76.143382
 20
110.120950
 30
0.0
 10
76.195102
 20
110.225930
 30
0.0
  0
SPLINE
  5
15f
100
AcDbEntity
  8
레이어_1
 62
7
100
AcDbSpline
 70
8
 71
3
 72
8
 73
4
 74
0
 40
0
 40
0
 40
0
 40
0
 40
1
 40
1
 40
1
 40
1
 10
76.195102
 20
110.225930
 30
0.0
 10
76.264057
 20
110.365910
 30
0.0
 10
76.488157
 20
110.435900
 30
0.0
 10
76.867403
 20
110.435900
 30
0.0
  0
LWPOLYLINE
  5
160
100
AcDbEntity
  8
레이어_1
 62
7
100
AcDbPolyline
 90
2
 70
0
 10
76.117522
 20
72.325690
 30
0.0
 10
76.117522
 20
108.913590
 30
0.0
  0
SPLINE
  5
161
100
AcDbEntity
  8
레이어_1
 62
7
100
AcDbSpline
 70
8
 71
3
 72
8
 73
4
 74
0
 40
0
 40
0
 40
0
 40
0
 40
1
 40
1
 40
1
 40
1
 10
85.503902
 20
110.435900
 30
0.0
 10
85.745239
 20
110.435900
 30
0.0
 10
85.865908
 20
110.190933
 30
0.0
 10
85.865908
 20
109.701000
 30
0.0
  0
LWPOLYLINE
  5
162
100
AcDbEntity
  8
레이어_1
 62
7
100
AcDbPolyline
 90
2
 70
0
 10
76.867403
 20
110.435900
 30
0.0
 10
85.503902
 20
110.435900
 30
0.0
  0
SPLINE
  5
163
100
AcDbEntity
  8
레이어_1
 62
7
100
AcDbSpline
 70
8
 71
3
 72
8
 73
4
 74
0
 40
0
 40
0
 40
0
 40
0
 40
1
 40
1
 40
1
 40
1
 10
85.865908
 20
107.916230
 30
0.0
 10
85.865908
 20
107.426283
 30
0.0
 10
85.745239
 20
107.181310
 30
0.0
 10
85.503902
 20
107.181310
 30
0.0
  0
LWPOLYLINE
  5
164
100
AcDbEntity
  8
레이어_1
 62
7
100
AcDbPolyline
 90
2
 70
0
 10
85.865908
 20
109.701000
 30
0.0
 10
85.865908
 20
107.916230
 30
0.0
  0
SPLINE
  5
165
100
AcDbEntity
  8
레이어_1
 62
7
100
AcDbSpline
 70
8
 71
3
 72
8
 73
4
 74
0
 40
0
 40
0
 40
0
 40
0
 40
1
 40
1
 40
1
 40
1
 10
85.141889
 20
93.270560
 30
0.0
 10
85.383231
 20
93.270560
 30
0.0
 10
85.503902
 20
93.025590
 30
0.0
 10
85.503902
 20
92.535650
 30
0.0
  0
LWPOLYLINE
  5
166
100
AcDbEntity
  8
레이어_1
 62
7
100
AcDbPolyline
 90
4
 70
0
 10
85.503902
 20
107.181310
 30
0.0
 10
78.031004
 20
107.181310
 30
0.0
 10
78.031004
 20
93.270560
 30
0.0
 10
85.141889
 20
93.270560
 30
0.0
  0
SPLINE
  5
167
100
AcDbEntity
  8
레이어_1
 62
7
100
AcDbSpline
 70
8
 71
3
 72
8
 73
4
 74
0
 40
0
 40
0
 40
0
 40
0
 40
1
 40
1
 40
1
 40
1
 10
85.503902
 20
90.645890
 30
0.0
 10
85.503902
 20
90.155950
 30
0.0
 10
85.383231
 20
89.910980
 30
0.0
 10
85.141889
 20
89.910980
 30
0.0
  0
LWPOLYLINE
  5
168
100
AcDbEntity
  8
레이어_1
 62
7
100
AcDbPolyline
 90
2
 70
0
 10
85.503902
 20
92.535650
 30
0.0
 10
85.503902
 20
90.645890
 30
0.0
  0
SPLINE
  5
169
100
AcDbEntity
  8
레이어_1
 62
7
100
AcDbSpline
 70
8
 71
3
 72
8
 73
4
 74
0
 40
0
 40
0
 40
0
 40
0
 40
1
 40
1
 40
1
 40
1
 10
99.904246
 20
107.181310
 30
0.0
 10
99.818055
 20
104.171697
 30
0.0
 10
99.525000
 20
101.214570
 30
0.0
 10
99.025083
 20
98.309930
 30
0.0
  0
SPLINE
  5
16a
100
AcDbEntity
  8
레이어_1
 62
7
100
AcDbSpline
 70
8
 71
3
 72
8
 73
4
 74
0
 40
0
 40
0
 40
0
 40
0
 40
1
 40
1
 40
1
 40
1
 10
99.025083
 20
98.309930
 30
0.0
 10
98.525166
 20
95.405297
 30
0.0
 10
97.827005
 20
92.623147
 30
0.0
 10
96.930600
 20
89.963480
 30
0.0
  0
SPLINE
  5
16b
100
AcDbEntity
  8
레이어_1
 62
7
100
AcDbSpline
 70
8
 71
3
 72
8
 73
4
 74
0
 40
0
 40
0
 40
0
 40
0
 40
1
 40
1
 40
1
 40
1
 10
96.930600
 20
89.963480
 30
0.0
 10
96.051437
 20
87.338807
 30
0.0
 10
94.982652
 20
84.889113
 30
0.0
 10
93.724243
 20
82.614400
 30
0.0
  0
SPLINE
  5
16c
100
AcDbEntity
  8
레이어_1
 62
7
100
AcDbSpline
 70
8
 71
3
 72
8
 73
4
 74
0
 40
0
 40
0
 40
0
 40
0
 40
1
 40
1
 40
1
 40
1
 10
93.724243
 20
82.614400
 30
0.0
 10
92.483067
 20
80.374680
 30
0.0
 10
91.069508
 20
78.397427
 30
0.0
 10
89.483565
 20
76.682640
 30
0.0
  0
SPLINE
  5
16d
100
AcDbEntity
  8
레이어_1
 62
7
100
AcDbSpline
 70
8
 71
3
 72
8
 73
4
 74
0
 40
0
 40
0
 40
0
 40
0
 40
1
 40
1
 40
1
 40
1
 10
89.483565
 20
76.682640
 30
0.0
 10
89.259465
 20
76.437667
 30
0.0
 10
89.095700
 20
76.490163
 30
0.0
 10
88.992271
 20
76.840130
 30
0.0
  0
LWPOLYLINE
  5
16e
100
AcDbEntity
  8
레이어_1
 62
7
100
AcDbPolyline
 90
3
 70
0
 10
85.141889
 20
89.910980
 30
0.0
 10
78.031004
 20
89.910980
 30
0.0
 10
78.030999
 20
72.325690
 30
0.0
  0
SPLINE
  5
16f
100
AcDbEntity
  8
레이어_1
 62
7
100
AcDbSpline
 70
8
 71
3
 72
8
 73
4
 74
0
 40
0
 40
0
 40
0
 40
0
 40
1
 40
1
 40
1
 40
1
 10
88.423395
 20
78.677390
 30
0.0
 10
88.302729
 20
79.097337
 30
0.0
 10
88.337206
 20
79.394800
 30
0.0
 10
88.526827
 20
79.569780
 30
0.0
  0
SPLINE
  5
170
100
AcDbEntity
  8
레이어_1
 62
7
100
AcDbSpline
 70
8
 71
3
 72
8
 73
4
 74
0
 40
0
 40
0
 40
0
 40
0
 40
1
 40
1
 40
1
 40
1
 10
88.526827
 20
79.569780
 30
0.0
 10
89.992103
 20
81.109587
 30
0.0
 10
91.284991
 20
82.859367
 30
0.0
 10
92.405491
 20
84.819120
 30
0.0
  0
SPLINE
  5
171
100
AcDbEntity
  8
레이어_1
 62
7
100
AcDbSpline
 70
8
 71
3
 72
8
 73
4
 74
0
 40
0
 40
0
 40
0
 40
0
 40
1
 40
1
 40
1
 40
1
 10
92.405491
 20
84.819120
 30
0.0
 10
93.543234
 20
86.813873
 30
0.0
 10
94.508591
 20
88.966107
 30
0.0
 10
95.301562
 20
91.275820
 30
0.0
  0
SPLINE
  5
172
100
AcDbEntity
  8
레이어_1
 62
7
100
AcDbSpline
 70
8
 71
3
 72
8
 73
4
 74
0
 40
0
 40
0
 40
0
 40
0
 40
1
 40
1
 40
1
 40
1
 10
95.301562
 20
91.275820
 30
0.0
 10
96.111771
 20
93.585527
 30
0.0
 10
96.749596
 20
96.017720
 30
0.0
 10
97.215038
 20
98.572400
 30
0.0
  0
SPLINE
  5
173
100
AcDbEntity
  8
레이어_1
 62
7
100
AcDbSpline
 70
8
 71
3
 72
8
 73
4
 74
0
 40
0
 40
0
 40
0
 40
0
 40
1
 40
1
 40
1
 40
1
 10
97.215038
 20
98.572400
 30
0.0
 10
97.680476
 20
101.127080
 30
0.0
 10
97.973530
 20
103.751750
 30
0.0
 10
98.094201
 20
106.446410
 30
0.0
  0
SPLINE
  5
174
100
AcDbEntity
  8
레이어_1
 62
7
100
AcDbSpline
 70
8
 71
3
 72
8
 73
4
 74
0
 40
0
 40
0
 40
0
 40
0
 40
1
 40
1
 40
1
 40
1
 10
98.094201
 20
106.446410
 30
0.0
 10
98.128688
 20
106.971350
 30
0.0
 10
98.094211
 20
107.321307
 30
0.0
 10
97.990770
 20
107.496280
 30
0.0
  0
SPLINE
  5
175
100
AcDbEntity
  8
레이어_1
 62
7
100
AcDbSpline
 70
8
 71
3
 72
8
 73
4
 74
0
 40
0
 40
0
 40
0
 40
0
 40
1
 40
1
 40
1
 40
1
 10
97.990770
 20
107.496280
 30
0.0
 10
97.887341
 20
107.706247
 30
0.0
 10
97.714955
 20
107.811230
 30
0.0
 10
97.473613
 20
107.811230
 30
0.0
  0
LWPOLYLINE
  5
176
100
AcDbEntity
  8
레이어_1
 62
7
100
AcDbPolyline
 90
2
 70
0
 10
88.992271
 20
76.840130
 30
0.0
 10
88.423395
 20
78.677390
 30
0.0
  0
SPLINE
  5
177
100
AcDbEntity
  8
레이어_1
 62
7
100
AcDbSpline
 70
8
 71
3
 72
8
 73
4
 74
0
 40
0
 40
0
 40
0
 40
0
 40
1
 40
1
 40
1
 40
1
 10
89.457709
 20
107.811230
 30
0.0
 10
89.250846
 20
107.811230
 30
0.0
 10
89.147415
 20
108.038703
 30
0.0
 10
89.147415
 20
108.493650
 30
0.0
  0
LWPOLYLINE
  5
178
100
AcDbEntity
  8
레이어_1
 62
7
100
AcDbPolyline
 90
2
 70
0
 10
97.473613
 20
107.811230
 30
0.0
 10
89.457709
 20
107.811230
 30
0.0
  0
SPLINE
  5
179
100
AcDbEntity
  8
레이어_1
 62
7
100
AcDbSpline
 70
8
 71
3
 72
8
 73
4
 74
0
 40
0
 40
0
 40
0
 40
0
 40
1
 40
1
 40
1
 40
1
 10
89.147415
 20
110.330920
 30
0.0
 10
89.147415
 20
110.750873
 30
0.0
 10
89.250846
 20
110.960850
 30
0.0
 10
89.457709
 20
110.960850
 30
0.0
  0
LWPOLYLINE
  5
17a
100
AcDbEntity
  8
레이어_1
 62
7
100
AcDbPolyline
 90
2
 70
0
 10
89.147415
 20
108.493650
 30
0.0
 10
89.147415
 20
110.330920
 30
0.0
  0
SPLINE
  5
17b
100
AcDbEntity
  8
레이어_1
 62
7
100
AcDbSpline
 70
8
 71
3
 72
8
 73
4
 74
0
 40
0
 40
0
 40
0
 40
0
 40
1
 40
1
 40
1
 40
1
 10
97.964914
 20
110.960850
 30
0.0
 10
98.775123
 20
110.960850
 30
0.0
 10
99.309517
 20
110.645887
 30
0.0
 10
99.568096
 20
110.015960
 30
0.0
  0
SPLINE
  5
17c
100
AcDbEntity
  8
레이어_1
 62
7
100
AcDbSpline
 70
8
 71
3
 72
8
 73
4
 74
0
 40
0
 40
0
 40
0
 40
0
 40
1
 40
1
 40
1
 40
1
 10
99.568096
 20
110.015960
 30
0.0
 10
99.826671
 20
109.421033
 30
0.0
 10
99.938721
 20
108.476150
 30
0.0
 10
99.904246
 20
107.181310
 30
0.0
  0
LWPOLYLINE
  5
17d
100
AcDbEntity
  8
레이어_1
 62
7
100
AcDbPolyline
 90
2
 70
0
 10
89.457709
 20
110.960850
 30
0.0
 10
97.964914
 20
110.960850
 30
0.0
  0
SPLINE
  5
17e
100
AcDbEntity
  8
레이어_1
 62
7
100
AcDbSpline
 70
8
 71
3
 72
8
 73
4
 74
0
 40
0
 40
0
 40
0
 40
0
 40
1
 40
1
 40
1
 40
1
 10
106.704840
 20
67.233830
 30
0.0
 10
106.704840
 20
66.743883
 30
0.0
 10
106.584170
 20
66.498910
 30
0.0
 10
106.342830
 20
66.498910
 30
0.0
  0
LWPOLYLINE
  5
17f
100
AcDbEntity
  8
레이어_1
 62
7
100
AcDbPolyline
 90
1
 70
1
 10
99.904246
 20
107.181310
 30
0.0
  0
SPLINE
  5
180
100
AcDbEntity
  8
레이어_1
 62
7
100
AcDbSpline
 70
8
 71
3
 72
8
 73
4
 74
0
 40
0
 40
0
 40
0
 40
0
 40
1
 40
1
 40
1
 40
1
 10
105.282660
 20
66.498910
 30
0.0
 10
105.041320
 20
66.498910
 30
0.0
 10
104.920650
 20
66.743883
 30
0.0
 10
104.920650
 20
67.233830
 30
0.0
  0
LWPOLYLINE
  5
181
100
AcDbEntity
  8
레이어_1
 62
7
100
AcDbPolyline
 90
2
 70
0
 10
106.342830
 20
66.498910
 30
0.0
 10
105.282660
 20
66.498910
 30
0.0
  0
SPLINE
  5
182
100
AcDbEntity
  8
레이어_1
 62
7
100
AcDbSpline
 70
8
 71
3
 72
8
 73
4
 74
0
 40
0
 40
0
 40
0
 40
0
 40
1
 40
1
 40
1
 40
1
 10
104.920650
 20
114.162940
 30
0.0
 10
104.920650
 20
114.652880
 30
0.0
 10
105.041320
 20
114.897850
 30
0.0
 10
105.282660
 20
114.897850
 30
0.0
  0
LWPOLYLINE
  5
183
100
AcDbEntity
  8
레이어_1
 62
7
100
AcDbPolyline
 90
2
 70
0
 10
104.920650
 20
67.233830
 30
0.0
 10
104.920650
 20
114.162940
 30
0.0
  0
SPLINE
  5
184
100
AcDbEntity
  8
레이어_1
 62
7
100
AcDbSpline
 70
8
 71
3
 72
8
 73
4
 74
0
 40
0
 40
0
 40
0
 40
0
 40
1
 40
1
 40
1
 40
1
 10
106.342830
 20
114.897850
 30
0.0
 10
106.584170
 20
114.897850
 30
0.0
 10
106.704840
 20
114.652880
 30
0.0
 10
106.704840
 20
114.162940
 30
0.0
  0
LWPOLYLINE
  5
185
100
AcDbEntity
  8
레이어_1
 62
7
100
AcDbPolyline
 90
2
 70
0
 10
105.282660
 20
114.897850
 30
0.0
 10
106.342830
 20
114.897850
 30
0.0
  0
SPLINE
  5
186
100
AcDbEntity
  8
레이어_1
 62
7
100
AcDbSpline
 70
8
 71
3
 72
8
 73
4
 74
0
 40
0
 40
0
 40
0
 40
0
 40
1
 40
1
 40
1
 40
1
 10
110.273210
 20
95.580270
 30
0.0
 10
110.376643
 20
95.580270
 30
0.0
 10
110.462837
 20
95.510277
 30
0.0
 10
110.531790
 20
95.370290
 30
0.0
  0
SPLINE
  5
187
100
AcDbEntity
  8
레이어_1
 62
7
100
AcDbSpline
 70
8
 71
3
 72
8
 73
4
 74
0
 40
0
 40
0
 40
0
 40
0
 40
1
 40
1
 40
1
 40
1
 10
110.531790
 20
95.370290
 30
0.0
 10
110.617983
 20
95.265310
 30
0.0
 10
110.661080
 20
95.107830
 30
0.0
 10
110.661080
 20
94.897850
 30
0.0
  0
LWPOLYLINE
  5
188
100
AcDbEntity
  8
레이어_1
 62
7
100
AcDbPolyline
 90
3
 70
0
 10
106.704840
 20
114.162940
 30
0.0
 10
106.704840
 20
95.580270
 30
0.0
 10
110.273210
 20
95.580270
 30
0.0
  0
SPLINE
  5
189
100
AcDbEntity
  8
레이어_1
 62
7
100
AcDbSpline
 70
8
 71
3
 72
8
 73
4
 74
0
 40
0
 40
0
 40
0
 40
0
 40
1
 40
1
 40
1
 40
1
 10
110.661080
 20
93.113080
 30
0.0
 10
110.661080
 20
92.938107
 30
0.0
 10
110.617983
 20
92.780627
 30
0.0
 10
110.531790
 20
92.640640
 30
0.0
  0
SPLINE
  5
18a
100
AcDbEntity
  8
레이어_1
 62
7
100
AcDbSpline
 70
8
 71
3
 72
8
 73
4
 74
0
 40
0
 40
0
 40
0
 40
0
 40
1
 40
1
 40
1
 40
1
 10
110.531790
 20
92.640640
 30
0.0
 10
110.462837
 20
92.500660
 30
0.0
 10
110.376643
 20
92.430670
 30
0.0
 10
110.273210
 20
92.430670
 30
0.0
  0
LWPOLYLINE
  5
18b
100
AcDbEntity
  8
레이어_1
 62
7
100
AcDbPolyline
 90
2
 70
0
 10
110.661080
 20
94.897850
 30
0.0
 10
110.661080
 20
93.113080
 30
0.0
  0
SPLINE
  5
18c
100
AcDbEntity
  8
레이어_1
 62
7
100
AcDbSpline
 70
8
 71
3
 72
8
 73
4
 74
0
 40
0
 40
0
 40
0
 40
0
 40
1
 40
1
 40
1
 40
1
 10
130.997000
 20
67.233830
 30
0.0
 10
130.997000
 20
66.743883
 30
0.0
 10
130.876330
 20
66.498910
 30
0.0
 10
130.634990
 20
66.498910
 30
0.0
  0
LWPOLYLINE
  5
18d
100
AcDbEntity
  8
레이어_1
 62
7
100
AcDbPolyline
 90
3
 70
0
 10
110.273210
 20
92.430670
 30
0.0
 10
106.704840
 20
92.430670
 30
0.0
 10
106.704840
 20
67.233830
 30
0.0
  0
SPLINE
  5
18e
100
AcDbEntity
  8
레이어_1
 62
7
100
AcDbSpline
 70
8
 71
3
 72
8
 73
4
 74
0
 40
0
 40
0
 40
0
 40
0
 40
1
 40
1
 40
1
 40
1
 10
129.574820
 20
66.498910
 30
0.0
 10
129.333480
 20
66.498910
 30
0.0
 10
129.212810
 20
66.743883
 30
0.0
 10
129.212810
 20
67.233830
 30
0.0
  0
LWPOLYLINE
  5
18f
100
AcDbEntity
  8
레이어_1
 62
7
100
AcDbPolyline
 90
2
 70
0
 10
130.634990
 20
66.498910
 30
0.0
 10
129.574820
 20
66.498910
 30
0.0
  0
SPLINE
  5
190
100
AcDbEntity
  8
레이어_1
 62
7
100
AcDbSpline
 70
8
 71
3
 72
8
 73
4
 74
0
 40
0
 40
0
 40
0
 40
0
 40
1
 40
1
 40
1
 40
1
 10
129.212810
 20
114.162940
 30
0.0
 10
129.212810
 20
114.652880
 30
0.0
 10
129.333480
 20
114.897850
 30
0.0
 10
129.574820
 20
114.897850
 30
0.0
  0
LWPOLYLINE
  5
191
100
AcDbEntity
  8
레이어_1
 62
7
100
AcDbPolyline
 90
2
 70
0
 10
129.212810
 20
67.233830
 30
0.0
 10
129.212810
 20
114.162940
 30
0.0
  0
SPLINE
  5
192
100
AcDbEntity
  8
레이어_1
 62
7
100
AcDbSpline
 70
8
 71
3
 72
8
 73
4
 74
0
 40
0
 40
0
 40
0
 40
0
 40
1
 40
1
 40
1
 40
1
 10
130.634990
 20
114.897850
 30
0.0
 10
130.876330
 20
114.897850
 30
0.0
 10
130.997000
 20
114.652880
 30
0.0
 10
130.997000
 20
114.162940
 30
0.0
  0
LWPOLYLINE
  5
193
100
AcDbEntity
  8
레이어_1
 62
7
100
AcDbPolyline
 90
2
 70
0
 10
129.574820
 20
114.897850
 30
0.0
 10
130.634990
 20
114.897850
 30
0.0
  0
SPLINE
  5
194
100
AcDbEntity
  8
레이어_1
 62
7
100
AcDbSpline
 70
8
 71
3
 72
8
 73
4
 74
0
 40
0
 40
0
 40
0
 40
0
 40
1
 40
1
 40
1
 40
1
 10
134.565370
 20
95.055340
 30
0.0
 10
134.668803
 20
95.055340
 30
0.0
 10
134.754993
 20
94.985347
 30
0.0
 10
134.823940
 20
94.845360
 30
0.0
  0
SPLINE
  5
195
100
AcDbEntity
  8
레이어_1
 62
7
100
AcDbSpline
 70
8
 71
3
 72
8
 73
4
 74
0
 40
0
 40
0
 40
0
 40
0
 40
1
 40
1
 40
1
 40
1
 10
134.823940
 20
94.845360
 30
0.0
 10
134.910140
 20
94.740373
 30
0.0
 10
134.953240
 20
94.582897
 30
0.0
 10
134.953240
 20
94.372930
 30
0.0
  0
LWPOLYLINE
  5
196
100
AcDbEntity
  8
레이어_1
 62
7
100
AcDbPolyline
 90
3
 70
0
 10
130.997000
 20
114.162940
 30
0.0
 10
130.997000
 20
95.055340
 30
0.0
 10
134.565370
 20
95.055340
 30
0.0
  0
SPLINE
  5
197
100
AcDbEntity
  8
레이어_1
 62
7
100
AcDbSpline
 70
8
 71
3
 72
8
 73
4
 74
0
 40
0
 40
0
 40
0
 40
0
 40
1
 40
1
 40
1
 40
1
 10
134.953240
 20
92.588150
 30
0.0
 10
134.953240
 20
92.413163
 30
0.0
 10
134.910140
 20
92.255683
 30
0.0
 10
134.823940
 20
92.115710
 30
0.0
  0
SPLINE
  5
198
100
AcDbEntity
  8
레이어_1
 62
7
100
AcDbSpline
 70
8
 71
3
 72
8
 73
4
 74
0
 40
0
 40
0
 40
0
 40
0
 40
1
 40
1
 40
1
 40
1
 10
134.823940
 20
92.115710
 30
0.0
 10
134.754993
 20
91.975730
 30
0.0
 10
134.668803
 20
91.905740
 30
0.0
 10
134.565370
 20
91.905740
 30
0.0
  0
LWPOLYLINE
  5
199
100
AcDbEntity
  8
레이어_1
 62
7
100
AcDbPolyline
 90
2
 70
0
 10
134.953240
 20
94.372930
 30
0.0
 10
134.953240
 20
92.588150
 30
0.0
  0
SPLINE
  5
19a
100
AcDbEntity
  8
레이어_1
 62
7
100
AcDbSpline
 70
8
 71
3
 72
8
 73
4
 74
0
 40
0
 40
0
 40
0
 40
0
 40
1
 40
1
 40
1
 40
1
 10
115.766780
 20
85.659020
 30
0.0
 10
115.766780
 20
85.134080
 30
0.0
 10
115.809873
 20
84.784120
 30
0.0
 10
115.896060
 20
84.609140
 30
0.0
  0
SPLINE
  5
19b
100
AcDbEntity
  8
레이어_1
 62
7
100
AcDbSpline
 70
8
 71
3
 72
8
 73
4
 74
0
 40
0
 40
0
 40
0
 40
0
 40
1
 40
1
 40
1
 40
1
 10
115.896060
 20
84.609140
 30
0.0
 10
115.982253
 20
84.434167
 30
0.0
 10
116.146020
 20
84.329183
 30
0.0
 10
116.387360
 20
84.294190
 30
0.0
  0
SPLINE
  5
19c
100
AcDbEntity
  8
레이어_1
 62
7
100
AcDbSpline
 70
8
 71
3
 72
8
 73
4
 74
0
 40
0
 40
0
 40
0
 40
0
 40
1
 40
1
 40
1
 40
1
 10
116.387360
 20
84.294190
 30
0.0
 10
118.042253
 20
84.189203
 30
0.0
 10
119.766103
 20
84.329187
 30
0.0
 10
121.558910
 20
84.714140
 30
0.0
  0
SPLINE
  5
19d
100
AcDbEntity
  8
레이어_1
 62
7
100
AcDbSpline
 70
8
 71
3
 72
8
 73
4
 74
0
 40
0
 40
0
 40
0
 40
0
 40
1
 40
1
 40
1
 40
1
 10
121.558910
 20
84.714140
 30
0.0
 10
123.351717
 20
85.134087
 30
0.0
 10
125.058330
 20
85.659020
 30
0.0
 10
126.678750
 20
86.288940
 30
0.0
  0
SPLINE
  5
19e
100
AcDbEntity
  8
레이어_1
 62
7
100
AcDbSpline
 70
8
 71
3
 72
8
 73
4
 74
0
 40
0
 40
0
 40
0
 40
0
 40
1
 40
1
 40
1
 40
1
 10
126.678750
 20
86.288940
 30
0.0
 10
126.971803
 20
86.428920
 30
0.0
 10
127.144190
 20
86.218947
 30
0.0
 10
127.195910
 20
85.659020
 30
0.0
  0
LWPOLYLINE
  5
19f
100
AcDbEntity
  8
레이어_1
 62
7
100
AcDbPolyline
 90
3
 70
0
 10
134.565370
 20
91.905740
 30
0.0
 10
130.997000
 20
91.905740
 30
0.0
 10
130.997000
 20
67.233830
 30
0.0
  0
SPLINE
  5
1a0
100
AcDbEntity
  8
레이어_1
 62
7
100
AcDbSpline
 70
8
 71
3
 72
8
 73
4
 74
0
 40
0
 40
0
 40
0
 40
0
 40
1
 40
1
 40
1
 40
1
 10
127.325200
 20
84.189200
 30
0.0
 10
127.376933
 20
83.699260
 30
0.0
 10
127.264883
 20
83.384300
 30
0.0
 10
126.989050
 20
83.244320
 30
0.0
  0
SPLINE
  5
1a1
100
AcDbEntity
  8
레이어_1
 62
7
100
AcDbSpline
 70
8
 71
3
 72
8
 73
4
 74
0
 40
0
 40
0
 40
0
 40
0
 40
1
 40
1
 40
1
 40
1
 10
126.989050
 20
83.244320
 30
0.0
 10
126.351223
 20
82.929360
 30
0.0
 10
125.566870
 20
82.631897
 30
0.0
 10
124.635990
 20
82.351930
 30
0.0
  0
SPLINE
  5
1a2
100
AcDbEntity
  8
레이어_1
 62
7
100
AcDbSpline
 70
8
 71
3
 72
8
 73
4
 74
0
 40
0
 40
0
 40
0
 40
0
 40
1
 40
1
 40
1
 40
1
 10
124.635990
 20
82.351930
 30
0.0
 10
123.722343
 20
82.071963
 30
0.0
 10
122.756987
 20
81.826997
 30
0.0
 10
121.739920
 20
81.617030
 30
0.0
  0
SPLINE
  5
1a3
100
AcDbEntity
  8
레이어_1
 62
7
100
AcDbSpline
 70
8
 71
3
 72
8
 73
4
 74
0
 40
0
 40
0
 40
0
 40
0
 40
1
 40
1
 40
1
 40
1
 10
121.739920
 20
81.617030
 30
0.0
 10
120.722847
 20
81.407050
 30
0.0
 10
119.705773
 20
81.249567
 30
0.0
 10
118.688700
 20
81.144580
 30
0.0
  0
SPLINE
  5
1a4
100
AcDbEntity
  8
레이어_1
 62
7
100
AcDbSpline
 70
8
 71
3
 72
8
 73
4
 74
0
 40
0
 40
0
 40
0
 40
0
 40
1
 40
1
 40
1
 40
1
 10
118.688700
 20
81.144580
 30
0.0
 10
117.688867
 20
81.039600
 30
0.0
 10
116.801083
 20
81.004597
 30
0.0
 10
116.025350
 20
81.039570
 30
0.0
  0
SPLINE
  5
1a5
100
AcDbEntity
  8
레이어_1
 62
7
100
AcDbSpline
 70
8
 71
3
 72
8
 73
4
 74
0
 40
0
 40
0
 40
0
 40
0
 40
1
 40
1
 40
1
 40
1
 10
116.025350
 20
81.039570
 30
0.0
 10
115.249617
 20
81.074503
 30
0.0
 10
114.715223
 20
81.441957
 30
0.0
 10
114.422170
 20
82.141930
 30
0.0
  0
SPLINE
  5
1a6
100
AcDbEntity
  8
레이어_1
 62
7
100
AcDbSpline
 70
8
 71
3
 72
8
 73
4
 74
0
 40
0
 40
0
 40
0
 40
0
 40
1
 40
1
 40
1
 40
1
 10
114.422170
 20
82.141930
 30
0.0
 10
114.129117
 20
82.841843
 30
0.0
 10
113.982590
 20
83.926707
 30
0.0
 10
113.982590
 20
85.396520
 30
0.0
  0
LWPOLYLINE
  5
1a7
100
AcDbEntity
  8
레이어_1
 62
7
100
AcDbPolyline
 90
2
 70
0
 10
127.195910
 20
85.659020
 30
0.0
 10
127.325200
 20
84.189200
 30
0.0
  0
SPLINE
  5
1a8
100
AcDbEntity
  8
레이어_1
 62
7
100
AcDbSpline
 70
8
 71
3
 72
8
 73
4
 74
0
 40
0
 40
0
 40
0
 40
0
 40
1
 40
1
 40
1
 40
1
 10
113.982590
 20
111.223310
 30
0.0
 10
113.982590
 20
111.713243
 30
0.0
 10
114.103257
 20
111.958210
 30
0.0
 10
114.344590
 20
111.958210
 30
0.0
  0
LWPOLYLINE
  5
1a9
100
AcDbEntity
  8
레이어_1
 62
7
100
AcDbPolyline
 90
2
 70
0
 10
113.982590
 20
85.396520
 30
0.0
 10
113.982590
 20
111.223310
 30
0.0
  0
SPLINE
  5
1aa
100
AcDbEntity
  8
레이어_1
 62
7
100
AcDbSpline
 70
8
 71
3
 72
8
 73
4
 74
0
 40
0
 40
0
 40
0
 40
0
 40
1
 40
1
 40
1
 40
1
 10
115.404760
 20
111.958210
 30
0.0
 10
115.646107
 20
111.958210
 30
0.0
 10
115.766780
 20
111.713243
 30
0.0
 10
115.766780
 20
111.223310
 30
0.0
  0
LWPOLYLINE
  5
1ab
100
AcDbEntity
  8
레이어_1
 62
7
100
AcDbPolyline
 90
2
 70
0
 10
114.344590
 20
111.958210
 30
0.0
 10
115.404760
 20
111.958210
 30
0.0
  0
SPLINE
  5
1ac
100
AcDbEntity
  8
레이어_1
 62
7
100
AcDbSpline
 70
8
 71
3
 72
8
 73
4
 74
0
 40
0
 40
0
 40
0
 40
0
 40
1
 40
1
 40
1
 40
1
 10
151.617350
 20
83.454290
 30
0.0
 10
151.651817
 20
82.964357
 30
0.0
 10
151.539767
 20
82.666897
 30
0.0
 10
151.281200
 20
82.561910
 30
0.0
  0
SPLINE
  5
1ad
100
AcDbEntity
  8
레이어_1
 62
7
100
AcDbSpline
 70
8
 71
3
 72
8
 73
4
 74
0
 40
0
 40
0
 40
0
 40
0
 40
1
 40
1
 40
1
 40
1
 10
151.281200
 20
82.561910
 30
0.0
 10
150.643373
 20
82.246950
 30
0.0
 10
149.833160
 20
81.949487
 30
0.0
 10
148.850560
 20
81.669520
 30
0.0
  0
SPLINE
  5
1ae
100
AcDbEntity
  8
레이어_1
 62
7
100
AcDbSpline
 70
8
 71
3
 72
8
 73
4
 74
0
 40
0
 40
0
 40
0
 40
0
 40
1
 40
1
 40
1
 40
1
 10
148.850560
 20
81.669520
 30
0.0
 10
147.885207
 20
81.389553
 30
0.0
 10
146.859517
 20
81.144580
 30
0.0
 10
145.773490
 20
80.934600
 30
0.0
  0
SPLINE
  5
1af
100
AcDbEntity
  8
레이어_1
 62
7
100
AcDbSpline
 70
8
 71
3
 72
8
 73
4
 74
0
 40
0
 40
0
 40
0
 40
0
 40
1
 40
1
 40
1
 40
1
 10
145.773490
 20
80.934600
 30
0.0
 10
144.704703
 20
80.724633
 30
0.0
 10
143.644537
 20
80.567153
 30
0.0
 10
142.592990
 20
80.462160
 30
0.0
  0
SPLINE
  5
1b0
100
AcDbEntity
  8
레이어_1
 62
7
100
AcDbSpline
 70
8
 71
3
 72
8
 73
4
 74
0
 40
0
 40
0
 40
0
 40
0
 40
1
 40
1
 40
1
 40
1
 10
142.592990
 20
80.462160
 30
0.0
 10
141.541443
 20
80.357180
 30
0.0
 10
140.627803
 20
80.322180
 30
0.0
 10
139.852070
 20
80.357160
 30
0.0
  0
SPLINE
  5
1b1
100
AcDbEntity
  8
레이어_1
 62
7
100
AcDbSpline
 70
8
 71
3
 72
8
 73
4
 74
0
 40
0
 40
0
 40
0
 40
0
 40
1
 40
1
 40
1
 40
1
 10
139.852070
 20
80.357160
 30
0.0
 10
139.076337
 20
80.392093
 30
0.0
 10
138.541940
 20
80.759547
 30
0.0
 10
138.248880
 20
81.459520
 30
0.0
  0
SPLINE
  5
1b2
100
AcDbEntity
  8
레이어_1
 62
7
100
AcDbSpline
 70
8
 71
3
 72
8
 73
4
 74
0
 40
0
 40
0
 40
0
 40
0
 40
1
 40
1
 40
1
 40
1
 10
138.248880
 20
81.459520
 30
0.0
 10
137.973067
 20
82.159433
 30
0.0
 10
137.835160
 20
83.244297
 30
0.0
 10
137.835160
 20
84.714110
 30
0.0
  0
LWPOLYLINE
  5
1b3
100
AcDbEntity
  8
레이어_1
 62
7
100
AcDbPolyline
 90
2
 70
0
 10
115.766780
 20
111.223310
 30
0.0
 10
115.766780
 20
85.659020
 30
0.0
  0
SPLINE
  5
1b4
100
AcDbEntity
  8
레이어_1
 62
7
100
AcDbSpline
 70
8
 71
3
 72
8
 73
4
 74
0
 40
0
 40
0
 40
0
 40
0
 40
1
 40
1
 40
1
 40
1
 10
137.835160
 20
107.286280
 30
0.0
 10
137.835160
 20
108.756093
 30
0.0
 10
137.973067
 20
109.735967
 30
0.0
 10
138.248880
 20
110.225900
 30
0.0
  0
SPLINE
  5
1b5
100
AcDbEntity
  8
레이어_1
 62
7
100
AcDbSpline
 70
8
 71
3
 72
8
 73
4
 74
0
 40
0
 40
0
 40
0
 40
0
 40
1
 40
1
 40
1
 40
1
 10
138.248880
 20
110.225900
 30
0.0
 10
138.524700
 20
110.715847
 30
0.0
 10
139.041857
 20
110.960820
 30
0.0
 10
139.800350
 20
110.960820
 30
0.0
  0
LWPOLYLINE
  5
1b6
100
AcDbEntity
  8
레이어_1
 62
7
100
AcDbPolyline
 90
2
 70
0
 10
137.835160
 20
84.714110
 30
0.0
 10
137.835160
 20
107.286280
 30
0.0
  0
SPLINE
  5
1b7
100
AcDbEntity
  8
레이어_1
 62
7
100
AcDbSpline
 70
8
 71
3
 72
8
 73
4
 74
0
 40
0
 40
0
 40
0
 40
0
 40
1
 40
1
 40
1
 40
1
 10
148.695420
 20
110.960820
 30
0.0
 10
148.919520
 20
110.960820
 30
0.0
 10
149.031570
 20
110.750847
 30
0.0
 10
149.031570
 20
110.330900
 30
0.0
  0
LWPOLYLINE
  5
1b8
100
AcDbEntity
  8
레이어_1
 62
7
100
AcDbPolyline
 90
2
 70
0
 10
139.800350
 20
110.960820
 30
0.0
 10
148.695420
 20
110.960820
 30
0.0
  0
SPLINE
  5
1b9
100
AcDbEntity
  8
레이어_1
 62
7
100
AcDbSpline
 70
8
 71
3
 72
8
 73
4
 74
0
 40
0
 40
0
 40
0
 40
0
 40
1
 40
1
 40
1
 40
1
 10
149.031570
 20
108.441130
 30
0.0
 10
149.031570
 20
108.021183
 30
0.0
 10
148.919520
 20
107.811210
 30
0.0
 10
148.695420
 20
107.811210
 30
0.0
  0
LWPOLYLINE
  5
1ba
100
AcDbEntity
  8
레이어_1
 62
7
100
AcDbPolyline
 90
2
 70
0
 10
149.031570
 20
110.330900
 30
0.0
 10
149.031570
 20
108.441130
 30
0.0
  0
SPLINE
  5
1bb
100
AcDbEntity
  8
레이어_1
 62
7
100
AcDbSpline
 70
8
 71
3
 72
8
 73
4
 74
0
 40
0
 40
0
 40
0
 40
0
 40
1
 40
1
 40
1
 40
1
 10
140.136500
 20
107.811210
 30
0.0
 10
139.895160
 20
107.811210
 30
0.0
 10
139.748633
 20
107.741217
 30
0.0
 10
139.696920
 20
107.601230
 30
0.0
  0
SPLINE
  5
1bc
100
AcDbEntity
  8
레이어_1
 62
7
100
AcDbSpline
 70
8
 71
3
 72
8
 73
4
 74
0
 40
0
 40
0
 40
0
 40
0
 40
1
 40
1
 40
1
 40
1
 10
139.696920
 20
107.601230
 30
0.0
 10
139.645187
 20
107.496250
 30
0.0
 10
139.619320
 20
107.181290
 30
0.0
 10
139.619320
 20
106.656350
 30
0.0
  0
LWPOLYLINE
  5
1bd
100
AcDbEntity
  8
레이어_1
 62
7
100
AcDbPolyline
 90
2
 70
0
 10
148.695420
 20
107.811210
 30
0.0
 10
140.136500
 20
107.811210
 30
0.0
  0
SPLINE
  5
1be
100
AcDbEntity
  8
레이어_1
 62
7
100
AcDbSpline
 70
8
 71
3
 72
8
 73
4
 74
0
 40
0
 40
0
 40
0
 40
0
 40
1
 40
1
 40
1
 40
1
 10
139.619320
 20
84.976570
 30
0.0
 10
139.619320
 20
84.451637
 30
0.0
 10
139.662413
 20
84.101680
 30
0.0
 10
139.748600
 20
83.926700
 30
0.0
  0
SPLINE
  5
1bf
100
AcDbEntity
  8
레이어_1
 62
7
100
AcDbSpline
 70
8
 71
3
 72
8
 73
4
 74
0
 40
0
 40
0
 40
0
 40
0
 40
1
 40
1
 40
1
 40
1
 10
139.748600
 20
83.926700
 30
0.0
 10
139.834793
 20
83.751727
 30
0.0
 10
139.998563
 20
83.646743
 30
0.0
 10
140.239910
 20
83.611750
 30
0.0
  0
SPLINE
  5
1c0
100
AcDbEntity
  8
레이어_1
 62
7
100
AcDbSpline
 70
8
 71
3
 72
8
 73
4
 74
0
 40
0
 40
0
 40
0
 40
0
 40
1
 40
1
 40
1
 40
1
 10
140.239910
 20
83.611750
 30
0.0
 10
141.067350
 20
83.541743
 30
0.0
 10
141.937893
 20
83.541743
 30
0.0
 10
142.851540
 20
83.611750
 30
0.0
  0
SPLINE
  5
1c1
100
AcDbEntity
  8
레이어_1
 62
7
100
AcDbSpline
 70
8
 71
3
 72
8
 73
4
 74
0
 40
0
 40
0
 40
0
 40
0
 40
1
 40
1
 40
1
 40
1
 10
142.851540
 20
83.611750
 30
0.0
 10
143.782420
 20
83.716730
 30
0.0
 10
144.713300
 20
83.856713
 30
0.0
 10
145.644180
 20
84.031700
 30
0.0
  0
SPLINE
  5
1c2
100
AcDbEntity
  8
레이어_1
 62
7
100
AcDbSpline
 70
8
 71
3
 72
8
 73
4
 74
0
 40
0
 40
0
 40
0
 40
0
 40
1
 40
1
 40
1
 40
1
 10
145.644180
 20
84.031700
 30
0.0
 10
146.592293
 20
84.241667
 30
0.0
 10
147.514550
 20
84.469137
 30
0.0
 10
148.410950
 20
84.714110
 30
0.0
  0
SPLINE
  5
1c3
100
AcDbEntity
  8
레이어_1
 62
7
100
AcDbSpline
 70
8
 71
3
 72
8
 73
4
 74
0
 40
0
 40
0
 40
0
 40
0
 40
1
 40
1
 40
1
 40
1
 10
148.410950
 20
84.714110
 30
0.0
 10
149.324597
 20
84.994077
 30
0.0
 10
150.186523
 20
85.291540
 30
0.0
 10
150.996730
 20
85.606500
 30
0.0
  0
SPLINE
  5
1c4
100
AcDbEntity
  8
레이어_1
 62
7
100
AcDbSpline
 70
8
 71
3
 72
8
 73
4
 74
0
 40
0
 40
0
 40
0
 40
0
 40
1
 40
1
 40
1
 40
1
 10
150.996730
 20
85.606500
 30
0.0
 10
151.272550
 20
85.711487
 30
0.0
 10
151.436317
 20
85.519007
 30
0.0
 10
151.488030
 20
85.029060
 30
0.0
  0
LWPOLYLINE
  5
1c5
100
AcDbEntity
  8
레이어_1
 62
7
100
AcDbPolyline
 90
2
 70
0
 10
139.619320
 20
106.656350
 30
0.0
 10
139.619320
 20
84.976570
 30
0.0
  0
SPLINE
  5
1c6
100
AcDbEntity
  8
레이어_1
 62
7
100
AcDbSpline
 70
8
 71
3
 72
8
 73
4
 74
0
 40
0
 40
0
 40
0
 40
0
 40
1
 40
1
 40
1
 40
1
 10
155.289150
 20
67.233830
 30
0.0
 10
155.289150
 20
66.743883
 30
0.0
 10
155.168480
 20
66.498910
 30
0.0
 10
154.927140
 20
66.498910
 30
0.0
  0
LWPOLYLINE
  5
1c7
100
AcDbEntity
  8
레이어_1
 62
7
100
AcDbPolyline
 90
2
 70
0
 10
151.488030
 20
85.029060
 30
0.0
 10
151.617350
 20
83.454290
 30
0.0
  0
SPLINE
  5
1c8
100
AcDbEntity
  8
레이어_1
 62
7
100
AcDbSpline
 70
8
 71
3
 72
8
 73
4
 74
0
 40
0
 40
0
 40
0
 40
0
 40
1
 40
1
 40
1
 40
1
 10
153.866970
 20
66.498910
 30
0.0
 10
153.625637
 20
66.498910
 30
0.0
 10
153.504970
 20
66.743883
 30
0.0
 10
153.504970
 20
67.233830
 30
0.0
  0
LWPOLYLINE
  5
1c9
100
AcDbEntity
  8
레이어_1
 62
7
100
AcDbPolyline
 90
2
 70
0
 10
154.927140
 20
66.498910
 30
0.0
 10
153.866970
 20
66.498910
 30
0.0
  0
SPLINE
  5
1ca
100
AcDbEntity
  8
레이어_1
 62
7
100
AcDbSpline
 70
8
 71
3
 72
8
 73
4
 74
0
 40
0
 40
0
 40
0
 40
0
 40
1
 40
1
 40
1
 40
1
 10
153.504970
 20
114.162940
 30
0.0
 10
153.504970
 20
114.652880
 30
0.0
 10
153.625637
 20
114.897850
 30
0.0
 10
153.866970
 20
114.897850
 30
0.0
  0
LWPOLYLINE
  5
1cb
100
AcDbEntity
  8
레이어_1
 62
7
100
AcDbPolyline
 90
2
 70
0
 10
153.504970
 20
67.233830
 30
0.0
 10
153.504970
 20
114.162940
 30
0.0
  0
SPLINE
  5
1cc
100
AcDbEntity
  8
레이어_1
 62
7
100
AcDbSpline
 70
8
 71
3
 72
8
 73
4
 74
0
 40
0
 40
0
 40
0
 40
0
 40
1
 40
1
 40
1
 40
1
 10
154.927140
 20
114.897850
 30
0.0
 10
155.168480
 20
114.897850
 30
0.0
 10
155.289150
 20
114.652880
 30
0.0
 10
155.289150
 20
114.162940
 30
0.0
  0
LWPOLYLINE
  5
1cd
100
AcDbEntity
  8
레이어_1
 62
7
100
AcDbPolyline
 90
2
 70
0
 10
153.866970
 20
114.897850
 30
0.0
 10
154.927140
 20
114.897850
 30
0.0
  0
SPLINE
  5
1ce
100
AcDbEntity
  8
레이어_1
 62
7
100
AcDbSpline
 70
8
 71
3
 72
8
 73
4
 74
0
 40
0
 40
0
 40
0
 40
0
 40
1
 40
1
 40
1
 40
1
 10
158.857520
 20
95.055340
 30
0.0
 10
158.960953
 20
95.055340
 30
0.0
 10
159.047147
 20
94.985347
 30
0.0
 10
159.116100
 20
94.845360
 30
0.0
  0
SPLINE
  5
1cf
100
AcDbEntity
  8
레이어_1
 62
7
100
AcDbSpline
 70
8
 71
3
 72
8
 73
4
 74
0
 40
0
 40
0
 40
0
 40
0
 40
1
 40
1
 40
1
 40
1
 10
159.116100
 20
94.845360
 30
0.0
 10
159.202293
 20
94.740373
 30
0.0
 10
159.245390
 20
94.582897
 30
0.0
 10
159.245390
 20
94.372930
 30
0.0
  0
LWPOLYLINE
  5
1d0
100
AcDbEntity
  8
레이어_1
 62
7
100
AcDbPolyline
 90
3
 70
0
 10
155.289150
 20
114.162940
 30
0.0
 10
155.289150
 20
95.055340
 30
0.0
 10
158.857520
 20
95.055340
 30
0.0
  0
SPLINE
  5
1d1
100
AcDbEntity
  8
레이어_1
 62
7
100
AcDbSpline
 70
8
 71
3
 72
8
 73
4
 74
0
 40
0
 40
0
 40
0
 40
0
 40
1
 40
1
 40
1
 40
1
 10
159.245390
 20
92.588150
 30
0.0
 10
159.245390
 20
92.413163
 30
0.0
 10
159.202293
 20
92.255683
 30
0.0
 10
159.116100
 20
92.115710
 30
0.0
  0
SPLINE
  5
1d2
100
AcDbEntity
  8
레이어_1
 62
7
100
AcDbSpline
 70
8
 71
3
 72
8
 73
4
 74
0
 40
0
 40
0
 40
0
 40
0
 40
1
 40
1
 40
1
 40
1
 10
159.116100
 20
92.115710
 30
0.0
 10
159.047147
 20
91.975730
 30
0.0
 10
158.960953
 20
91.905740
 30
0.0
 10
158.857520
 20
91.905740
 30
0.0
  0
LWPOLYLINE
  5
1d3
100
AcDbEntity
  8
레이어_1
 62
7
100
AcDbPolyline
 90
2
 70
0
 10
159.245390
 20
94.372930
 30
0.0
 10
159.245390
 20
92.588150
 30
0.0
  0
SPLINE
  5
1d4
100
AcDbEntity
  8
레이어_1
 62
7
100
AcDbSpline
 70
8
 71
3
 72
8
 73
4
 74
0
 40
0
 40
0
 40
0
 40
0
 40
1
 40
1
 40
1
 40
1
 10
164.066650
 20
78.519910
 30
0.0
 10
163.290917
 20
78.589910
 30
0.0
 10
162.765143
 20
78.904873
 30
0.0
 10
162.489330
 20
79.464800
 30
0.0
  0
SPLINE
  5
1d5
100
AcDbEntity
  8
레이어_1
 62
7
100
AcDbSpline
 70
8
 71
3
 72
8
 73
4
 74
0
 40
0
 40
0
 40
0
 40
0
 40
1
 40
1
 40
1
 40
1
 10
162.489330
 20
79.464800
 30
0.0
 10
162.230750
 20
80.059720
 30
0.0
 10
162.101460
 20
81.092090
 30
0.0
 10
162.101460
 20
82.561910
 30
0.0
  0
LWPOLYLINE
  5
1d6
100
AcDbEntity
  8
레이어_1
 62
7
100
AcDbPolyline
 90
3
 70
0
 10
158.857520
 20
91.905740
 30
0.0
 10
155.289150
 20
91.905740
 30
0.0
 10
155.289150
 20
67.233830
 30
0.0
  0
SPLINE
  5
1d7
100
AcDbEntity
  8
레이어_1
 62
7
100
AcDbSpline
 70
8
 71
3
 72
8
 73
4
 74
0
 40
0
 40
0
 40
0
 40
0
 40
1
 40
1
 40
1
 40
1
 10
162.101460
 20
92.955600
 30
0.0
 10
162.101460
 20
94.425413
 30
0.0
 10
162.247987
 20
95.405293
 30
0.0
 10
162.541040
 20
95.895240
 30
0.0
  0
SPLINE
  5
1d8
100
AcDbEntity
  8
레이어_1
 62
7
100
AcDbSpline
 70
8
 71
3
 72
8
 73
4
 74
0
 40
0
 40
0
 40
0
 40
0
 40
1
 40
1
 40
1
 40
1
 10
162.541040
 20
95.895240
 30
0.0
 10
162.851333
 20
96.420167
 30
0.0
 10
163.394347
 20
96.682630
 30
0.0
 10
164.170080
 20
96.682630
 30
0.0
  0
LWPOLYLINE
  5
1d9
100
AcDbEntity
  8
레이어_1
 62
7
100
AcDbPolyline
 90
2
 70
0
 10
162.101460
 20
82.561910
 30
0.0
 10
162.101460
 20
92.955600
 30
0.0
  0
SPLINE
  5
1da
100
AcDbEntity
  8
레이어_1
 62
7
100
AcDbSpline
 70
8
 71
3
 72
8
 73
4
 74
0
 40
0
 40
0
 40
0
 40
0
 40
1
 40
1
 40
1
 40
1
 10
170.686240
 20
96.682630
 30
0.0
 10
170.927580
 20
96.682630
 30
0.0
 10
171.082727
 20
96.752620
 30
0.0
 10
171.151680
 20
96.892600
 30
0.0
  0
SPLINE
  5
1db
100
AcDbEntity
  8
레이어_1
 62
7
100
AcDbSpline
 70
8
 71
3
 72
8
 73
4
 74
0
 40
0
 40
0
 40
0
 40
0
 40
1
 40
1
 40
1
 40
1
 10
171.151680
 20
96.892600
 30
0.0
 10
171.220633
 20
97.032587
 30
0.0
 10
171.255110
 20
97.365047
 30
0.0
 10
171.255110
 20
97.889980
 30
0.0
  0
LWPOLYLINE
  5
1dc
100
AcDbEntity
  8
레이어_1
 62
7
100
AcDbPolyline
 90
2
 70
0
 10
164.170080
 20
96.682630
 30
0.0
 10
170.686240
 20
96.682630
 30
0.0
  0
SPLINE
  5
1dd
100
AcDbEntity
  8
레이어_1
 62
7
100
AcDbSpline
 70
8
 71
3
 72
8
 73
4
 74
0
 40
0
 40
0
 40
0
 40
0
 40
1
 40
1
 40
1
 40
1
 10
171.255110
 20
106.603890
 30
0.0
 10
171.255110
 20
107.128823
 30
0.0
 10
171.220633
 20
107.461280
 30
0.0
 10
171.151680
 20
107.601260
 30
0.0
  0
SPLINE
  5
1de
100
AcDbEntity
  8
레이어_1
 62
7
100
AcDbSpline
 70
8
 71
3
 72
8
 73
4
 74
0
 40
0
 40
0
 40
0
 40
0
 40
1
 40
1
 40
1
 40
1
 10
171.151680
 20
107.601260
 30
0.0
 10
171.099947
 20
107.741240
 30
0.0
 10
170.953420
 20
107.811230
 30
0.0
 10
170.712100
 20
107.811230
 30
0.0
  0
LWPOLYLINE
  5
1df
100
AcDbEntity
  8
레이어_1
 62
7
100
AcDbPolyline
 90
2
 70
0
 10
171.255110
 20
97.889980
 30
0.0
 10
171.255110
 20
106.603890
 30
0.0
  0
SPLINE
  5
1e0
100
AcDbEntity
  8
레이어_1
 62
7
100
AcDbSpline
 70
8
 71
3
 72
8
 73
4
 74
0
 40
0
 40
0
 40
0
 40
0
 40
1
 40
1
 40
1
 40
1
 10
162.566900
 20
107.811230
 30
0.0
 10
162.480707
 20
107.811230
 30
0.0
 10
162.394517
 20
107.863727
 30
0.0
 10
162.308330
 20
107.968720
 30
0.0
  0
SPLINE
  5
1e1
100
AcDbEntity
  8
레이어_1
 62
7
100
AcDbSpline
 70
8
 71
3
 72
8
 73
4
 74
0
 40
0
 40
0
 40
0
 40
0
 40
1
 40
1
 40
1
 40
1
 10
162.308330
 20
107.968720
 30
0.0
 10
162.239370
 20
108.073707
 30
0.0
 10
162.204890
 20
108.213690
 30
0.0
 10
162.204890
 20
108.388670
 30
0.0
  0
LWPOLYLINE
  5
1e2
100
AcDbEntity
  8
레이어_1
 62
7
100
AcDbPolyline
 90
2
 70
0
 10
170.712100
 20
107.811230
 30
0.0
 10
162.566900
 20
107.811230
 30
0.0
  0
SPLINE
  5
1e3
100
AcDbEntity
  8
레이어_1
 62
7
100
AcDbSpline
 70
8
 71
3
 72
8
 73
4
 74
0
 40
0
 40
0
 40
0
 40
0
 40
1
 40
1
 40
1
 40
1
 10
162.204890
 20
110.383410
 30
0.0
 10
162.204890
 20
110.558390
 30
0.0
 10
162.239370
 20
110.698373
 30
0.0
 10
162.308330
 20
110.803360
 30
0.0
  0
SPLINE
  5
1e4
100
AcDbEntity
  8
레이어_1
 62
7
100
AcDbSpline
 70
8
 71
3
 72
8
 73
4
 74
0
 40
0
 40
0
 40
0
 40
0
 40
1
 40
1
 40
1
 40
1
 10
162.308330
 20
110.803360
 30
0.0
 10
162.394517
 20
110.908353
 30
0.0
 10
162.480707
 20
110.960850
 30
0.0
 10
162.566900
 20
110.960850
 30
0.0
  0
LWPOLYLINE
  5
1e5
100
AcDbEntity
  8
레이어_1
 62
7
100
AcDbPolyline
 90
2
 70
0
 10
162.204890
 20
108.388670
 30
0.0
 10
162.204890
 20
110.383410
 30
0.0
  0
SPLINE
  5
1e6
100
AcDbEntity
  8
레이어_1
 62
7
100
AcDbSpline
 70
8
 71
3
 72
8
 73
4
 74
0
 40
0
 40
0
 40
0
 40
0
 40
1
 40
1
 40
1
 40
1
 10
170.996530
 20
110.960850
 30
0.0
 10
171.410257
 20
110.960850
 30
0.0
 10
171.746410
 20
110.890857
 30
0.0
 10
172.004990
 20
110.750870
 30
0.0
  0
SPLINE
  5
1e7
100
AcDbEntity
  8
레이어_1
 62
7
100
AcDbSpline
 70
8
 71
3
 72
8
 73
4
 74
0
 40
0
 40
0
 40
0
 40
0
 40
1
 40
1
 40
1
 40
1
 10
172.004990
 20
110.750870
 30
0.0
 10
172.263563
 20
110.645883
 30
0.0
 10
172.470427
 20
110.453407
 30
0.0
 10
172.625580
 20
110.173440
 30
0.0
  0
SPLINE
  5
1e8
100
AcDbEntity
  8
레이어_1
 62
7
100
AcDbSpline
 70
8
 71
3
 72
8
 73
4
 74
0
 40
0
 40
0
 40
0
 40
0
 40
1
 40
1
 40
1
 40
1
 10
172.625580
 20
110.173440
 30
0.0
 10
172.780720
 20
109.893473
 30
0.0
 10
172.884147
 20
109.491027
 30
0.0
 10
172.935860
 20
108.966100
 30
0.0
  0
SPLINE
  5
1e9
100
AcDbEntity
  8
레이어_1
 62
7
100
AcDbSpline
 70
8
 71
3
 72
8
 73
4
 74
0
 40
0
 40
0
 40
0
 40
0
 40
1
 40
1
 40
1
 40
1
 10
172.935860
 20
108.966100
 30
0.0
 10
173.004813
 20
108.476153
 30
0.0
 10
173.039290
 20
107.863727
 30
0.0
 10
173.039290
 20
107.128820
 30
0.0
  0
LWPOLYLINE
  5
1ea
100
AcDbEntity
  8
레이어_1
 62
7
100
AcDbPolyline
 90
2
 70
0
 10
162.566900
 20
110.960850
 30
0.0
 10
170.996530
 20
110.960850
 30
0.0
  0
SPLINE
  5
1eb
100
AcDbEntity
  8
레이어_1
 62
7
100
AcDbSpline
 70
8
 71
3
 72
8
 73
4
 74
0
 40
0
 40
0
 40
0
 40
0
 40
1
 40
1
 40
1
 40
1
 10
173.039290
 20
97.260060
 30
0.0
 10
173.039290
 20
95.790247
 30
0.0
 10
172.884147
 20
94.792870
 30
0.0
 10
172.573860
 20
94.267930
 30
0.0
  0
SPLINE
  5
1ec
100
AcDbEntity
  8
레이어_1
 62
7
100
AcDbSpline
 70
8
 71
3
 72
8
 73
4
 74
0
 40
0
 40
0
 40
0
 40
0
 40
1
 40
1
 40
1
 40
1
 10
172.573860
 20
94.267930
 30
0.0
 10
172.280800
 20
93.777997
 30
0.0
 10
171.746403
 20
93.533030
 30
0.0
 10
170.970670
 20
93.533030
 30
0.0
  0
LWPOLYLINE
  5
1ed
100
AcDbEntity
  8
레이어_1
 62
7
100
AcDbPolyline
 90
2
 70
0
 10
173.039290
 20
107.128820
 30
0.0
 10
173.039290
 20
97.260060
 30
0.0
  0
SPLINE
  5
1ee
100
AcDbEntity
  8
레이어_1
 62
7
100
AcDbSpline
 70
8
 71
3
 72
8
 73
4
 74
0
 40
0
 40
0
 40
0
 40
0
 40
1
 40
1
 40
1
 40
1
 10
164.428660
 20
93.533030
 30
0.0
 10
164.187320
 20
93.533030
 30
0.0
 10
164.032173
 20
93.463037
 30
0.0
 10
163.963220
 20
93.323050
 30
0.0
  0
SPLINE
  5
1ef
100
AcDbEntity
  8
레이어_1
 62
7
100
AcDbSpline
 70
8
 71
3
 72
8
 73
4
 74
0
 40
0
 40
0
 40
0
 40
0
 40
1
 40
1
 40
1
 40
1
 10
163.963220
 20
93.323050
 30
0.0
 10
163.911487
 20
93.183070
 30
0.0
 10
163.885620
 20
92.850610
 30
0.0
 10
163.885620
 20
92.325670
 30
0.0
  0
LWPOLYLINE
  5
1f0
100
AcDbEntity
  8
레이어_1
 62
7
100
AcDbPolyline
 90
2
 70
0
 10
170.970670
 20
93.533030
 30
0.0
 10
164.428660
 20
93.533030
 30
0.0
  0
SPLINE
  5
1f1
100
AcDbEntity
  8
레이어_1
 62
7
100
AcDbSpline
 70
8
 71
3
 72
8
 73
4
 74
0
 40
0
 40
0
 40
0
 40
0
 40
1
 40
1
 40
1
 40
1
 10
163.885620
 20
82.824370
 30
0.0
 10
163.885620
 20
82.019477
 30
0.0
 10
164.075247
 20
81.617030
 30
0.0
 10
164.454500
 20
81.617030
 30
0.0
  0
SPLINE
  5
1f2
100
AcDbEntity
  8
레이어_1
 62
7
100
AcDbSpline
 70
8
 71
3
 72
8
 73
4
 74
0
 40
0
 40
0
 40
0
 40
0
 40
1
 40
1
 40
1
 40
1
 10
164.454500
 20
81.617030
 30
0.0
 10
166.505880
 20
81.547023
 30
0.0
 10
168.471070
 20
81.704503
 30
0.0
 10
170.350070
 20
82.089470
 30
0.0
  0
SPLINE
  5
1f3
100
AcDbEntity
  8
레이어_1
 62
7
100
AcDbSpline
 70
8
 71
3
 72
8
 73
4
 74
0
 40
0
 40
0
 40
0
 40
0
 40
1
 40
1
 40
1
 40
1
 10
170.350070
 20
82.089470
 30
0.0
 10
172.246303
 20
82.474417
 30
0.0
 10
174.082207
 20
83.069340
 30
0.0
 10
175.857780
 20
83.874240
 30
0.0
  0
SPLINE
  5
1f4
100
AcDbEntity
  8
레이어_1
 62
7
100
AcDbSpline
 70
8
 71
3
 72
8
 73
4
 74
0
 40
0
 40
0
 40
0
 40
0
 40
1
 40
1
 40
1
 40
1
 10
175.857780
 20
83.874240
 30
0.0
 10
176.099113
 20
83.979233
 30
0.0
 10
176.245640
 20
83.804253
 30
0.0
 10
176.297360
 20
83.349300
 30
0.0
  0
LWPOLYLINE
  5
1f5
100
AcDbEntity
  8
레이어_1
 62
7
100
AcDbPolyline
 90
2
 70
0
 10
163.885620
 20
92.325670
 30
0.0
 10
163.885620
 20
82.824370
 30
0.0
  0
SPLINE
  5
1f6
100
AcDbEntity
  8
레이어_1
 62
7
100
AcDbSpline
 70
8
 71
3
 72
8
 73
4
 74
0
 40
0
 40
0
 40
0
 40
0
 40
1
 40
1
 40
1
 40
1
 10
176.452500
 20
81.617030
 30
0.0
 10
176.486967
 20
81.162077
 30
0.0
 10
176.374917
 20
80.864610
 30
0.0
 10
176.116350
 20
80.724630
 30
0.0
  0
SPLINE
  5
1f7
100
AcDbEntity
  8
레이어_1
 62
7
100
AcDbSpline
 70
8
 71
3
 72
8
 73
4
 74
0
 40
0
 40
0
 40
0
 40
0
 40
1
 40
1
 40
1
 40
1
 10
176.116350
 20
80.724630
 30
0.0
 10
175.202710
 20
80.304690
 30
0.0
 10
174.237353
 20
79.937237
 30
0.0
 10
173.220280
 20
79.622270
 30
0.0
  0
SPLINE
  5
1f8
100
AcDbEntity
  8
레이어_1
 62
7
100
AcDbSpline
 70
8
 71
3
 72
8
 73
4
 74
0
 40
0
 40
0
 40
0
 40
0
 40
1
 40
1
 40
1
 40
1
 10
173.220280
 20
79.622270
 30
0.0
 10
172.220447
 20
79.342310
 30
0.0
 10
171.203377
 20
79.097340
 30
0.0
 10
170.169070
 20
78.887360
 30
0.0
  0
SPLINE
  5
1f9
100
AcDbEntity
  8
레이어_1
 62
7
100
AcDbSpline
 70
8
 71
3
 72
8
 73
4
 74
0
 40
0
 40
0
 40
0
 40
0
 40
1
 40
1
 40
1
 40
1
 10
170.169070
 20
78.887360
 30
0.0
 10
169.134757
 20
78.712387
 30
0.0
 10
168.100443
 20
78.589903
 30
0.0
 10
167.066130
 20
78.519910
 30
0.0
  0
SPLINE
  5
1fa
100
AcDbEntity
  8
레이어_1
 62
7
100
AcDbSpline
 70
8
 71
3
 72
8
 73
4
 74
0
 40
0
 40
0
 40
0
 40
0
 40
1
 40
1
 40
1
 40
1
 10
167.066130
 20
78.519910
 30
0.0
 10
166.031823
 20
78.449903
 30
0.0
 10
165.031990
 20
78.449903
 30
0.0
 10
164.066630
 20
78.519910
 30
0.0
  0
LWPOLYLINE
  5
1fb
100
AcDbEntity
  8
레이어_1
 62
7
100
AcDbPolyline
 90
2
 70
0
 10
176.297360
 20
83.349300
 30
0.0
 10
176.452500
 20
81.617030
 30
0.0
  0
SPLINE
  5
1fc
100
AcDbEntity
  8
레이어_1
 62
7
100
AcDbSpline
 70
8
 71
3
 72
8
 73
4
 74
0
 40
0
 40
0
 40
0
 40
0
 40
1
 40
1
 40
1
 40
1
 10
179.581310
 20
67.233830
 30
0.0
 10
179.581310
 20
66.743883
 30
0.0
 10
179.460640
 20
66.498910
 30
0.0
 10
179.219300
 20
66.498910
 30
0.0
  0
LWPOLYLINE
  5
1fd
100
AcDbEntity
  8
레이어_1
 62
7
100
AcDbPolyline
 90
1
 70
1
 10
164.066630
 20
78.519910
 30
0.0
  0
SPLINE
  5
1fe
100
AcDbEntity
  8
레이어_1
 62
7
100
AcDbSpline
 70
8
 71
3
 72
8
 73
4
 74
0
 40
0
 40
0
 40
0
 40
0
 40
1
 40
1
 40
1
 40
1
 10
178.159130
 20
66.498910
 30
0.0
 10
177.917797
 20
66.498910
 30
0.0
 10
177.797130
 20
66.743883
 30
0.0
 10
177.797130
 20
67.233830
 30
0.0
  0
LWPOLYLINE
  5
1ff
100
AcDbEntity
  8
레이어_1
 62
7
100
AcDbPolyline
 90
2
 70
0
 10
179.219300
 20
66.498910
 30
0.0
 10
178.159130
 20
66.498910
 30
0.0
  0
SPLINE
  5
200
100
AcDbEntity
  8
레이어_1
 62
7
100
AcDbSpline
 70
8
 71
3
 72
8
 73
4
 74
0
 40
0
 40
0
 40
0
 40
0
 40
1
 40
1
 40
1
 40
1
 10
177.797130
 20
114.162940
 30
0.0
 10
177.797130
 20
114.652880
 30
0.0
 10
177.917797
 20
114.897850
 30
0.0
 10
178.159130
 20
114.897850
 30
0.0
  0
LWPOLYLINE
  5
201
100
AcDbEntity
  8
레이어_1
 62
7
100
AcDbPolyline
 90
2
 70
0
 10
177.797130
 20
67.233830
 30
0.0
 10
177.797130
 20
114.162940
 30
0.0
  0
SPLINE
  5
202
100
AcDbEntity
  8
레이어_1
 62
7
100
AcDbSpline
 70
8
 71
3
 72
8
 73
4
 74
0
 40
0
 40
0
 40
0
 40
0
 40
1
 40
1
 40
1
 40
1
 10
179.219300
 20
114.897850
 30
0.0
 10
179.460640
 20
114.897850
 30
0.0
 10
179.581310
 20
114.652880
 30
0.0
 10
179.581310
 20
114.162940
 30
0.0
  0
LWPOLYLINE
  5
203
100
AcDbEntity
  8
레이어_1
 62
7
100
AcDbPolyline
 90
2
 70
0
 10
178.159130
 20
114.897850
 30
0.0
 10
179.219300
 20
114.897850
 30
0.0
  0
SPLINE
  5
204
100
AcDbEntity
  8
레이어_1
 62
7
100
AcDbSpline
 70
8
 71
3
 72
8
 73
4
 74
0
 40
0
 40
0
 40
0
 40
0
 40
1
 40
1
 40
1
 40
1
 10
183.149680
 20
95.055340
 30
0.0
 10
183.253113
 20
95.055340
 30
0.0
 10
183.339307
 20
94.985347
 30
0.0
 10
183.408260
 20
94.845360
 30
0.0
  0
SPLINE
  5
205
100
AcDbEntity
  8
레이어_1
 62
7
100
AcDbSpline
 70
8
 71
3
 72
8
 73
4
 74
0
 40
0
 40
0
 40
0
 40
0
 40
1
 40
1
 40
1
 40
1
 10
183.408260
 20
94.845360
 30
0.0
 10
183.494453
 20
94.740373
 30
0.0
 10
183.537550
 20
94.582897
 30
0.0
 10
183.537550
 20
94.372930
 30
0.0
  0
LWPOLYLINE
  5
206
100
AcDbEntity
  8
레이어_1
 62
7
100
AcDbPolyline
 90
3
 70
0
 10
179.581310
 20
114.162940
 30
0.0
 10
179.581310
 20
95.055340
 30
0.0
 10
183.149680
 20
95.055340
 30
0.0
  0
SPLINE
  5
207
100
AcDbEntity
  8
레이어_1
 62
7
100
AcDbSpline
 70
8
 71
3
 72
8
 73
4
 74
0
 40
0
 40
0
 40
0
 40
0
 40
1
 40
1
 40
1
 40
1
 10
183.537550
 20
92.588150
 30
0.0
 10
183.537550
 20
92.413163
 30
0.0
 10
183.494453
 20
92.255683
 30
0.0
 10
183.408260
 20
92.115710
 30
0.0
  0
SPLINE
  5
208
100
AcDbEntity
  8
레이어_1
 62
7
100
AcDbSpline
 70
8
 71
3
 72
8
 73
4
 74
0
 40
0
 40
0
 40
0
 40
0
 40
1
 40
1
 40
1
 40
1
 10
183.408260
 20
92.115710
 30
0.0
 10
183.339307
 20
91.975730
 30
0.0
 10
183.253113
 20
91.905740
 30
0.0
 10
183.149680
 20
91.905740
 30
0.0
  0
LWPOLYLINE
  5
209
100
AcDbEntity
  8
레이어_1
 62
7
100
AcDbPolyline
 90
2
 70
0
 10
183.537550
 20
94.372930
 30
0.0
 10
183.537550
 20
92.588150
 30
0.0
  0
LWPOLYLINE
  5
20a
100
AcDbEntity
  8
레이어_1
 62
7
100
AcDbPolyline
 90
3
 70
0
 10
183.149680
 20
91.905740
 30
0.0
 10
179.581310
 20
91.905740
 30
0.0
 10
179.581310
 20
67.233830
 30
0.0
  0
ENDSEC
  0
SECTION
  2
OBJECTS
  0
DICTIONARY
  5
C
330
0
100
AcDbDictionary
  3
ACAD_GROUP
350
D
  3
ACAD_MLINESTYLE
350
17
  0
DICTIONARY
  5
D
330
C
100
AcDbDictionary
  0
DICTIONARY
  5
1A
330
C
100
AcDbDictionary
  0
DICTIONARY
  5
17
330
C
100
AcDbDictionary
  3
STANDARD
350
18
  0
DICTIONARY
  5
19
330
C
100
AcDbDictionary
  0
ENDSEC
  0
EOF
