999
DXF file: c-350561-3-bd-2d.dxf
999
Pro/ENGINEER 2015200 by Parametric Technology Corporation
  0
SECTION
  2
HEADER
  9
$ACADVER
  1
AC1014
  9
$DWGCODEPAGE
  3
ANSI_1252
  9
$EXTMAX
 10
420.0
 20
297.0
 30
0.0
  9
$EXTMIN
 10
0.0
 20
0.0
 30
0.0
  9
$LIMMIN
 10
0.0
 20
0.0
  9
$LIMMAX
 10
420.0
 20
297.0
  9
$VIEWCTR
 10
210.0
 20
148.5
  9
$VIEWSIZE
 40
297.0
  9
$CLAYER
  8
0
  9
$LTSCALE
 40
23.1
  9
$CELTYPE
  6
BYLAYER
  9
$DIMSCALE
 40
1.0
  9
$DIMASZ
 40
4.5
  9
$DIMEXO
 40
1.5
  9
$DIMDLI
 40
15.96
  9
$DIMEXE
 40
3.0
  9
$DIMCEN
 40
3.78
  9
$DIMLFAC
 40
0.3333333333
  9
$DIMBLK
  1
_CLOSED
  9
$DIMALT
 70
0
  9
$DIMALTF
 40
0.0393700787
  9
$DIMTXT
 40
3.0
  9
$DIMTOL
 70
1
  9
$DIMLIM
 70
0
  9
$DIMTFAC
 40
1.0
  9
$DIMTP
 40
0.01
  9
$DIMTM
 40
0.01
  9
$DIMGAP
 40
0.625
  9
$AUNITS
 70
0
  9
$PDMODE
 70
3
  9
$PDSIZE
 40
0.3125
  9
$HANDSEED
  5
3C4
  9
$TILEMODE
 70
1
  9
$MEASUREMENT
 70
1
  0
ENDSEC
  0
SECTION
  2
CLASSES
  0
ENDSEC
  0
SECTION
  2
TABLES
  0
TABLE
  2
VPORT
  5
8
100
AcDbSymbolTable
 70
2
  0
VPORT
  5
1F4
100
AcDbSymbolTableRecord
100
AcDbViewportTableRecord
  2
*ACTIVE
 70
0
 10
0.0
 20
0.0
 11
1.0
 21
1.0
 12
210.0
 22
148.5
 13
0.0
 23
0.0
 14
1.0
 24
1.0
 15
0.0
 25
0.0
 16
0.0
 26
0.0
 36
1.0
 17
0.0
 27
0.0
 37
0.0
 40
297.0
 41
1.4141414141
 42
50.0
 43
0.0
 44
0.0
 50
0.0
 51
0.0
 71
0
 72
100
 73
1
 74
1
 75
0
 76
0
 77
0
 78
0
  0
ENDTAB
  0
TABLE
  2
LTYPE
  5
5
100
AcDbSymbolTable
 70
6
  0
LTYPE
  5
14
100
AcDbSymbolTableRecord
100
AcDbLinetypeTableRecord
  2
BYBLOCK
 70
0
  3

 72
65
 73
0
 40
0.0
  0
LTYPE
  5
15
100
AcDbSymbolTableRecord
100
AcDbLinetypeTableRecord
  2
BYLAYER
 70
0
  3

 72
65
 73
0
 40
0.0
  0
LTYPE
  5
16
100
AcDbSymbolTableRecord
100
AcDbLinetypeTableRecord
  2
CONTINUOUS
 70
64
  3
Solid line
 72
65
 73
0
 40
0.0
  0
LTYPE
  5
1F5
100
AcDbSymbolTableRecord
100
AcDbLinetypeTableRecord
  2
CENTER
 70
64
  3
____ _ ____ _ ____ _ ____ _ ____ _ ____ _ ____
 72
65
 73
4
 40
0.6
 49
0.375
 74
0
 49
-0.075
 74
0
 49
0.075
 74
0
 49
-0.075
 74
0
  0
LTYPE
  5
1F6
100
AcDbSymbolTableRecord
100
AcDbLinetypeTableRecord
  2
HIDDEN
 70
64
  3
- - - - - - - - - - - - - - - - - - - -
 72
65
 73
2
 40
0.2
 49
0.1
 74
0
 49
-0.1
 74
0
  0
LTYPE
  5
1F7
100
AcDbSymbolTableRecord
100
AcDbLinetypeTableRecord
  2
PHANTOM
 70
64
  3
_____ _ _ _____ _ _ _____ _ _ _____
 72
65
 73
6
 40
0.8
 49
0.45
 74
0
 49
-0.05
 74
0
 49
0.1
 74
0
 49
-0.05
 74
0
 49
0.1
 74
0
 49
-0.05
 74
0
  0
LTYPE
  5
1F8
100
AcDbSymbolTableRecord
100
AcDbLinetypeTableRecord
  2
DOT
 70
64
  3
. . . . . . . . . . . . . . . . . . . .
 72
65
 73
2
 40
0.2
 49
0.1
 74
0
 49
-0.1
 74
0
  0
LTYPE
  5
1F9
100
AcDbSymbolTableRecord
100
AcDbLinetypeTableRecord
  2
DASHED
 70
64
  3
- - - - - - - - - - - - - - - - - - - -
 72
65
 73
2
 40
0.2
 49
0.1
 74
0
 49
-0.1
 74
0
  0
ENDTAB
  0
TABLE
  2
LAYER
  5
2
100
AcDbSymbolTable
 70
36
  0
LAYER
  5
10
100
AcDbSymbolTableRecord
100
AcDbLayerTableRecord
  2
0
 70
0
 62
7
  6
CONTINUOUS
  0
LAYER
  5
1FA
100
AcDbSymbolTableRecord
100
AcDbLayerTableRecord
  2
DEFAULT_1
 70
0
 62
7
  6
CENTER
  0
LAYER
  5
1FB
100
AcDbSymbolTableRecord
100
AcDbLayerTableRecord
  2
DEFAULT_2
 70
0
 62
8
  6
HIDDEN
  0
LAYER
  5
1FC
100
AcDbSymbolTableRecord
100
AcDbLayerTableRecord
  2
DEFAULT_3
 70
0
 62
7
  6
PHANTOM
  0
LAYER
  5
1FD
100
AcDbSymbolTableRecord
100
AcDbLayerTableRecord
  2
DRAFT_ENTITY
 70
0
 62
7
  6
CONTINUOUS
  0
LAYER
  5
1FE
100
AcDbSymbolTableRecord
100
AcDbLayerTableRecord
  2
DRAFT_GEOM
 70
0
 62
7
  6
CONTINUOUS
  0
LAYER
  5
1FF
100
AcDbSymbolTableRecord
100
AcDbLayerTableRecord
  2
DRAFT_GRP
 70
0
 62
7
  6
CONTINUOUS
  0
LAYER
  5
200
100
AcDbSymbolTableRecord
100
AcDbLayerTableRecord
  2
DRAFT_OTHER
 70
0
 62
7
  6
CONTINUOUS
  0
LAYER
  5
201
100
AcDbSymbolTableRecord
100
AcDbLayerTableRecord
  2
DTM_ALL
 70
0
 62
7
  6
CONTINUOUS
  0
LAYER
  5
202
100
AcDbSymbolTableRecord
100
AcDbLayerTableRecord
  2
DTM_AXIS
 70
0
 62
7
  6
CONTINUOUS
  0
LAYER
  5
203
100
AcDbSymbolTableRecord
100
AcDbLayerTableRecord
  2
DTM_MAJOR
 70
0
 62
7
  6
CONTINUOUS
  0
LAYER
  5
204
100
AcDbSymbolTableRecord
100
AcDbLayerTableRecord
  2
NOTE
 70
0
 62
7
  6
CONTINUOUS
  0
ENDTAB
  0
TABLE
  2
STYLE
  5
3
100
AcDbSymbolTable
 70
1
  0
STYLE
  5
11
100
AcDbSymbolTableRecord
100
AcDbTextStyleTableRecord
  2
STANDARD
 70
0
 40
0.0
 41
0.95
 50
0.0
 71
0
 42
0.2
  3
txt
  4

  0
STYLE
  5
205
100
AcDbSymbolTableRecord
100
AcDbTextStyleTableRecord
  2
TEXTSTYLE_1
 70
0
 40
0.0
 41
0.8
 50
0.0
 71
0
 42
0.2
  3
gdt
  4

  0
STYLE
  5
206
100
AcDbSymbolTableRecord
100
AcDbTextStyleTableRecord
  2
TEXTSTYLE_2
 70
0
 40
0.0
 41
0.8
 50
0.0
 71
0
 42
0.2
  3
txt
  4

  0
ENDTAB
  0
TABLE
  2
VIEW
  5
6
100
AcDbSymbolTable
 70
0
  0
ENDTAB
  0
TABLE
  2
UCS
  5
7
100
AcDbSymbolTable
 70
0
  0
ENDTAB
  0
TABLE
  2
APPID
  5
9
100
AcDbSymbolTable
 70
1
  0
APPID
  5
207
100
AcDbSymbolTableRecord
100
AcDbRegAppTableRecord
  2
ACAD
 70
0
  0
ENDTAB
  0
TABLE
  2
BLOCK_RECORD
  5
1
100
AcDbSymbolTable
 70
0
  0
BLOCK_RECORD
  5
1F
100
AcDbSymbolTableRecord
100
AcDbBlockTableRecord
  2
*MODEL_SPACE
  0
BLOCK_RECORD
  5
1B
100
AcDbSymbolTableRecord
100
AcDbBlockTableRecord
  2
*PAPER_SPACE
  0
BLOCK_RECORD
  5
208
100
AcDbSymbolTableRecord
100
AcDbBlockTableRecord
  2
TE_CONNECTIVITY_BL0
  0
ENDTAB
  0
TABLE
  2
DIMSTYLE
  5
A
100
AcDbSymbolTable
 70
1
  0
DIMSTYLE
105
209
100
AcDbSymbolTableRecord
100
AcDbDimStyleTableRecord
  2
STANDARD
 70
0
  3

  4

  5
_CLOSED
  6
_CLOSED
  7
_CLOSED
 40
1.0
 41
4.5
 42
1.5
 43
0.38
 44
3.0
 45
0.0
 46
0.0
 47
0.01
 48
0.01
140
3.0
141
0.09
142
0.0
143
25.4
144
1.0
145
0.0
146
1.0
147
0.625
 71
1.0
 72
0.0
 73
1
 74
1
 75
0
 76
0
 77
0
 78
8
170
0
171
2
172
0
173
0
174
0
175
0
176
0
177
0
178
0
270
2
271
2
272
2
273
2
274
2
275
0
280
0
281
0
282
0
283
1
284
8
285
0
286
0
287
3
288
0
340
11
  0
ENDTAB
  0
ENDSEC
  0
SECTION
  2
BLOCKS
  0
BLOCK
  5
20
100
AcDbEntity
  8
0
100
AcDbBlockBegin
  2
*MODEL_SPACE
 70
0
 10
0.0
 20
0.0
 30
0.0
  3
*MODEL_SPACE
  1

  0
ENDBLK
  5
21
100
AcDbEntity
  8
0
100
AcDbBlockEnd
  0
BLOCK
  5
1C
100
AcDbEntity
  8
0
100
AcDbBlockBegin
  2
*PAPER_SPACE
 70
0
 10
0.0
 20
0.0
 30
0.0
  3
*PAPER_SPACE
  1

  0
ENDBLK
  5
1D
100
AcDbEntity
  8
0
100
AcDbBlockEnd
  0
BLOCK
  5
20A
100
AcDbEntity
  8
0
100
AcDbBlockBegin
 62
2
  6
CONTINUOUS
  2
TE_CONNECTIVITY_BL0
 70
64
 10
315.0
 20
36.0
  3
TE_CONNECTIVITY_BL0
  1

  0
LINE
  5
20B
100
AcDbEntity
  8
0
100
AcDbLine
 62
2
  6
CONTINUOUS
 10
303.4442621268
 20
31.975
 11
311.2931594095
 21
31.975
  0
LINE
  5
20C
100
AcDbEntity
  8
0
100
AcDbLine
 62
2
  6
CONTINUOUS
 10
316.3319775183
 20
31.975
 11
318.4139164045
 21
31.975
  0
LINE
  5
20D
100
AcDbEntity
  8
0
100
AcDbLine
 62
2
  6
CONTINUOUS
 10
321.4865647769
 20
31.975
 11
327.8504615515
 21
31.975
  0
LINE
  5
20E
100
AcDbEntity
  8
0
100
AcDbLine
 62
2
  6
CONTINUOUS
 10
328.3338139487
 20
33.7788957044
 11
324.0176749741
 21
33.7788957044
  0
LINE
  5
20F
100
AcDbEntity
  8
0
100
AcDbLine
 62
2
  6
CONTINUOUS
 10
311.2931594095
 20
34.2561326711
 11
303.4442621268
 21
34.2561326711
  0
LINE
  5
210
100
AcDbEntity
  8
0
100
AcDbLine
 62
2
  6
CONTINUOUS
 10
301.1331145522
 20
34.8594322328
 11
308.9820118349
 21
34.8594322328
  0
LINE
  5
211
100
AcDbEntity
  8
0
100
AcDbLine
 62
2
  6
CONTINUOUS
 10
316.0776474878
 20
40.0249971366
 11
315.5942950906
 21
38.2211014322
  0
LINE
  5
212
100
AcDbEntity
  8
0
100
AcDbLine
 62
2
  6
CONTINUOUS
 10
324.4045177413
 20
35.2226125659
 11
328.2576583666
 21
35.2226125659
  0
LINE
  5
213
100
AcDbEntity
  8
0
100
AcDbLine
 62
2
  6
CONTINUOUS
 10
328.6887347141
 20
36.8314113971
 11
324.8355940889
 21
36.8314113971
  0
LINE
  5
214
100
AcDbEntity
  8
0
100
AcDbLine
 62
2
  6
CONTINUOUS
 10
308.9820118349
 20
37.1405649038
 11
301.1331145522
 21
37.1405649038
  0
LINE
  5
215
100
AcDbEntity
  8
0
100
AcDbLine
 62
2
  6
CONTINUOUS
 10
304.9810251894
 20
37.7438644655
 11
312.8299224721
 21
37.7438644655
  0
LINE
  5
216
100
AcDbEntity
  8
0
100
AcDbLine
 62
2
  6
CONTINUOUS
 10
318.0056153529
 20
38.2211014322
 11
316.3319775183
 21
31.975
  0
LINE
  5
217
100
AcDbEntity
  8
0
100
AcDbLine
 62
2
  6
CONTINUOUS
 10
315.5942950906
 20
38.2211014322
 11
318.0056153529
 21
38.2211014322
  0
LINE
  5
218
100
AcDbEntity
  8
0
100
AcDbLine
 62
2
  6
CONTINUOUS
 10
320.0875542391
 20
38.2211014322
 11
322.4988745014
 21
38.2211014322
  0
LINE
  5
219
100
AcDbEntity
  8
0
100
AcDbLine
 62
2
  6
CONTINUOUS
 10
325.2079604115
 20
38.2211014322
 11
329.5240993861
 21
38.2211014322
  0
LINE
  5
21A
100
AcDbEntity
  8
0
100
AcDbLine
 62
2
  6
CONTINUOUS
 10
330.0074517833
 20
40.0249971366
 11
323.6435550087
 21
40.0249971366
  0
LINE
  5
21B
100
AcDbEntity
  8
0
100
AcDbLine
 62
2
  6
CONTINUOUS
 10
322.9822268986
 20
40.0249971366
 11
316.0776474878
 21
40.0249971366
  0
LINE
  5
21C
100
AcDbEntity
  8
0
100
AcDbLine
 62
2
  6
CONTINUOUS
 10
312.8299224721
 20
40.0249971366
 11
304.9810251894
 21
40.0249971366
  0
LINE
  5
21D
100
AcDbEntity
  8
0
100
AcDbLine
 62
2
  6
CONTINUOUS
 10
318.4139164045
 20
31.975
 11
320.0875542391
 21
38.2211014322
  0
LINE
  5
21E
100
AcDbEntity
  8
0
100
AcDbLine
 62
2
  6
CONTINUOUS
 10
322.4988745014
 20
38.2211014322
 11
322.9822268986
 21
40.0249971366
  0
LINE
  5
21F
100
AcDbEntity
  8
0
100
AcDbLine
 62
2
  6
CONTINUOUS
 10
323.6435550087
 20
40.0249971366
 11
321.4865647769
 21
31.975
  0
LINE
  5
220
100
AcDbEntity
  8
0
100
AcDbLine
 62
2
  6
CONTINUOUS
 10
324.0176749741
 20
33.7788957044
 11
324.4045177413
 21
35.2226125659
  0
LINE
  5
221
100
AcDbEntity
  8
0
100
AcDbLine
 62
2
  6
CONTINUOUS
 10
324.8355940889
 20
36.8314113971
 11
325.2079604115
 21
38.2211014322
  0
LINE
  5
222
100
AcDbEntity
  8
0
100
AcDbLine
 62
2
  6
CONTINUOUS
 10
328.2576583666
 20
35.2226125659
 11
328.6887347141
 21
36.8314113971
  0
LINE
  5
223
100
AcDbEntity
  8
0
100
AcDbLine
 62
2
  6
CONTINUOUS
 10
327.8504615515
 20
31.975
 11
328.3338139487
 21
33.7788957044
  0
LINE
  5
224
100
AcDbEntity
  8
0
100
AcDbLine
 62
2
  6
CONTINUOUS
 10
329.5240993861
 20
38.2211014322
 11
330.0074517833
 21
40.0249971366
  0
ARC
  5
225
100
AcDbEntity
  8
0
100
AcDbCircle
 62
2
  6
CONTINUOUS
 10
304.9810251894
 20
38.884430801
 40
1.1405663355
100
AcDbArc
 50
90.0
 51
270.0
  0
ARC
  5
226
100
AcDbEntity
  8
0
100
AcDbCircle
 62
2
  6
CONTINUOUS
 10
312.8299224721
 20
38.884430801
 40
1.1405663355
100
AcDbArc
 50
270.0
 51
90.0
  0
ARC
  5
227
100
AcDbEntity
  8
0
100
AcDbCircle
 62
2
  6
CONTINUOUS
 10
311.2931594095
 20
33.1155663355
 40
1.1405663355
100
AcDbArc
 50
270.0
 51
90.0
  0
ARC
  5
228
100
AcDbEntity
  8
0
100
AcDbCircle
 62
2
  6
CONTINUOUS
 10
303.4442621268
 20
33.1155663355
 40
1.1405663355
100
AcDbArc
 50
90.0
 51
270.0
  0
ARC
  5
229
100
AcDbEntity
  8
0
100
AcDbCircle
 62
2
  6
CONTINUOUS
 10
308.9820118349
 20
35.9999985683
 40
1.1405663355
100
AcDbArc
 50
270.0
 51
90.0
  0
ARC
  5
22A
100
AcDbEntity
  8
0
100
AcDbCircle
 62
2
  6
CONTINUOUS
 10
301.1331145522
 20
35.9999985683
 40
1.1405663355
100
AcDbArc
 50
90.0
 51
270.0
  0
LWPOLYLINE
  5
22B
100
AcDbEntity
  8
0
100
AcDbPolyline
 62
2
  6
CONTINUOUS
 90
50
 70
0
 10
304.8321514087
 20
40.0152434035
 10
304.9810251894
 20
40.025
 10
312.8299224721
 20
40.025
 10
312.9787962529
 20
40.0152434035
 10
313.125122762
 20
39.9861346138
 10
313.2663983123
 20
39.9381727309
 10
313.4002056399
 20
39.8721869044
 10
313.5242552644
 20
39.7893041338
 10
313.6364246624
 20
39.6909331688
 10
313.7347945842
 20
39.5787645087
 10
313.8176818934
 20
39.4547140529
 10
313.883668365
 20
39.3209070004
 10
313.9316249522
 20
39.1796295507
 10
313.9607311046
 20
39.0333047528
 10
313.9704888077
 20
38.8844281057
 10
313.9607311046
 20
38.7355595087
 10
313.9316249522
 20
38.5892266607
 10
313.883668365
 20
38.447957261
 10
313.8176818934
 20
38.3141502086
 10
313.7347945842
 20
38.1900997527
 10
313.6364246624
 20
38.0779310926
 10
313.5242552644
 20
37.9795601276
 10
313.4002056399
 20
37.8966693071
 10
313.2663983123
 20
37.8306834805
 10
313.125122762
 20
37.7827296476
 10
312.9787962529
 20
37.7536208579
 10
304.9810251894
 20
37.7438642614
 10
304.8321514087
 20
37.7536208579
 10
304.6858248996
 20
37.7827296476
 10
304.5445493493
 20
37.8306834805
 10
304.4107420217
 20
37.8966693071
 10
304.2866923972
 20
37.9795601276
 10
304.1745229992
 20
38.0779310926
 10
304.0761530773
 20
38.1900997527
 10
303.9932657682
 20
38.3141502086
 10
303.9272792966
 20
38.447957261
 10
303.8793227094
 20
38.5892266607
 10
303.850216557
 20
38.7355595087
 10
303.8404588539
 20
38.8844281057
 10
303.850216557
 20
39.0333047528
 10
303.8793227094
 20
39.1796295507
 10
303.9272792966
 20
39.3209070004
 10
303.9932657682
 20
39.4547140529
 10
304.0761530773
 20
39.5787645087
 10
304.1745229992
 20
39.6909331688
 10
304.2866923972
 20
39.7893041338
 10
304.4107420217
 20
39.8721869044
 10
304.5445493493
 20
39.9381727309
 10
304.6858248996
 20
39.9861346138
 10
304.8321514087
 20
40.0152434035
  0
HATCH
  5
22C
100
AcDbEntity
  8
0
100
AcDbHatch
 62
2
  6
CONTINUOUS
 10
0.0
 20
0.0
 30
0.0
210
0.0
220
0.0
230
1.0
  2
SOLID
 70
1
 71
1
 91
1
 92
1
 93
49
 72
1
 10
304.8321514087
 20
40.0152434035
 11
304.9810251894
 21
40.025
 72
1
 10
304.9810251894
 20
40.025
 11
312.8299224721
 21
40.025
 72
1
 10
312.8299224721
 20
40.025
 11
312.9787962529
 21
40.0152434035
 72
1
 10
312.9787962529
 20
40.0152434035
 11
313.125122762
 21
39.9861346138
 72
1
 10
313.125122762
 20
39.9861346138
 11
313.2663983123
 21
39.9381727309
 72
1
 10
313.2663983123
 20
39.9381727309
 11
313.4002056399
 21
39.8721869044
 72
1
 10
313.4002056399
 20
39.8721869044
 11
313.5242552644
 21
39.7893041338
 72
1
 10
313.5242552644
 20
39.7893041338
 11
313.6364246624
 21
39.6909331688
 72
1
 10
313.6364246624
 20
39.6909331688
 11
313.7347945842
 21
39.5787645087
 72
1
 10
313.7347945842
 20
39.5787645087
 11
313.8176818934
 21
39.4547140529
 72
1
 10
313.8176818934
 20
39.4547140529
 11
313.883668365
 21
39.3209070004
 72
1
 10
313.883668365
 20
39.3209070004
 11
313.9316249522
 21
39.1796295507
 72
1
 10
313.9316249522
 20
39.1796295507
 11
313.9607311046
 21
39.0333047528
 72
1
 10
313.9607311046
 20
39.0333047528
 11
313.9704888077
 21
38.8844281057
 72
1
 10
313.9704888077
 20
38.8844281057
 11
313.9607311046
 21
38.7355595087
 72
1
 10
313.9607311046
 20
38.7355595087
 11
313.9316249522
 21
38.5892266607
 72
1
 10
313.9316249522
 20
38.5892266607
 11
313.883668365
 21
38.447957261
 72
1
 10
313.883668365
 20
38.447957261
 11
313.8176818934
 21
38.3141502086
 72
1
 10
313.8176818934
 20
38.3141502086
 11
313.7347945842
 21
38.1900997527
 72
1
 10
313.7347945842
 20
38.1900997527
 11
313.6364246624
 21
38.0779310926
 72
1
 10
313.6364246624
 20
38.0779310926
 11
313.5242552644
 21
37.9795601276
 72
1
 10
313.5242552644
 20
37.9795601276
 11
313.4002056399
 21
37.8966693071
 72
1
 10
313.4002056399
 20
37.8966693071
 11
313.2663983123
 21
37.8306834805
 72
1
 10
313.2663983123
 20
37.8306834805
 11
313.125122762
 21
37.7827296476
 72
1
 10
313.125122762
 20
37.7827296476
 11
312.9787962529
 21
37.7536208579
 72
1
 10
312.9787962529
 20
37.7536208579
 11
304.9810251894
 21
37.7438642614
 72
1
 10
304.9810251894
 20
37.7438642614
 11
304.8321514087
 21
37.7536208579
 72
1
 10
304.8321514087
 20
37.7536208579
 11
304.6858248996
 21
37.7827296476
 72
1
 10
304.6858248996
 20
37.7827296476
 11
304.5445493493
 21
37.8306834805
 72
1
 10
304.5445493493
 20
37.8306834805
 11
304.4107420217
 21
37.8966693071
 72
1
 10
304.4107420217
 20
37.8966693071
 11
304.2866923972
 21
37.9795601276
 72
1
 10
304.2866923972
 20
37.9795601276
 11
304.1745229992
 21
38.0779310926
 72
1
 10
304.1745229992
 20
38.0779310926
 11
304.0761530773
 21
38.1900997527
 72
1
 10
304.0761530773
 20
38.1900997527
 11
303.9932657682
 21
38.3141502086
 72
1
 10
303.9932657682
 20
38.3141502086
 11
303.9272792966
 21
38.447957261
 72
1
 10
303.9272792966
 20
38.447957261
 11
303.8793227094
 21
38.5892266607
 72
1
 10
303.8793227094
 20
38.5892266607
 11
303.850216557
 21
38.7355595087
 72
1
 10
303.850216557
 20
38.7355595087
 11
303.8404588539
 21
38.8844281057
 72
1
 10
303.8404588539
 20
38.8844281057
 11
303.850216557
 21
39.0333047528
 72
1
 10
303.850216557
 20
39.0333047528
 11
303.8793227094
 21
39.1796295507
 72
1
 10
303.8793227094
 20
39.1796295507
 11
303.9272792966
 21
39.3209070004
 72
1
 10
303.9272792966
 20
39.3209070004
 11
303.9932657682
 21
39.4547140529
 72
1
 10
303.9932657682
 20
39.4547140529
 11
304.0761530773
 21
39.5787645087
 72
1
 10
304.0761530773
 20
39.5787645087
 11
304.1745229992
 21
39.6909331688
 72
1
 10
304.1745229992
 20
39.6909331688
 11
304.2866923972
 21
39.7893041338
 72
1
 10
304.2866923972
 20
39.7893041338
 11
304.4107420217
 21
39.8721869044
 72
1
 10
304.4107420217
 20
39.8721869044
 11
304.5445493493
 21
39.9381727309
 72
1
 10
304.5445493493
 20
39.9381727309
 11
304.6858248996
 21
39.9861346138
 72
1
 10
304.6858248996
 20
39.9861346138
 11
304.8321514087
 21
40.0152434035
 97
1
330
22B
 75
0
 76
1
 98
1
 10
0.0
 20
0.0
  0
LWPOLYLINE
  5
22D
100
AcDbEntity
  8
0
100
AcDbPolyline
 62
2
  6
CONTINUOUS
 90
9
 70
0
 10
315.5942950906
 20
38.2211002917
 10
316.0776474878
 20
40.025
 10
322.9822268986
 20
40.025
 10
322.4988745014
 20
38.2211002917
 10
320.0875542391
 20
38.2211002917
 10
318.4139164045
 20
31.9750028634
 10
316.3319775183
 20
31.9750028634
 10
318.0056153529
 20
38.2211002917
 10
315.5942950906
 20
38.2211002917
  0
HATCH
  5
22E
100
AcDbEntity
  8
0
100
AcDbHatch
 62
2
  6
CONTINUOUS
 10
0.0
 20
0.0
 30
0.0
210
0.0
220
0.0
230
1.0
  2
SOLID
 70
1
 71
1
 91
1
 92
1
 93
8
 72
1
 10
315.5942950906
 20
38.2211002917
 11
316.0776474878
 21
40.025
 72
1
 10
316.0776474878
 20
40.025
 11
322.9822268986
 21
40.025
 72
1
 10
322.9822268986
 20
40.025
 11
322.4988745014
 21
38.2211002917
 72
1
 10
322.4988745014
 20
38.2211002917
 11
320.0875542391
 21
38.2211002917
 72
1
 10
320.0875542391
 20
38.2211002917
 11
318.4139164045
 21
31.9750028634
 72
1
 10
318.4139164045
 20
31.9750028634
 11
316.3319775183
 21
31.9750028634
 72
1
 10
316.3319775183
 20
31.9750028634
 11
318.0056153529
 21
38.2211002917
 72
1
 10
318.0056153529
 20
38.2211002917
 11
315.5942950906
 21
38.2211002917
 97
1
330
22D
 75
0
 76
1
 98
1
 10
0.0
 20
0.0
  0
LWPOLYLINE
  5
22F
100
AcDbEntity
  8
0
100
AcDbPolyline
 62
2
  6
CONTINUOUS
 90
6
 70
0
 10
330.0074517833
 20
40.025
 10
329.5240993861
 20
38.2211002917
 10
325.2079604115
 20
38.2211002917
 10
321.4865647769
 20
31.9750028634
 10
323.6435550087
 20
40.025
 10
330.0074517833
 20
40.025
  0
HATCH
  5
230
100
AcDbEntity
  8
0
100
AcDbHatch
 62
2
  6
CONTINUOUS
 10
0.0
 20
0.0
 30
0.0
210
0.0
220
0.0
230
1.0
  2
SOLID
 70
1
 71
1
 91
1
 92
1
 93
5
 72
1
 10
330.0074517833
 20
40.025
 11
329.5240993861
 21
38.2211002917
 72
1
 10
329.5240993861
 20
38.2211002917
 11
325.2079604115
 21
38.2211002917
 72
1
 10
325.2079604115
 20
38.2211002917
 11
321.4865647769
 21
31.9750028634
 72
1
 10
321.4865647769
 20
31.9750028634
 11
323.6435550087
 21
40.025
 72
1
 10
323.6435550087
 20
40.025
 11
330.0074517833
 21
40.025
 97
1
330
22F
 75
0
 76
1
 98
1
 10
0.0
 20
0.0
  0
SOLID
  5
231
100
AcDbEntity
  8
0
100
AcDbTrace
 62
2
  6
CONTINUOUS
 10
312.9787962529
 20
37.7536208579
 11
312.8299224721
 21
37.7438642614
 12
304.9810251894
 22
37.7438642614
 13
304.9810251894
 23
37.7438642614
  0
LWPOLYLINE
  5
232
100
AcDbEntity
  8
0
100
AcDbPolyline
 62
2
  6
CONTINUOUS
 90
50
 70
0
 10
300.9842407715
 20
37.1308086795
 10
301.1331145522
 20
37.140565276
 10
308.9820118349
 20
37.140565276
 10
309.1308856156
 20
37.1308086795
 10
309.2772121247
 20
37.1016998898
 10
309.418487675
 20
37.0537460569
 10
309.5522950027
 20
36.9877602304
 10
309.6763446272
 20
36.9048694098
 10
309.7885140251
 20
36.8064984448
 10
309.886883947
 20
36.6943297847
 10
309.9697712562
 20
36.5702793289
 10
310.0357577278
 20
36.4364722765
 10
310.083714315
 20
36.2952028767
 10
310.1128204673
 20
36.1488700288
 10
310.1225781704
 20
36.0000014317
 10
310.1128204673
 20
35.8511247847
 10
310.083714315
 20
35.7047999867
 10
310.0357577278
 20
35.563522537
 10
309.9697712562
 20
35.4297154846
 10
309.886883947
 20
35.3056650287
 10
309.7885140251
 20
35.1934963686
 10
309.6763446272
 20
35.0951254036
 10
309.5522950027
 20
35.0122426331
 10
309.418487675
 20
34.9462487565
 10
309.2772121247
 20
34.8982949236
 10
309.1308856156
 20
34.8691861339
 10
301.1331145522
 20
34.8594295374
 10
300.9842407715
 20
34.8691861339
 10
300.8379142624
 20
34.8982949236
 10
300.6966387121
 20
34.9462487565
 10
300.5628313844
 20
35.0122426331
 10
300.4387817599
 20
35.0951254036
 10
300.326612362
 20
35.1934963686
 10
300.2282424401
 20
35.3056650287
 10
300.1453551309
 20
35.4297154846
 10
300.0793686593
 20
35.563522537
 10
300.0314120721
 20
35.7047999867
 10
300.0023059198
 20
35.8511247847
 10
299.9925482167
 20
36.0000014317
 10
300.0023059198
 20
36.1488700288
 10
300.0314120721
 20
36.2952028767
 10
300.0793686593
 20
36.4364722765
 10
300.1453551309
 20
36.5702793289
 10
300.2282424401
 20
36.6943297847
 10
300.326612362
 20
36.8064984448
 10
300.4387817599
 20
36.9048694098
 10
300.5628313844
 20
36.9877602304
 10
300.6966387121
 20
37.0537460569
 10
300.8379142624
 20
37.1016998898
 10
300.9842407715
 20
37.1308086795
  0
HATCH
  5
233
100
AcDbEntity
  8
0
100
AcDbHatch
 62
2
  6
CONTINUOUS
 10
0.0
 20
0.0
 30
0.0
210
0.0
220
0.0
230
1.0
  2
SOLID
 70
1
 71
1
 91
1
 92
1
 93
49
 72
1
 10
300.9842407715
 20
37.1308086795
 11
301.1331145522
 21
37.140565276
 72
1
 10
301.1331145522
 20
37.140565276
 11
308.9820118349
 21
37.140565276
 72
1
 10
308.9820118349
 20
37.140565276
 11
309.1308856156
 21
37.1308086795
 72
1
 10
309.1308856156
 20
37.1308086795
 11
309.2772121247
 21
37.1016998898
 72
1
 10
309.2772121247
 20
37.1016998898
 11
309.418487675
 21
37.0537460569
 72
1
 10
309.418487675
 20
37.0537460569
 11
309.5522950027
 21
36.9877602304
 72
1
 10
309.5522950027
 20
36.9877602304
 11
309.6763446272
 21
36.9048694098
 72
1
 10
309.6763446272
 20
36.9048694098
 11
309.7885140251
 21
36.8064984448
 72
1
 10
309.7885140251
 20
36.8064984448
 11
309.886883947
 21
36.6943297847
 72
1
 10
309.886883947
 20
36.6943297847
 11
309.9697712562
 21
36.5702793289
 72
1
 10
309.9697712562
 20
36.5702793289
 11
310.0357577278
 21
36.4364722765
 72
1
 10
310.0357577278
 20
36.4364722765
 11
310.083714315
 21
36.2952028767
 72
1
 10
310.083714315
 20
36.2952028767
 11
310.1128204673
 21
36.1488700288
 72
1
 10
310.1128204673
 20
36.1488700288
 11
310.1225781704
 21
36.0000014317
 72
1
 10
310.1225781704
 20
36.0000014317
 11
310.1128204673
 21
35.8511247847
 72
1
 10
310.1128204673
 20
35.8511247847
 11
310.083714315
 21
35.7047999867
 72
1
 10
310.083714315
 20
35.7047999867
 11
310.0357577278
 21
35.563522537
 72
1
 10
310.0357577278
 20
35.563522537
 11
309.9697712562
 21
35.4297154846
 72
1
 10
309.9697712562
 20
35.4297154846
 11
309.886883947
 21
35.3056650287
 72
1
 10
309.886883947
 20
35.3056650287
 11
309.7885140251
 21
35.1934963686
 72
1
 10
309.7885140251
 20
35.1934963686
 11
309.6763446272
 21
35.0951254036
 72
1
 10
309.6763446272
 20
35.0951254036
 11
309.5522950027
 21
35.0122426331
 72
1
 10
309.5522950027
 20
35.0122426331
 11
309.418487675
 21
34.9462487565
 72
1
 10
309.418487675
 20
34.9462487565
 11
309.2772121247
 21
34.8982949236
 72
1
 10
309.2772121247
 20
34.8982949236
 11
309.1308856156
 21
34.8691861339
 72
1
 10
309.1308856156
 20
34.8691861339
 11
301.1331145522
 21
34.8594295374
 72
1
 10
301.1331145522
 20
34.8594295374
 11
300.9842407715
 21
34.8691861339
 72
1
 10
300.9842407715
 20
34.8691861339
 11
300.8379142624
 21
34.8982949236
 72
1
 10
300.8379142624
 20
34.8982949236
 11
300.6966387121
 21
34.9462487565
 72
1
 10
300.6966387121
 20
34.9462487565
 11
300.5628313844
 21
35.0122426331
 72
1
 10
300.5628313844
 20
35.0122426331
 11
300.4387817599
 21
35.0951254036
 72
1
 10
300.4387817599
 20
35.0951254036
 11
300.326612362
 21
35.1934963686
 72
1
 10
300.326612362
 20
35.1934963686
 11
300.2282424401
 21
35.3056650287
 72
1
 10
300.2282424401
 20
35.3056650287
 11
300.1453551309
 21
35.4297154846
 72
1
 10
300.1453551309
 20
35.4297154846
 11
300.0793686593
 21
35.563522537
 72
1
 10
300.0793686593
 20
35.563522537
 11
300.0314120721
 21
35.7047999867
 72
1
 10
300.0314120721
 20
35.7047999867
 11
300.0023059198
 21
35.8511247847
 72
1
 10
300.0023059198
 20
35.8511247847
 11
299.9925482167
 21
36.0000014317
 72
1
 10
299.9925482167
 20
36.0000014317
 11
300.0023059198
 21
36.1488700288
 72
1
 10
300.0023059198
 20
36.1488700288
 11
300.0314120721
 21
36.2952028767
 72
1
 10
300.0314120721
 20
36.2952028767
 11
300.0793686593
 21
36.4364722765
 72
1
 10
300.0793686593
 20
36.4364722765
 11
300.1453551309
 21
36.5702793289
 72
1
 10
300.1453551309
 20
36.5702793289
 11
300.2282424401
 21
36.6943297847
 72
1
 10
300.2282424401
 20
36.6943297847
 11
300.326612362
 21
36.8064984448
 72
1
 10
300.326612362
 20
36.8064984448
 11
300.4387817599
 21
36.9048694098
 72
1
 10
300.4387817599
 20
36.9048694098
 11
300.5628313844
 21
36.9877602304
 72
1
 10
300.5628313844
 20
36.9877602304
 11
300.6966387121
 21
37.0537460569
 72
1
 10
300.6966387121
 20
37.0537460569
 11
300.8379142624
 21
37.1016998898
 72
1
 10
300.8379142624
 20
37.1016998898
 11
300.9842407715
 21
37.1308086795
 97
1
330
232
 75
0
 76
1
 98
1
 10
0.0
 20
0.0
  0
LWPOLYLINE
  5
234
100
AcDbEntity
  8
0
100
AcDbPolyline
 62
2
  6
CONTINUOUS
 90
7
 70
0
 10
328.6887347141
 20
36.831413186
 10
328.2576583666
 20
35.2226132082
 10
324.4045177413
 20
35.2226132082
 10
321.4865647769
 20
31.9750028634
 10
325.2079604115
 20
38.2211002917
 10
324.8355940889
 20
36.831413186
 10
328.6887347141
 20
36.831413186
  0
HATCH
  5
235
100
AcDbEntity
  8
0
100
AcDbHatch
 62
2
  6
CONTINUOUS
 10
0.0
 20
0.0
 30
0.0
210
0.0
220
0.0
230
1.0
  2
SOLID
 70
1
 71
1
 91
1
 92
1
 93
6
 72
1
 10
328.6887347141
 20
36.831413186
 11
328.2576583666
 21
35.2226132082
 72
1
 10
328.2576583666
 20
35.2226132082
 11
324.4045177413
 21
35.2226132082
 72
1
 10
324.4045177413
 20
35.2226132082
 11
321.4865647769
 21
31.9750028634
 72
1
 10
321.4865647769
 20
31.9750028634
 11
325.2079604115
 21
38.2211002917
 72
1
 10
325.2079604115
 20
38.2211002917
 11
324.8355940889
 21
36.831413186
 72
1
 10
324.8355940889
 20
36.831413186
 11
328.6887347141
 21
36.831413186
 97
1
330
234
 75
0
 76
1
 98
1
 10
0.0
 20
0.0
  0
SOLID
  5
236
100
AcDbEntity
  8
0
100
AcDbTrace
 62
2
  6
CONTINUOUS
 10
309.1308856156
 20
34.8691861339
 11
308.9820118349
 21
34.8594295374
 12
301.1331145522
 22
34.8594295374
 13
301.1331145522
 23
34.8594295374
  0
LWPOLYLINE
  5
237
100
AcDbEntity
  8
0
100
AcDbPolyline
 62
2
  6
CONTINUOUS
 90
50
 70
0
 10
303.2953883461
 20
34.2463739555
 10
303.4442621268
 20
34.256130552
 10
311.2931594095
 20
34.256130552
 10
311.4420331903
 20
34.2463739555
 10
311.5883596994
 20
34.2172651658
 10
311.7296352496
 20
34.1693113329
 10
311.8634425773
 20
34.1033255064
 10
311.9874922018
 20
34.0204346859
 10
312.0996615998
 20
33.9220717708
 10
312.1980315216
 20
33.8099031107
 10
312.2809188308
 20
33.6858526549
 10
312.3469053024
 20
33.5520456025
 10
312.3948618896
 20
33.4107681527
 10
312.4239680419
 20
33.2644433548
 10
312.4337257451
 20
33.1155667077
 10
312.4239680419
 20
32.9666900607
 10
312.3948618896
 20
32.8203652627
 10
312.3469053024
 20
32.679087813
 10
312.2809188308
 20
32.5452807606
 10
312.1980315216
 20
32.4212303047
 10
312.0996615998
 20
32.3090616446
 10
311.9874922018
 20
32.2106906796
 10
311.8634425773
 20
32.1278079091
 10
311.7296352496
 20
32.0618220825
 10
311.5883596994
 20
32.0138601996
 10
311.4420331903
 20
31.98475946
 10
303.4442621268
 20
31.9750028634
 10
303.2953883461
 20
31.98475946
 10
303.149061837
 20
32.0138601996
 10
303.0077862867
 20
32.0618220825
 10
302.8739789591
 20
32.1278079091
 10
302.7499293345
 20
32.2106906796
 10
302.6377599366
 20
32.3090616446
 10
302.5393900147
 20
32.4212303047
 10
302.4565027056
 20
32.5452807606
 10
302.390516234
 20
32.679087813
 10
302.3425596467
 20
32.8203652627
 10
302.3134534944
 20
32.9666900607
 10
302.3036957913
 20
33.1155667077
 10
302.3134534944
 20
33.2644433548
 10
302.3425596467
 20
33.4107681527
 10
302.390516234
 20
33.5520456025
 10
302.4565027056
 20
33.6858526549
 10
302.5393900147
 20
33.8099031107
 10
302.6377599366
 20
33.9220717708
 10
302.7499293345
 20
34.0204346859
 10
302.8739789591
 20
34.1033255064
 10
303.0077862867
 20
34.1693113329
 10
303.149061837
 20
34.2172651658
 10
303.2953883461
 20
34.2463739555
  0
HATCH
  5
238
100
AcDbEntity
  8
0
100
AcDbHatch
 62
2
  6
CONTINUOUS
 10
0.0
 20
0.0
 30
0.0
210
0.0
220
0.0
230
1.0
  2
SOLID
 70
1
 71
1
 91
1
 92
1
 93
49
 72
1
 10
303.2953883461
 20
34.2463739555
 11
303.4442621268
 21
34.256130552
 72
1
 10
303.4442621268
 20
34.256130552
 11
311.2931594095
 21
34.256130552
 72
1
 10
311.2931594095
 20
34.256130552
 11
311.4420331903
 21
34.2463739555
 72
1
 10
311.4420331903
 20
34.2463739555
 11
311.5883596994
 21
34.2172651658
 72
1
 10
311.5883596994
 20
34.2172651658
 11
311.7296352496
 21
34.1693113329
 72
1
 10
311.7296352496
 20
34.1693113329
 11
311.8634425773
 21
34.1033255064
 72
1
 10
311.8634425773
 20
34.1033255064
 11
311.9874922018
 21
34.0204346859
 72
1
 10
311.9874922018
 20
34.0204346859
 11
312.0996615998
 21
33.9220717708
 72
1
 10
312.0996615998
 20
33.9220717708
 11
312.1980315216
 21
33.8099031107
 72
1
 10
312.1980315216
 20
33.8099031107
 11
312.2809188308
 21
33.6858526549
 72
1
 10
312.2809188308
 20
33.6858526549
 11
312.3469053024
 21
33.5520456025
 72
1
 10
312.3469053024
 20
33.5520456025
 11
312.3948618896
 21
33.4107681527
 72
1
 10
312.3948618896
 20
33.4107681527
 11
312.4239680419
 21
33.2644433548
 72
1
 10
312.4239680419
 20
33.2644433548
 11
312.4337257451
 21
33.1155667077
 72
1
 10
312.4337257451
 20
33.1155667077
 11
312.4239680419
 21
32.9666900607
 72
1
 10
312.4239680419
 20
32.9666900607
 11
312.3948618896
 21
32.8203652627
 72
1
 10
312.3948618896
 20
32.8203652627
 11
312.3469053024
 21
32.679087813
 72
1
 10
312.3469053024
 20
32.679087813
 11
312.2809188308
 21
32.5452807606
 72
1
 10
312.2809188308
 20
32.5452807606
 11
312.1980315216
 21
32.4212303047
 72
1
 10
312.1980315216
 20
32.4212303047
 11
312.0996615998
 21
32.3090616446
 72
1
 10
312.0996615998
 20
32.3090616446
 11
311.9874922018
 21
32.2106906796
 72
1
 10
311.9874922018
 20
32.2106906796
 11
311.8634425773
 21
32.1278079091
 72
1
 10
311.8634425773
 20
32.1278079091
 11
311.7296352496
 21
32.0618220825
 72
1
 10
311.7296352496
 20
32.0618220825
 11
311.5883596994
 21
32.0138601996
 72
1
 10
311.5883596994
 20
32.0138601996
 11
311.4420331903
 21
31.98475946
 72
1
 10
311.4420331903
 20
31.98475946
 11
303.4442621268
 21
31.9750028634
 72
1
 10
303.4442621268
 20
31.9750028634
 11
303.2953883461
 21
31.98475946
 72
1
 10
303.2953883461
 20
31.98475946
 11
303.149061837
 21
32.0138601996
 72
1
 10
303.149061837
 20
32.0138601996
 11
303.0077862867
 21
32.0618220825
 72
1
 10
303.0077862867
 20
32.0618220825
 11
302.8739789591
 21
32.1278079091
 72
1
 10
302.8739789591
 20
32.1278079091
 11
302.7499293345
 21
32.2106906796
 72
1
 10
302.7499293345
 20
32.2106906796
 11
302.6377599366
 21
32.3090616446
 72
1
 10
302.6377599366
 20
32.3090616446
 11
302.5393900147
 21
32.4212303047
 72
1
 10
302.5393900147
 20
32.4212303047
 11
302.4565027056
 21
32.5452807606
 72
1
 10
302.4565027056
 20
32.5452807606
 11
302.390516234
 21
32.679087813
 72
1
 10
302.390516234
 20
32.679087813
 11
302.3425596467
 21
32.8203652627
 72
1
 10
302.3425596467
 20
32.8203652627
 11
302.3134534944
 21
32.9666900607
 72
1
 10
302.3134534944
 20
32.9666900607
 11
302.3036957913
 21
33.1155667077
 72
1
 10
302.3036957913
 20
33.1155667077
 11
302.3134534944
 21
33.2644433548
 72
1
 10
302.3134534944
 20
33.2644433548
 11
302.3425596467
 21
33.4107681527
 72
1
 10
302.3425596467
 20
33.4107681527
 11
302.390516234
 21
33.5520456025
 72
1
 10
302.390516234
 20
33.5520456025
 11
302.4565027056
 21
33.6858526549
 72
1
 10
302.4565027056
 20
33.6858526549
 11
302.5393900147
 21
33.8099031107
 72
1
 10
302.5393900147
 20
33.8099031107
 11
302.6377599366
 21
33.9220717708
 72
1
 10
302.6377599366
 20
33.9220717708
 11
302.7499293345
 21
34.0204346859
 72
1
 10
302.7499293345
 20
34.0204346859
 11
302.8739789591
 21
34.1033255064
 72
1
 10
302.8739789591
 20
34.1033255064
 11
303.0077862867
 21
34.1693113329
 72
1
 10
303.0077862867
 20
34.1693113329
 11
303.149061837
 21
34.2172651658
 72
1
 10
303.149061837
 20
34.2172651658
 11
303.2953883461
 21
34.2463739555
 97
1
330
237
 75
0
 76
1
 98
1
 10
0.0
 20
0.0
  0
SOLID
  5
239
100
AcDbEntity
  8
0
100
AcDbTrace
 62
2
  6
CONTINUOUS
 10
311.4420331903
 20
31.98475946
 11
311.2931594095
 21
31.9750028634
 12
303.4442621268
 22
31.9750028634
 13
303.4442621268
 23
31.9750028634
  0
LWPOLYLINE
  5
23A
100
AcDbEntity
  8
0
100
AcDbPolyline
 62
2
  6
CONTINUOUS
 90
6
 70
0
 10
328.3338139487
 20
33.7788945218
 10
327.8504615515
 20
31.9750028634
 10
321.4865647769
 20
31.9750028634
 10
324.4045177413
 20
35.2226132082
 10
324.0176749741
 20
33.7788945218
 10
328.3338139487
 20
33.7788945218
  0
HATCH
  5
23B
100
AcDbEntity
  8
0
100
AcDbHatch
 62
2
  6
CONTINUOUS
 10
0.0
 20
0.0
 30
0.0
210
0.0
220
0.0
230
1.0
  2
SOLID
 70
1
 71
1
 91
1
 92
1
 93
5
 72
1
 10
328.3338139487
 20
33.7788945218
 11
327.8504615515
 21
31.9750028634
 72
1
 10
327.8504615515
 20
31.9750028634
 11
321.4865647769
 21
31.9750028634
 72
1
 10
321.4865647769
 20
31.9750028634
 11
324.4045177413
 21
35.2226132082
 72
1
 10
324.4045177413
 20
35.2226132082
 11
324.0176749741
 21
33.7788945218
 72
1
 10
324.0176749741
 20
33.7788945218
 11
328.3338139487
 21
33.7788945218
 97
1
330
23A
 75
0
 76
1
 98
1
 10
0.0
 20
0.0
  0
ENDBLK
  5
23C
100
AcDbEntity
  8
0
  6
BYBLOCK
 62
0
100
AcDbBlockEnd
  0
ENDSEC
  0
SECTION
  2
ENTITIES
  0
TEXT
  5
23D
100
AcDbEntity
  8
0
100
AcDbText
 62
2
  6
CONTINUOUS
 10
273.9447944556
 20
16.2331743479
  7
STANDARD
 40
1.5200002147
  1
SIZE
 41
0.95
 72
0
100
AcDbText
  0
TEXT
  5
23E
100
AcDbEntity
  8
0
100
AcDbText
 62
2
  6
CONTINUOUS
 10
287.5144966041
 20
16.2331819773
  7
STANDARD
 40
1.5200002147
  1
DRAWING NO
 41
0.95
 72
0
100
AcDbText
  0
TEXT
  5
23F
100
AcDbEntity
  8
0
100
AcDbText
 62
2
  6
CONTINUOUS
 10
354.2964949762
 20
16.2330905319
  7
STANDARD
 40
1.52
  1
VERSION
 41
0.95
 72
0
100
AcDbText
  0
TEXT
  5
240
100
AcDbEntity
  8
0
100
AcDbText
 62
2
  6
CONTINUOUS
 10
274.4447944556
 20
25.5657549143
  7
STANDARD
 40
1.5200002147
  1
NAME
 41
0.95
 72
0
100
AcDbText
  0
TEXT
  5
241
100
AcDbEntity
  8
0
100
AcDbText
 62
2
  6
CONTINUOUS
 10
276.2800492314
 20
10.3485471083
  7
STANDARD
 40
4.9999998868
  1
A3
 41
0.95
 72
0
100
AcDbText
  0
TEXT
  5
242
100
AcDbEntity
  8
0
100
AcDbText
 62
2
  6
CONTINUOUS
 10
297.3906714731
 20
21.1920805906
  7
TEXTSTYLE_2
 40
3.968
  1
CUSTOMER VIEW MODEL DRAWING
 41
0.8
 72
1
 11
340.2450714731
 21
21.1920805906
100
AcDbText
  0
TEXT
  5
243
100
AcDbEntity
  8
0
100
AcDbText
 62
2
  6
CONTINUOUS
 10
347.0299084682
 20
34.4224093775
  7
TEXTSTYLE_2
 40
2.5
  1
TE Connectivity
 41
0.8
 72
0
100
AcDbText
  0
TEXT
  5
244
100
AcDbEntity
  8
0
100
AcDbText
 62
2
  6
CONTINUOUS
 10
369.5635822821
 20
16.2739597356
  7
STANDARD
 40
1.52
  1
DATE
 41
0.95
 72
0
100
AcDbText
  0
TEXT
  5
245
100
AcDbEntity
  8
0
100
AcDbText
 62
2
  6
CONTINUOUS
 10
174.6476862981
 20
23.8368677885
  7
TEXTSTYLE_2
 40
2.286
  1
THIS IS NOT A CONTROLLED DRAWING.
 41
0.8
 72
0
100
AcDbText
  0
TEXT
  5
246
100
AcDbEntity
  8
0
100
AcDbText
 62
2
  6
CONTINUOUS
 10
174.6476862981
 20
20.4078677885
  7
TEXTSTYLE_2
 40
2.286
  1
THIS IS A REPRESENTATION OF THE CUSTOMER VIEW MODEL.
 41
0.8
 72
0
100
AcDbText
  0
TEXT
  5
247
100
AcDbEntity
  8
0
100
AcDbText
 62
2
  6
CONTINUOUS
 10
174.6476862981
 20
16.9788677885
  7
TEXTSTYLE_2
 40
2.286
  1
    THIS IS NOT THE DOCUMENT OF SALE.
 41
0.8
 72
0
100
AcDbText
  0
TEXT
  5
248
100
AcDbEntity
  8
0
100
AcDbText
 62
2
  6
CONTINUOUS
 10
174.6476862981
 20
13.5498677885
  7
TEXTSTYLE_2
 40
2.286
  1
SEE THE CUSTOMER DRAWING FOR DESIGN PURPOSES.
 41
0.8
 72
0
100
AcDbText
  0
TEXT
  5
249
100
AcDbEntity
  8
0
100
AcDbText
 62
2
  6
CONTINUOUS
 10
22.7512107444
 20
282.4829655254
  7
TEXTSTYLE_2
 40
2.5
  1
c
 41
0.8
 72
0
100
AcDbText
  0
INSERT
  5
24A
100
AcDbEntity
  8
0
100
AcDbBlockReference
 62
2
  6
CONTINUOUS
  2
TE_CONNECTIVITY_BL0
 10
315.0
 20
36.0
  0
LINE
  5
24B
100
AcDbEntity
  8
0
100
AcDbLine
 62
2
  6
CONTINUOUS
 10
287.2090159416
 20
18.7593422635
 11
409.2090159416
 21
18.7593422635
  0
LINE
  5
24C
100
AcDbEntity
  8
0
100
AcDbLine
 62
2
  6
CONTINUOUS
 10
287.2090159416
 20
18.7593422635
 11
287.2090159416
 21
9.2342522635
  0
LINE
  5
24D
100
AcDbEntity
  8
0
100
AcDbLine
 62
2
  6
CONTINUOUS
 10
287.2090159416
 20
9.2342522635
 11
409.2090159416
 21
9.2342522635
  0
LINE
  5
24E
100
AcDbEntity
  8
0
100
AcDbLine
 62
2
  6
CONTINUOUS
 10
353.3340159416
 20
18.7593422635
 11
353.3340159416
 21
9.2342522635
  0
LINE
  5
24F
100
AcDbEntity
  8
0
100
AcDbLine
 62
2
  6
CONTINUOUS
 10
367.9590159416
 20
18.7593422635
 11
367.9590159416
 21
9.2342522635
  0
LINE
  5
250
100
AcDbEntity
  8
0
100
AcDbLine
 62
2
  6
CONTINUOUS
 10
409.2090159416
 20
18.7593422635
 11
409.2090159416
 21
9.2342522635
  0
TEXT
  5
251
100
AcDbEntity
  8
0
100
AcDbText
 62
2
  6
CONTINUOUS
 10
307.5515159416
 20
12.4067972635
  7
TEXTSTYLE_2
 40
3.18
  1
C-350561-3
 41
0.8
 72
1
 11
320.2715159416
 21
12.4067972635
100
AcDbText
  0
TEXT
  5
252
100
AcDbEntity
  8
0
100
AcDbText
 62
2
  6
CONTINUOUS
 10
358.1025159416
 20
12.4067972635
  7
TEXTSTYLE_2
 40
3.18
  1
BD
 41
0.8
 72
1
 11
360.6465159416
 21
12.4067972635
100
AcDbText
  0
TEXT
  5
253
100
AcDbEntity
  8
0
100
AcDbText
 62
2
  6
CONTINUOUS
 10
377.1360159416
 20
12.4067972635
  7
TEXTSTYLE_2
 40
3.18
  1
21-Mar-16
 41
0.8
 72
1
 11
388.5840159416
 21
12.4067972635
100
AcDbText
  0
LINE
  5
254
100
AcDbEntity
  8
0
100
AcDbLine
 62
2
  6
CONTINUOUS
 10
17.7838797455
 20
287.0843544705
 11
132.7838797455
 21
287.0843544705
  0
LINE
  5
255
100
AcDbEntity
  8
0
100
AcDbLine
 62
2
  6
CONTINUOUS
 10
17.7838797455
 20
287.0843544705
 11
17.7838797455
 21
272.0843544705
  0
LINE
  5
256
100
AcDbEntity
  8
0
100
AcDbLine
 62
2
  6
CONTINUOUS
 10
17.7838797455
 20
272.0843544705
 11
132.7838797455
 21
272.0843544705
  0
LINE
  5
257
100
AcDbEntity
  8
0
100
AcDbLine
 62
2
  6
CONTINUOUS
 10
132.7838797455
 20
287.0843544705
 11
132.7838797455
 21
272.0843544705
  0
TEXT
  5
258
100
AcDbEntity
  8
0
100
AcDbText
 62
2
  6
CONTINUOUS
 10
17.8463797455
 20
282.0843544705
  7
TEXTSTYLE_2
 40
2.5
  1
  
 41
0.8
 72
0
100
AcDbText
  0
TEXT
  5
259
100
AcDbEntity
  8
0
100
AcDbText
 62
2
  6
CONTINUOUS
 10
21.8463797455
 20
282.0843544705
  7
TEXTSTYLE_1
 40
2.5
  1
e
 41
1.0
 72
0
100
AcDbText
  0
TEXT
  5
25A
100
AcDbEntity
  8
0
100
AcDbText
 62
2
  6
CONTINUOUS
 10
26.4297130788
 20
282.0843544705
  7
TEXTSTYLE_2
 40
2.5
  1
Copyright 
 41
0.8
 72
0
100
AcDbText
  0
TEXT
  5
25B
100
AcDbEntity
  8
0
100
AcDbText
 62
2
  6
CONTINUOUS
 10
46.4297130788
 20
282.0843544705
  7
TEXTSTYLE_2
 40
2.5
  1
21-Mar-16
 41
0.8
 72
0
100
AcDbText
  0
TEXT
  5
25C
100
AcDbEntity
  8
0
100
AcDbText
 62
2
  6
CONTINUOUS
 10
64.4297130788
 20
282.0843544705
  7
TEXTSTYLE_2
 40
2.5
  1
 Tyco Electronics Corporation,
 41
0.8
 72
0
100
AcDbText
  0
TEXT
  5
25D
100
AcDbEntity
  8
0
100
AcDbText
 62
2
  6
CONTINUOUS
 10
17.8463797455
 20
278.3343544705
  7
TEXTSTYLE_2
 40
2.5
  1
 
 41
0.8
 72
0
100
AcDbText
  0
TEXT
  5
25E
100
AcDbEntity
  8
0
100
AcDbText
 62
2
  6
CONTINUOUS
 10
17.8463797455
 20
274.5843544705
  7
TEXTSTYLE_2
 40
2.5
  1
  a TE Connectivity Ltd. Company.  All Rights Reserved.
 41
0.8
 72
0
100
AcDbText
  0
LINE
  5
25F
100
AcDbEntity
  8
0
100
AcDbLine
 62
7
  6
CONTINUOUS
 10
0.0
 20
0.0
 11
0.0
 21
297.0
  0
LINE
  5
260
100
AcDbEntity
  8
0
100
AcDbLine
 62
7
  6
CONTINUOUS
 10
17.7838797455
 20
9.2342568143
 11
17.7838797455
 21
287.0843544705
  0
LINE
  5
261
100
AcDbEntity
  8
0
100
AcDbLine
 62
7
  6
CONTINUOUS
 10
0.0
 20
0.0
 11
420.0
 21
0.0
  0
LINE
  5
262
100
AcDbEntity
  8
0
100
AcDbLine
 62
7
  6
CONTINUOUS
 10
409.2090201263
 20
9.2342568143
 11
17.7838797455
 21
9.2342568143
  0
LINE
  5
263
100
AcDbEntity
  8
0
100
AcDbLine
 62
7
  6
CONTINUOUS
 10
30.4841666107
 20
9.234348367
 11
17.784490097
 21
9.234348367
  0
LINE
  5
264
100
AcDbEntity
  8
0
100
AcDbLine
 62
7
  6
CONTINUOUS
 10
409.2090159416
 20
18.7593422635
 11
273.4388174896
 21
18.7593422635
  0
LINE
  5
265
100
AcDbEntity
  8
DRAFT_ENTITY
100
AcDbLine
 62
7
  6
CONTINUOUS
 10
409.2091421966
 20
28.2845192655
 11
273.4386343841
 21
28.2845192655
  0
LINE
  5
266
100
AcDbEntity
  8
0
100
AcDbLine
 62
7
  6
CONTINUOUS
 10
409.2091421966
 20
44.1593056424
 11
273.4386343841
 21
44.1593056424
  0
LINE
  5
267
100
AcDbEntity
  8
0
100
AcDbLine
 62
7
  6
CONTINUOUS
 10
273.4386343841
 20
44.1593056424
 11
273.4386343841
 21
9.2342568143
  0
LINE
  5
268
100
AcDbEntity
  8
0
100
AcDbLine
 62
7
  6
CONTINUOUS
 10
287.2079097655
 20
18.7593422635
 11
287.2079097655
 21
9.2342568143
  0
LINE
  5
269
100
AcDbEntity
  8
0
100
AcDbLine
 62
7
  6
CONTINUOUS
 10
353.3344447689
 20
18.7593808926
 11
353.3344447689
 21
9.2342954434
  0
LINE
  5
26A
100
AcDbEntity
  8
0
100
AcDbLine
 62
7
  6
CONTINUOUS
 10
17.7838797455
 20
287.0843544705
 11
409.208898056
 21
287.0843544705
  0
LINE
  5
26B
100
AcDbEntity
  8
0
100
AcDbLine
 62
7
  6
CONTINUOUS
 10
0.0
 20
297.0
 11
420.0
 21
297.0
  0
LINE
  5
26C
100
AcDbEntity
  8
0
100
AcDbLine
 62
7
  6
CONTINUOUS
 10
367.9586057154
 20
9.2337890544
 11
367.9586057154
 21
18.7587829509
  0
LINE
  5
26D
100
AcDbEntity
  8
0
100
AcDbLine
 62
7
  6
CONTINUOUS
 10
409.208898056
 20
287.0843544705
 11
409.2090201263
 21
9.2342568143
  0
LINE
  5
26E
100
AcDbEntity
  8
0
100
AcDbLine
 62
7
  6
CONTINUOUS
 10
420.0
 20
0.0
 11
420.0
 21
297.0
  0
LINE
  5
26F
100
AcDbEntity
  8
0
100
AcDbLine
 62
7
  6
CONTINUOUS
 10
297.1982061189
 20
238.6076622588
 11
295.9538612657
 21
237.9411941355
  0
LINE
  5
270
100
AcDbEntity
  8
0
100
AcDbLine
 62
7
  6
CONTINUOUS
 10
285.428729838
 20
208.3280029035
 11
285.4427352521
 21
208.3280029035
  0
LINE
  5
271
100
AcDbEntity
  8
0
100
AcDbLine
 62
7
  6
CONTINUOUS
 10
291.7637110726
 20
208.3280029035
 11
292.3786266315
 21
208.3280029035
  0
LINE
  5
272
100
AcDbEntity
  8
0
100
AcDbLine
 62
7
  6
CONTINUOUS
 10
293.596873871
 20
244.5048401545
 11
292.5823748148
 21
241.2219169564
  0
LINE
  5
273
100
AcDbEntity
  8
0
100
AcDbLine
 62
7
  6
CONTINUOUS
 10
303.6399049488
 20
238.5033217588
 11
302.912836686
 21
237.8368536355
  0
LINE
  5
274
100
AcDbEntity
  8
0
100
AcDbLine
 62
7
  6
CONTINUOUS
 10
294.4092515576
 20
244.6091806545
 11
293.3947525014
 21
241.3262574564
  0
LINE
  5
275
100
AcDbEntity
  8
0
100
AcDbLine
 62
7
  6
CONTINUOUS
 10
293.4676535331
 20
236.8592745012
 11
291.1619738599
 21
229.3980854146
  0
LINE
  5
276
100
AcDbEntity
  8
0
100
AcDbLine
 62
7
  6
CONTINUOUS
 10
302.6545303735
 20
236.5659024086
 11
303.2662286597
 21
237.1831923995
  0
LINE
  5
277
100
AcDbEntity
  8
0
100
AcDbLine
 62
7
  6
CONTINUOUS
 10
294.2151820273
 20
237.0391983169
 11
291.9095023541
 21
229.5780092303
  0
LINE
  5
278
100
AcDbEntity
  8
0
100
AcDbLine
 62
7
  6
CONTINUOUS
 10
290.9315992164
 20
226.2308486904
 11
287.8881020477
 21
216.3820790961
  0
LINE
  5
279
100
AcDbEntity
  8
0
100
AcDbLine
 62
7
  6
CONTINUOUS
 10
285.3239167731
 20
208.0843647998
 11
284.936832066
 21
206.8317570652
  0
LINE
  5
27A
100
AcDbEntity
  8
0
100
AcDbLine
 62
7
  6
CONTINUOUS
 10
288.1080626589
 20
216.8077173983
 11
285.5257014249
 21
208.4511856213
  0
LINE
  5
27B
100
AcDbEntity
  8
0
100
AcDbLine
 62
7
  6
CONTINUOUS
 10
285.6442153228
 20
205.9592635219
 11
283.0802995262
 21
197.6624212576
  0
LINE
  5
27C
100
AcDbEntity
  8
0
100
AcDbLine
 62
7
  6
CONTINUOUS
 10
297.705455647
 20
240.2491238578
 11
297.1982061189
 21
238.6076622588
  0
LINE
  5
27D
100
AcDbEntity
  8
0
100
AcDbLine
 62
7
  6
CONTINUOUS
 10
295.9898769479
 20
214.694742542
 11
296.5331665108
 21
214.2104635587
  0
LINE
  5
27E
100
AcDbEntity
  8
0
100
AcDbLine
 62
7
  6
CONTINUOUS
 10
297.2303581621
 20
233.9093198376
 11
295.1988977591
 21
227.3355054588
  0
LINE
  5
27F
100
AcDbEntity
  8
0
100
AcDbLine
 62
7
  6
CONTINUOUS
 10
302.912836686
 20
237.8368536355
 11
300.8291052537
 21
233.729396022
  0
LWPOLYLINE
  5
280
100
AcDbEntity
  8
0
100
AcDbPolyline
 62
7
  6
CONTINUOUS
 90
5
 70
0
 10
300.7646458795
 20
233.3758708052
 10
301.1646123192
 20
234.0598518531
 10
301.6566929043
 20
234.8923839282
 10
302.187870122
 20
235.7850359542
 10
302.7515965397
 20
236.7283240265
  0
LINE
  5
281
100
AcDbEntity
  8
0
100
AcDbLine
 62
7
  6
CONTINUOUS
 10
286.1006502916
 20
214.694742542
 11
285.2315660985
 21
214.2104635587
  0
LINE
  5
282
100
AcDbEntity
  8
0
100
AcDbLine
 62
7
  6
CONTINUOUS
 10
295.1776597707
 20
214.057659894
 11
293.8281283346
 21
216.8077173983
  0
LWPOLYLINE
  5
283
100
AcDbEntity
  8
0
100
AcDbPolyline
 62
7
  6
CONTINUOUS
 90
15
 70
0
 10
298.955505518
 20
240.217378888
 10
298.9437720038
 20
240.1582780791
 10
298.9269563004
 20
240.0945036746
 10
298.9072839281
 20
240.0351332865
 10
298.8849058614
 20
239.978633684
 10
298.8597831094
 20
239.9237966382
 10
298.8319667595
 20
239.8700578591
 10
298.8015024647
 20
239.8170222651
 10
298.7683940013
 20
239.7643391177
 10
298.7327236922
 20
239.7118570088
 10
298.6945765712
 20
239.6594581064
 10
298.6540628747
 20
239.6070792278
 10
298.6110149659
 20
239.5543373814
 10
298.5644296412
 20
239.4999659768
 10
298.5531556223
 20
239.4873503754
  0
LINE
  5
284
100
AcDbEntity
  8
0
100
AcDbLine
 62
7
  6
CONTINUOUS
 10
299.8483246434
 20
237.0391983169
 11
297.5426449702
 21
229.5780092303
  0
LINE
  5
285
100
AcDbEntity
  8
0
100
AcDbLine
 62
7
  6
CONTINUOUS
 10
302.2493674148
 20
244.6091806545
 11
301.2348683586
 21
241.3262574564
  0
LINE
  5
286
100
AcDbEntity
  8
0
100
AcDbLine
 62
7
  6
CONTINUOUS
 10
293.8281283346
 20
216.8077173983
 11
291.2457671006
 21
208.4511856213
  0
LINE
  5
287
100
AcDbEntity
  8
0
100
AcDbLine
 62
7
  6
CONTINUOUS
 10
300.7724406053
 20
236.8592745012
 11
298.4667609321
 21
229.3980854146
  0
LINE
  5
288
100
AcDbEntity
  8
0
100
AcDbLine
 62
7
  6
CONTINUOUS
 10
303.1641508035
 20
244.5048401545
 11
302.1496517473
 21
241.2219169564
  0
LINE
  5
289
100
AcDbEntity
  8
0
100
AcDbLine
 62
7
  6
CONTINUOUS
 10
291.7637110726
 20
208.3280029035
 11
292.7996013165
 21
211.4076109
  0
LINE
  5
28A
100
AcDbEntity
  8
0
100
AcDbLine
 62
7
  6
CONTINUOUS
 10
297.4753132683
 20
227.0497312431
 11
297.4758123618
 21
227.0243067794
  0
LINE
  5
28B
100
AcDbEntity
  8
0
100
AcDbLine
 62
7
  6
CONTINUOUS
 10
297.5426449702
 20
229.5780092303
 11
297.5591527375
 21
228.6662007769
  0
LINE
  5
28C
100
AcDbEntity
  8
0
100
AcDbLine
 62
7
  6
CONTINUOUS
 10
297.4758123618
 20
227.0243067794
 11
297.4765511535
 21
226.9709698764
  0
LINE
  5
28D
100
AcDbEntity
  8
0
100
AcDbLine
 62
7
  6
CONTINUOUS
 10
297.4765511535
 20
226.9709698764
 11
297.476997604
 21
226.9074318374
  0
LINE
  5
28E
100
AcDbEntity
  8
0
100
AcDbLine
 62
7
  6
CONTINUOUS
 10
297.476997604
 20
226.9074318374
 11
297.4770242567
 21
226.8348972567
  0
LINE
  5
28F
100
AcDbEntity
  8
0
100
AcDbLine
 62
7
  6
CONTINUOUS
 10
297.4770242567
 20
226.8348972567
 11
297.4765027798
 21
226.7534169991
  0
LINE
  5
290
100
AcDbEntity
  8
0
100
AcDbLine
 62
7
  6
CONTINUOUS
 10
297.4765027798
 20
226.7534169991
 11
297.4752703917
 21
226.6626910203
  0
LWPOLYLINE
  5
291
100
AcDbEntity
  8
0
100
AcDbPolyline
 62
7
  6
CONTINUOUS
 90
8
 70
0
 10
297.4752703917
 20
226.6626910203
 10
297.4731132311
 20
226.5624476523
 10
297.4716054855
 20
226.5087667092
 10
297.4697580498
 20
226.4527079597
 10
297.4675229125
 20
226.3942477138
 10
297.4648444367
 20
226.3333527335
 10
297.4616573216
 20
226.2699725451
 10
297.4614546318
 20
226.2664302928
  0
LINE
  5
292
100
AcDbEntity
  8
0
100
AcDbLine
 62
7
  6
CONTINUOUS
 10
291.6140672179
 20
204.1144414692
 11
289.0501514213
 21
195.8175992049
  0
LINE
  5
293
100
AcDbEntity
  8
0
100
AcDbLine
 62
7
  6
CONTINUOUS
 10
300.8291052537
 20
233.729396022
 11
298.5234255805
 21
226.2682069354
  0
LINE
  5
294
100
AcDbEntity
  8
0
100
AcDbLine
 62
7
  6
CONTINUOUS
 10
300.7925035893
 20
233.4660184706
 11
298.5091131016
 21
226.0769572818
  0
LINE
  5
295
100
AcDbEntity
  8
0
100
AcDbLine
 62
7
  6
CONTINUOUS
 10
298.6851217596
 20
223.8348148768
 11
295.8214978161
 21
214.5681157927
  0
LINE
  5
296
100
AcDbEntity
  8
0
100
AcDbLine
 62
7
  6
CONTINUOUS
 10
293.0774438729
 20
205.6883457311
 11
292.6903592224
 21
204.4357381797
  0
LINE
  5
297
100
AcDbEntity
  8
0
100
AcDbLine
 62
7
  6
CONTINUOUS
 10
304.1471544769
 20
240.1447833579
 11
303.6399049488
 21
238.5033217588
  0
LINE
  5
298
100
AcDbEntity
  8
0
100
AcDbLine
 62
7
  6
CONTINUOUS
 10
304.1272255185
 20
239.4018773873
 11
303.6199759904
 21
237.7604157883
  0
LWPOLYLINE
  5
299
100
AcDbEntity
  8
0
100
AcDbPolyline
 62
7
  6
CONTINUOUS
 90
14
 70
0
 10
298.7417838669
 20
224.342169314
 10
298.7361870976
 20
224.4177533515
 10
298.7289056566
 20
224.5042575304
 10
298.7207964852
 20
224.5903605359
 10
298.7119418144
 20
224.6760380143
 10
298.7024211325
 20
224.7612662342
 10
298.6923112476
 20
224.8460215202
 10
298.6816863714
 20
224.9302797583
 10
298.6706182128
 20
225.0140159678
 10
298.6591760726
 20
225.0972039341
 10
298.6474269321
 20
225.1798158924
 10
298.6354355298
 20
225.2618222512
 10
298.6232644267
 20
225.343191343
 10
298.5986227572
 20
225.5038792417
  0
LINE
  5
29A
100
AcDbEntity
  8
0
100
AcDbLine
 62
7
  6
CONTINUOUS
 10
298.5234255805
 20
226.2682069354
 11
298.4667609321
 21
229.3980854146
  0
LINE
  5
29B
100
AcDbEntity
  8
0
100
AcDbLine
 62
7
  6
CONTINUOUS
 10
291.1619738599
 20
229.3980854146
 11
291.8670367266
 21
228.6662007769
  0
LINE
  5
29C
100
AcDbEntity
  8
0
100
AcDbLine
 62
7
  6
CONTINUOUS
 10
293.8664913988
 20
227.5465730483
 11
291.9095023541
 21
229.5780092303
  0
LINE
  5
29D
100
AcDbEntity
  8
0
100
AcDbLine
 62
7
  6
CONTINUOUS
 10
298.5986227572
 20
225.5038792417
 11
298.5378480259
 21
225.8917288615
  0
LINE
  5
29E
100
AcDbEntity
  8
0
100
AcDbLine
 62
7
  6
CONTINUOUS
 10
298.5378480259
 20
225.8917288615
 11
298.5154194588
 21
226.0369951464
  0
LINE
  5
29F
100
AcDbEntity
  8
0
100
AcDbLine
 62
7
  6
CONTINUOUS
 10
300.8291052537
 20
233.729396022
 11
300.7724406053
 21
236.8592745012
  0
LINE
  5
2A0
100
AcDbEntity
  8
0
100
AcDbLine
 62
7
  6
CONTINUOUS
 10
297.5197251933
 20
226.525077065
 11
298.4354857287
 21
226.525077065
  0
LINE
  5
2A1
100
AcDbEntity
  8
0
100
AcDbLine
 62
7
  6
CONTINUOUS
 10
295.9538612657
 20
237.9411941355
 11
297.2303581621
 21
233.9093198376
  0
LINE
  5
2A2
100
AcDbEntity
  8
0
100
AcDbLine
 62
7
  6
CONTINUOUS
 10
291.9095023541
 20
229.5780092303
 11
291.1619738599
 21
229.3980854146
  0
LINE
  5
2A3
100
AcDbEntity
  8
0
100
AcDbLine
 62
7
  6
CONTINUOUS
 10
291.8670367266
 20
228.6662007769
 11
292.7878952714
 21
228.6662007769
  0
LINE
  5
2A4
100
AcDbEntity
  8
0
100
AcDbLine
 62
7
  6
CONTINUOUS
 10
297.5591527375
 20
228.6662007769
 11
298.4800112822
 21
228.6662007769
  0
LINE
  5
2A5
100
AcDbEntity
  8
0
100
AcDbLine
 62
7
  6
CONTINUOUS
 10
298.4667609321
 20
229.3980854146
 11
297.5426449702
 21
229.5780092303
  0
LINE
  5
2A6
100
AcDbEntity
  8
0
100
AcDbLine
 62
7
  6
CONTINUOUS
 10
297.2303581621
 20
233.9093198376
 11
294.2151820273
 21
237.0391983169
  0
LINE
  5
2A7
100
AcDbEntity
  8
0
100
AcDbLine
 62
7
  6
CONTINUOUS
 10
292.5823748148
 20
241.2219169564
 11
293.9442504712
 21
239.4204947596
  0
LINE
  5
2A8
100
AcDbEntity
  8
0
100
AcDbLine
 62
7
  6
CONTINUOUS
 10
295.9538612657
 20
237.9411941355
 11
293.3947525014
 21
241.3262574564
  0
LINE
  5
2A9
100
AcDbEntity
  8
0
100
AcDbLine
 62
7
  6
CONTINUOUS
 10
301.2348683586
 20
241.3262574564
 11
301.6645351772
 21
239.4204947583
  0
LINE
  5
2AA
100
AcDbEntity
  8
0
100
AcDbLine
 62
7
  6
CONTINUOUS
 10
302.912836686
 20
237.8368536355
 11
302.1496517473
 21
241.2219169564
  0
LINE
  5
2AB
100
AcDbEntity
  8
0
100
AcDbLine
 62
7
  6
CONTINUOUS
 10
304.1471544769
 20
240.1447833579
 11
303.1641508035
 21
244.5048401545
  0
LINE
  5
2AC
100
AcDbEntity
  8
0
100
AcDbLine
 62
7
  6
CONTINUOUS
 10
297.705455647
 20
240.2491238578
 11
294.4092515576
 21
244.6091806545
  0
LINE
  5
2AD
100
AcDbEntity
  8
0
100
AcDbLine
 62
7
  6
CONTINUOUS
 10
294.2151820273
 20
237.0391983169
 11
293.4676535331
 21
236.8592745012
  0
LINE
  5
2AE
100
AcDbEntity
  8
0
100
AcDbLine
 62
7
  6
CONTINUOUS
 10
295.1118827257
 20
236.1083856238
 11
295.9427074382
 21
236.1083856238
  0
LINE
  5
2AF
100
AcDbEntity
  8
0
100
AcDbLine
 62
7
  6
CONTINUOUS
 10
300.7860350162
 20
236.1083856238
 11
301.3368016328
 21
236.1083856238
  0
LINE
  5
2B0
100
AcDbEntity
  8
0
100
AcDbLine
 62
7
  6
CONTINUOUS
 10
300.7724406053
 20
236.8592745012
 11
299.8483246434
 21
237.0391983169
  0
LINE
  5
2B1
100
AcDbEntity
  8
0
100
AcDbLine
 62
7
  6
CONTINUOUS
 10
294.2792869207
 20
238.7076262045
 11
295.1725877669
 21
238.7076262045
  0
LINE
  5
2B2
100
AcDbEntity
  8
0
100
AcDbLine
 62
7
  6
CONTINUOUS
 10
301.5402656205
 20
238.7076262045
 11
302.4335664667
 21
238.7076262045
  0
LINE
  5
2B3
100
AcDbEntity
  8
0
100
AcDbLine
 62
7
  6
CONTINUOUS
 10
293.9442504377
 20
239.4204948039
 11
294.8355095698
 21
239.4204948039
  0
LINE
  5
2B4
100
AcDbEntity
  8
0
100
AcDbLine
 62
7
  6
CONTINUOUS
 10
301.6645351669
 20
239.4204948039
 11
302.5557942991
 21
239.4204948039
  0
LINE
  5
2B5
100
AcDbEntity
  8
0
100
AcDbLine
 62
7
  6
CONTINUOUS
 10
304.7684222557
 20
241.0383226563
 11
305.058974426
 21
240.446239245
  0
LINE
  5
2B6
100
AcDbEntity
  8
0
100
AcDbLine
 62
7
  6
CONTINUOUS
 10
293.3947525014
 20
241.3262574564
 11
292.5823748148
 21
241.2219169564
  0
LINE
  5
2B7
100
AcDbEntity
  8
0
100
AcDbLine
 62
7
  6
CONTINUOUS
 10
299.1536338624
 20
241.0383226563
 11
301.2997851657
 21
241.0383226563
  0
LINE
  5
2B8
100
AcDbEntity
  8
0
100
AcDbLine
 62
7
  6
CONTINUOUS
 10
303.9457001258
 20
241.0383226563
 11
304.7684222557
 21
241.0383226563
  0
LINE
  5
2B9
100
AcDbEntity
  8
0
100
AcDbLine
 62
7
  6
CONTINUOUS
 10
302.1496517473
 20
241.2219169564
 11
301.2348683586
 21
241.3262574564
  0
LINE
  5
2BA
100
AcDbEntity
  8
0
100
AcDbLine
 62
7
  6
CONTINUOUS
 10
294.4092515576
 20
244.6091806545
 11
293.596873871
 21
244.5048401545
  0
LINE
  5
2BB
100
AcDbEntity
  8
0
100
AcDbLine
 62
7
  6
CONTINUOUS
 10
303.1641508035
 20
244.5048401545
 11
302.2493674148
 21
244.6091806545
  0
LINE
  5
2BC
100
AcDbEntity
  8
0
100
AcDbLine
 62
7
  6
CONTINUOUS
 10
118.548
 20
92.07375
 11
112.452
 21
92.07375
  0
LINE
  5
2BD
100
AcDbEntity
  8
0
100
AcDbLine
 62
7
  6
CONTINUOUS
 10
112.4420363705
 20
100.45575
 11
111.534580569
 21
100.166301873
  0
LINE
  5
2BE
100
AcDbEntity
  8
0
100
AcDbLine
 62
7
  6
CONTINUOUS
 10
110.3063830642
 20
102.383394721
 11
110.9579895991
 21
98.7437010132
  0
LINE
  5
2BF
100
AcDbEntity
  8
0
100
AcDbLine
 62
7
  6
CONTINUOUS
 10
111.5621089035
 20
95.3692578281
 11
111.4266462621
 21
96.1259146404
  0
LINE
  5
2C0
100
AcDbEntity
  8
0
100
AcDbLine
 62
7
  6
CONTINUOUS
 10
111.2439761824
 20
102.55125
 11
111.6635818381
 21
100.2074489743
  0
LINE
  5
2C1
100
AcDbEntity
  8
0
100
AcDbLine
 62
7
  6
CONTINUOUS
 10
111.534580569
 20
100.166301873
 11
111.8390200362
 21
99.2118463591
  0
LINE
  5
2C2
100
AcDbEntity
  8
0
100
AcDbLine
 62
7
  6
CONTINUOUS
 10
112.5189449396
 20
100.2146320908
 11
112.4420363705
 21
100.45575
  0
LINE
  5
2C3
100
AcDbEntity
  8
0
100
AcDbLine
 62
7
  6
CONTINUOUS
 10
111.0734317458
 20
98.8282380685
 11
111.5507775091
 21
98.8282380685
  0
LINE
  5
2C4
100
AcDbEntity
  8
0
100
AcDbLine
 62
7
  6
CONTINUOUS
 10
119.4492224909
 20
98.8282380685
 11
119.9265682542
 21
98.8282380685
  0
LINE
  5
2C5
100
AcDbEntity
  8
0
100
AcDbLine
 62
7
  6
CONTINUOUS
 10
118.5579636295
 20
100.45575
 11
118.4810550604
 21
100.2146320908
  0
LINE
  5
2C6
100
AcDbEntity
  8
0
100
AcDbLine
 62
7
  6
CONTINUOUS
 10
110.825204825
 20
99.4854
 11
111.7517655508
 21
99.4854
  0
LINE
  5
2C7
100
AcDbEntity
  8
0
100
AcDbLine
 62
7
  6
CONTINUOUS
 10
119.2482344492
 20
99.4854
 11
120.174795175
 21
99.4854
  0
LINE
  5
2C8
100
AcDbEntity
  8
0
100
AcDbLine
 62
7
  6
CONTINUOUS
 10
119.7560238176
 20
102.55125
 11
119.3364181619
 21
100.2074489743
  0
LINE
  5
2C9
100
AcDbEntity
  8
0
100
AcDbLine
 62
7
  6
CONTINUOUS
 10
119.1609799638
 20
99.2118463591
 11
119.465419431
 21
100.166301873
  0
LINE
  5
2CA
100
AcDbEntity
  8
0
100
AcDbLine
 62
7
  6
CONTINUOUS
 10
119.4378910965
 20
95.3692578281
 11
119.5733537379
 21
96.1259146404
  0
LINE
  5
2CB
100
AcDbEntity
  8
0
100
AcDbLine
 62
7
  6
CONTINUOUS
 10
120.0420104009
 20
98.7437010132
 11
120.6936169358
 21
102.383394721
  0
LINE
  5
2CC
100
AcDbEntity
  8
0
100
AcDbLine
 62
7
  6
CONTINUOUS
 10
119.465419431
 20
100.166301873
 11
118.5579636295
 21
100.45575
  0
LINE
  5
2CD
100
AcDbEntity
  8
0
100
AcDbLine
 62
7
  6
CONTINUOUS
 10
111.2439761824
 20
102.55125
 11
110.3063830642
 21
102.383394721
  0
LINE
  5
2CE
100
AcDbEntity
  8
0
100
AcDbLine
 62
7
  6
CONTINUOUS
 10
120.6936169358
 20
102.383394721
 11
119.7560238176
 21
102.55125
  0
LINE
  5
2CF
100
AcDbEntity
  8
0
100
AcDbLine
 62
7
  6
CONTINUOUS
 10
112.3758
 20
169.637703
 11
118.6242
 21
169.637703
  0
LINE
  5
2D0
100
AcDbEntity
  8
0
100
AcDbLine
 62
7
  6
CONTINUOUS
 10
118.79565
 20
180.229503
 11
112.20435
 21
180.229503
  0
LINE
  5
2D1
100
AcDbEntity
  8
0
100
AcDbLine
 62
7
  6
CONTINUOUS
 10
111.44235
 20
180.991503
 11
119.55765
 21
180.991503
  0
LINE
  5
2D2
100
AcDbEntity
  8
0
100
AcDbLine
 62
7
  6
CONTINUOUS
 10
118.8734106082
 20
182.515503
 11
118.60515
 21
182.515503
  0
LINE
  5
2D3
100
AcDbEntity
  8
0
100
AcDbLine
 62
7
  6
CONTINUOUS
 10
112.39485
 20
182.515503
 11
112.1265893918
 21
182.515503
  0
LINE
  5
2D4
100
AcDbEntity
  8
0
100
AcDbLine
 62
7
  6
CONTINUOUS
 10
111.7272335229
 20
183.2457805249
 11
112.39485
 21
183.2457805249
  0
LINE
  5
2D5
100
AcDbEntity
  8
0
100
AcDbLine
 62
7
  6
CONTINUOUS
 10
118.60515
 20
183.2457805249
 11
119.2727664771
 21
183.2457805249
  0
LINE
  5
2D6
100
AcDbEntity
  8
0
100
AcDbLine
 62
7
  6
CONTINUOUS
 10
111.44235
 20
184.801503
 11
111.7022115699
 21
184.801503
  0
LINE
  5
2D7
100
AcDbEntity
  8
0
100
AcDbLine
 62
7
  6
CONTINUOUS
 10
119.2977884301
 20
184.801503
 11
119.55765
 21
184.801503
  0
LINE
  5
2D8
100
AcDbEntity
  8
0
100
AcDbLine
 62
7
  6
CONTINUOUS
 10
112.4997020218
 20
224.616003
 11
112.218897308
 21
222.520503
  0
LINE
  5
2D9
100
AcDbEntity
  8
0
100
AcDbLine
 62
7
  6
CONTINUOUS
 10
118.781102692
 20
222.520503
 11
116.9519292825
 21
218.710503
  0
LINE
  5
2DA
100
AcDbEntity
  8
0
100
AcDbLine
 62
7
  6
CONTINUOUS
 10
110.3063830642
 20
226.711503
 11
110.3063830642
 21
222.520503
  0
LINE
  5
2DB
100
AcDbEntity
  8
0
100
AcDbLine
 62
7
  6
CONTINUOUS
 10
111.2439761824
 20
226.711503
 11
111.2439761824
 21
222.520503
  0
LINE
  5
2DC
100
AcDbEntity
  8
0
100
AcDbLine
 62
7
  6
CONTINUOUS
 10
111.44235
 20
205.7564550211
 11
111.44235
 21
193.183503
  0
LINE
  5
2DD
100
AcDbEntity
  8
0
100
AcDbLine
 62
7
  6
CONTINUOUS
 10
111.44235
 20
184.801503
 11
111.44235
 21
180.991503
  0
LINE
  5
2DE
100
AcDbEntity
  8
0
100
AcDbLine
 62
7
  6
CONTINUOUS
 10
119.5576486846
 20
193.183503
 11
118.60515
 21
193.183503
  0
LINE
  5
2DF
100
AcDbEntity
  8
0
100
AcDbLine
 62
7
  6
CONTINUOUS
 10
112.39485
 20
193.183503
 11
111.4423513154
 21
193.183503
  0
LINE
  5
2E0
100
AcDbEntity
  8
0
100
AcDbLine
 62
7
  6
CONTINUOUS
 10
111.534580569
 20
218.710503
 11
111.534580569
 21
209.185503
  0
LINE
  5
2E1
100
AcDbEntity
  8
0
100
AcDbLine
 62
7
  6
CONTINUOUS
 10
112.3758
 20
180.229503
 11
112.3758
 21
169.637703
  0
LINE
  5
2E2
100
AcDbEntity
  8
0
100
AcDbLine
 62
7
  6
CONTINUOUS
 10
112.39485
 20
193.183503
 11
112.39485
 21
182.515503
  0
LINE
  5
2E3
100
AcDbEntity
  8
0
100
AcDbLine
 62
7
  6
CONTINUOUS
 10
112.4420363705
 20
218.710503
 11
112.4420363705
 21
209.185503
  0
LINE
  5
2E4
100
AcDbEntity
  8
0
100
AcDbLine
 62
7
  6
CONTINUOUS
 10
112.4997020218
 20
226.711503
 11
112.4997020218
 21
224.616003
  0
LINE
  5
2E5
100
AcDbEntity
  8
0
100
AcDbLine
 62
7
  6
CONTINUOUS
 10
114.0480707175
 20
218.710503
 11
114.0480707175
 21
209.185503
  0
LINE
  5
2E6
100
AcDbEntity
  8
0
100
AcDbLine
 62
7
  6
CONTINUOUS
 10
115.5
 20
209.185503
 11
115.5
 21
205.756503
  0
LINE
  5
2E7
100
AcDbEntity
  8
0
100
AcDbLine
 62
7
  6
CONTINUOUS
 10
120.8683880383
 20
191.6515326546
 11
121.767448681
 21
190.9017888441
  0
LINE
  5
2E8
100
AcDbEntity
  8
0
100
AcDbLine
 62
7
  6
CONTINUOUS
 10
116.9519292825
 20
218.710503
 11
116.9519292825
 21
209.185503
  0
LINE
  5
2E9
100
AcDbEntity
  8
0
100
AcDbLine
 62
7
  6
CONTINUOUS
 10
109.232551319
 20
190.9017888441
 11
110.1316119617
 21
191.6515326546
  0
LINE
  5
2EA
100
AcDbEntity
  8
0
100
AcDbLine
 62
7
  6
CONTINUOUS
 10
118.5002979782
 20
226.711503
 11
118.5002979782
 21
224.616003
  0
LINE
  5
2EB
100
AcDbEntity
  8
0
100
AcDbLine
 62
7
  6
CONTINUOUS
 10
118.5579636295
 20
218.710503
 11
118.5579636295
 21
209.185503
  0
LINE
  5
2EC
100
AcDbEntity
  8
0
100
AcDbLine
 62
7
  6
CONTINUOUS
 10
118.60515
 20
193.183503
 11
118.60515
 21
182.515503
  0
LINE
  5
2ED
100
AcDbEntity
  8
0
100
AcDbLine
 62
7
  6
CONTINUOUS
 10
118.6242
 20
180.229503
 11
118.6242
 21
169.637703
  0
LINE
  5
2EE
100
AcDbEntity
  8
0
100
AcDbLine
 62
7
  6
CONTINUOUS
 10
119.465419431
 20
218.710503
 11
119.465419431
 21
209.185503
  0
LINE
  5
2EF
100
AcDbEntity
  8
0
100
AcDbLine
 62
7
  6
CONTINUOUS
 10
119.55765
 20
205.7564550219
 11
119.55765
 21
193.183503
  0
LINE
  5
2F0
100
AcDbEntity
  8
0
100
AcDbLine
 62
7
  6
CONTINUOUS
 10
119.55765
 20
184.801503
 11
119.55765
 21
180.991503
  0
LINE
  5
2F1
100
AcDbEntity
  8
0
100
AcDbLine
 62
7
  6
CONTINUOUS
 10
119.7560238176
 20
226.711503
 11
119.7560238176
 21
222.520503
  0
LINE
  5
2F2
100
AcDbEntity
  8
0
100
AcDbLine
 62
7
  6
CONTINUOUS
 10
120.6936169358
 20
226.711503
 11
120.6936169358
 21
222.520503
  0
LINE
  5
2F3
100
AcDbEntity
  8
0
100
AcDbLine
 62
7
  6
CONTINUOUS
 10
118.5002979782
 20
224.616003
 11
118.781102692
 21
222.520503
  0
LINE
  5
2F4
100
AcDbEntity
  8
0
100
AcDbLine
 62
7
  6
CONTINUOUS
 10
119.55765
 20
205.756503
 11
111.44235
 21
205.756503
  0
LINE
  5
2F5
100
AcDbEntity
  8
0
100
AcDbLine
 62
7
  6
CONTINUOUS
 10
112.218897308
 20
222.520503
 11
114.0480707175
 21
218.710503
  0
LINE
  5
2F6
100
AcDbEntity
  8
0
100
AcDbLine
 62
7
  6
CONTINUOUS
 10
112.0626742457
 20
207.661503
 11
113.0569194128
 21
207.661503
  0
LINE
  5
2F7
100
AcDbEntity
  8
0
100
AcDbLine
 62
7
  6
CONTINUOUS
 10
117.9430805872
 20
207.661503
 11
118.9373257543
 21
207.661503
  0
LINE
  5
2F8
100
AcDbEntity
  8
0
100
AcDbLine
 62
7
  6
CONTINUOUS
 10
119.465419431
 20
209.185503
 11
111.534580569
 21
209.185503
  0
LINE
  5
2F9
100
AcDbEntity
  8
0
100
AcDbLine
 62
7
  6
CONTINUOUS
 10
119.465419431
 20
218.710503
 11
111.534580569
 21
218.710503
  0
LINE
  5
2FA
100
AcDbEntity
  8
0
100
AcDbLine
 62
7
  6
CONTINUOUS
 10
112.0778684245
 20
219.8219420623
 11
113.0657402199
 21
219.8219420623
  0
LINE
  5
2FB
100
AcDbEntity
  8
0
100
AcDbLine
 62
7
  6
CONTINUOUS
 10
117.9342597801
 20
219.8219420623
 11
118.9221315755
 21
219.8219420623
  0
LINE
  5
2FC
100
AcDbEntity
  8
0
100
AcDbLine
 62
7
  6
CONTINUOUS
 10
111.0734317458
 20
222.1319420623
 11
112.0432923312
 21
222.1319420623
  0
LINE
  5
2FD
100
AcDbEntity
  8
0
100
AcDbLine
 62
7
  6
CONTINUOUS
 10
118.9567076688
 20
222.1319420623
 11
119.9265682542
 21
222.1319420623
  0
LINE
  5
2FE
100
AcDbEntity
  8
0
100
AcDbLine
 62
7
  6
CONTINUOUS
 10
110.3063830642
 20
222.520503
 11
120.6936169358
 21
222.520503
  0
LINE
  5
2FF
100
AcDbEntity
  8
0
100
AcDbLine
 62
7
  6
CONTINUOUS
 10
118.5002979782
 20
224.616003
 11
112.4997020218
 21
224.616003
  0
LINE
  5
300
100
AcDbEntity
  8
0
100
AcDbLine
 62
7
  6
CONTINUOUS
 10
110.3063830642
 20
226.711503
 11
120.6936169358
 21
226.711503
  0
LINE
  5
301
100
AcDbEntity
  8
0
100
AcDbLine
 62
7
  6
CONTINUOUS
 10
112.452
 20
229.711497
 11
118.548
 21
229.711497
  0
LINE
  5
302
100
AcDbEntity
  8
0
100
AcDbLine
 62
7
  6
CONTINUOUS
 10
223.525203
 20
94.3407
 11
223.525203
 21
100.5891
  0
LINE
  5
303
100
AcDbEntity
  8
0
100
AcDbLine
 62
7
  6
CONTINUOUS
 10
234.117003
 20
100.76055
 11
234.117003
 21
94.16925
  0
LINE
  5
304
100
AcDbEntity
  8
0
100
AcDbLine
 62
7
  6
CONTINUOUS
 10
234.879003
 20
101.52255
 11
234.879003
 21
93.40725
  0
LINE
  5
305
100
AcDbEntity
  8
0
100
AcDbLine
 62
7
  6
CONTINUOUS
 10
236.403003
 20
94.8528955972
 11
236.403003
 21
95.2099888285
  0
LINE
  5
306
100
AcDbEntity
  8
0
100
AcDbLine
 62
7
  6
CONTINUOUS
 10
236.403003
 20
99.7198111715
 11
236.403003
 21
100.0769044028
  0
LINE
  5
307
100
AcDbEntity
  8
0
100
AcDbLine
 62
7
  6
CONTINUOUS
 10
238.689003
 20
98.89365
 11
238.689003
 21
96.03615
  0
LINE
  5
308
100
AcDbEntity
  8
0
100
AcDbLine
 62
7
  6
CONTINUOUS
 10
247.071003
 20
94.8528955972
 11
247.071003
 21
100.0769044028
  0
LINE
  5
309
100
AcDbEntity
  8
0
100
AcDbLine
 62
7
  6
CONTINUOUS
 10
278.503503
 20
92.07375
 11
283.598997
 21
92.07375
  0
LINE
  5
30A
100
AcDbEntity
  8
0
100
AcDbLine
 62
7
  6
CONTINUOUS
 10
234.879003
 20
93.40725
 11
276.408003
 21
93.40725
  0
LINE
  5
30B
100
AcDbEntity
  8
0
100
AcDbLine
 62
7
  6
CONTINUOUS
 10
234.117003
 20
94.3407
 11
223.525203
 21
94.3407
  0
LINE
  5
30C
100
AcDbEntity
  8
0
100
AcDbLine
 62
7
  6
CONTINUOUS
 10
247.071003
 20
94.8528955972
 11
236.403003
 21
94.8528955972
  0
LINE
  5
30D
100
AcDbEntity
  8
0
100
AcDbLine
 62
7
  6
CONTINUOUS
 10
272.598003
 20
95.1311848699
 11
263.073003
 21
95.1311848699
  0
LINE
  5
30E
100
AcDbEntity
  8
0
100
AcDbLine
 62
7
  6
CONTINUOUS
 10
280.599003
 20
95.3692578281
 11
278.503503
 21
95.3692578281
  0
LINE
  5
30F
100
AcDbEntity
  8
0
100
AcDbLine
 62
7
  6
CONTINUOUS
 10
237.1332805249
 20
95.9713282302
 11
245.5390326546
 21
96.3215679023
  0
LINE
  5
310
100
AcDbEntity
  8
0
100
AcDbLine
 62
7
  6
CONTINUOUS
 10
261.549003
 20
97.4649
 11
259.6440063729
 21
97.4649
  0
LINE
  5
311
100
AcDbEntity
  8
0
100
AcDbLine
 62
7
  6
CONTINUOUS
 10
237.1332805249
 20
98.9584717698
 11
245.5390326546
 21
98.6082320977
  0
LINE
  5
312
100
AcDbEntity
  8
0
100
AcDbLine
 62
7
  6
CONTINUOUS
 10
247.071003
 20
100.0769044028
 11
236.403003
 21
100.0769044028
  0
LINE
  5
313
100
AcDbEntity
  8
0
100
AcDbLine
 62
7
  6
CONTINUOUS
 10
272.598003
 20
100.166301873
 11
263.073003
 21
100.166301873
  0
LINE
  5
314
100
AcDbEntity
  8
0
100
AcDbLine
 62
7
  6
CONTINUOUS
 10
272.598003
 20
100.45575
 11
263.073003
 21
100.45575
  0
LINE
  5
315
100
AcDbEntity
  8
0
100
AcDbLine
 62
7
  6
CONTINUOUS
 10
234.117003
 20
100.5891
 11
223.525203
 21
100.5891
  0
LINE
  5
316
100
AcDbEntity
  8
0
100
AcDbLine
 62
7
  6
CONTINUOUS
 10
259.644003
 20
101.52255
 11
234.879003
 21
101.52255
  0
LINE
  5
317
100
AcDbEntity
  8
0
100
AcDbLine
 62
7
  6
CONTINUOUS
 10
280.599003
 20
102.383394721
 11
276.408003
 21
102.383394721
  0
LINE
  5
318
100
AcDbEntity
  8
0
100
AcDbLine
 62
7
  6
CONTINUOUS
 10
280.599003
 20
102.55125
 11
276.408003
 21
102.55125
  0
LINE
  5
319
100
AcDbEntity
  8
0
100
AcDbLine
 62
7
  6
CONTINUOUS
 10
259.644003
 20
93.9508720203
 11
259.644003
 21
101.52255
  0
LINE
  5
31A
100
AcDbEntity
  8
0
100
AcDbLine
 62
7
  6
CONTINUOUS
 10
276.0194420623
 20
98.8282380685
 11
273.7094420623
 21
97.5577380685
  0
LINE
  5
31B
100
AcDbEntity
  8
0
100
AcDbLine
 62
7
  6
CONTINUOUS
 10
276.408003
 20
96.9377552187
 11
272.598003
 21
95.1311848699
  0
LINE
  5
31C
100
AcDbEntity
  8
0
100
AcDbLine
 62
7
  6
CONTINUOUS
 10
276.408003
 20
93.40725
 11
278.503503
 21
92.07375
  0
LINE
  5
31D
100
AcDbEntity
  8
0
100
AcDbLine
 62
7
  6
CONTINUOUS
 10
263.073003
 20
93.40725
 11
263.073003
 21
100.45575
  0
LINE
  5
31E
100
AcDbEntity
  8
0
100
AcDbLine
 62
7
  6
CONTINUOUS
 10
278.503503
 20
95.3692578281
 11
276.408003
 21
96.9377552187
  0
LINE
  5
31F
100
AcDbEntity
  8
0
100
AcDbLine
 62
7
  6
CONTINUOUS
 10
272.598003
 20
93.40725
 11
272.598003
 21
100.45575
  0
LINE
  5
320
100
AcDbEntity
  8
0
100
AcDbLine
 62
7
  6
CONTINUOUS
 10
276.4080018247
 20
93.4072507479
 11
276.408003
 21
102.55125
  0
LINE
  5
321
100
AcDbEntity
  8
0
100
AcDbLine
 62
7
  6
CONTINUOUS
 10
278.503503
 20
92.07375
 11
278.503503
 21
95.3692578281
  0
LINE
  5
322
100
AcDbEntity
  8
0
100
AcDbLine
 62
7
  6
CONTINUOUS
 10
280.599003
 20
92.07375
 11
280.599003
 21
102.55125
  0
LINE
  5
323
100
AcDbEntity
  8
0
100
AcDbLine
 62
7
  6
CONTINUOUS
 10
283.598997
 20
93.02625
 11
283.598997
 21
92.07375
  0
ARC
  5
324
100
AcDbEntity
  8
0
100
AcDbCircle
 62
7
  6
CONTINUOUS
 10
-603.9322666068
 20
625.0023858824
 40
984.4308751623
100
AcDbArc
 50
336.7790755498
 51
336.8958244888
  0
ARC
  5
325
100
AcDbEntity
  8
0
100
AcDbCircle
 62
7
  6
CONTINUOUS
 10
1119.1311816519
 20
481.4216551634
 40
858.9632496739
100
AcDbArc
 50
196.4134267314
 51
196.5942550186
  0
ARC
  5
326
100
AcDbEntity
  8
0
100
AcDbCircle
 62
7
  6
CONTINUOUS
 10
306.819205205
 20
223.7051559405
 40
8.6826948571
100
AcDbArc
 50
162.8310255387
 51
163.504863958
  0
ARC
  5
327
100
AcDbEntity
  8
0
100
AcDbCircle
 62
7
  6
CONTINUOUS
 10
281.8135143905
 20
209.8326811963
 40
6.056807732
100
AcDbArc
 50
32.0476561256
 51
34.2258602175
  0
ARC
  5
328
100
AcDbEntity
  8
0
100
AcDbCircle
 62
7
  6
CONTINUOUS
 10
288.344388993
 20
203.401303099
 40
5.8240285381
100
AcDbArc
 50
55.9924597098
 51
60.1207506876
  0
ARC
  5
329
100
AcDbEntity
  8
0
100
AcDbCircle
 62
7
  6
CONTINUOUS
 10
281.6995955321
 20
211.6153879771
 40
5.3742609246
100
AcDbArc
 50
14.1343452125
 51
18.0157326741
  0
ARC
  5
32A
100
AcDbEntity
  8
0
100
AcDbCircle
 62
7
  6
CONTINUOUS
 10
282.367078604
 20
209.2946393489
 40
3.2106221042
100
AcDbArc
 50
341.4036413472
 51
342.477848478
  0
ARC
  5
32B
100
AcDbEntity
  8
0
100
AcDbCircle
 62
7
  6
CONTINUOUS
 10
286.065225634
 20
196.7400103495
 40
3.124200018
100
AcDbArc
 50
162.8276465141
 51
342.8276372949
  0
ARC
  5
32C
100
AcDbEntity
  8
0
100
AcDbCircle
 62
7
  6
CONTINUOUS
 10
301.5211113033
 20
237.4667917922
 40
1.435070918
100
AcDbArc
 50
329.0304169747
 51
340.5852389534
  0
ARC
  5
32D
100
AcDbEntity
  8
0
100
AcDbCircle
 62
7
  6
CONTINUOUS
 10
115.5
 20
97.6930192545
 40
4.2857692545
100
AcDbArc
 50
270.4303663998
 51
338.2921324405
  0
ARC
  5
32E
100
AcDbEntity
  8
0
100
AcDbCircle
 62
7
  6
CONTINUOUS
 10
115.5
 20
97.6930192545
 40
4.2857692545
100
AcDbArc
 50
201.707868744
 51
269.5696309623
  0
CIRCLE
  5
32F
100
AcDbEntity
  8
0
100
AcDbCircle
 62
7
  6
CONTINUOUS
 10
115.5
 20
97.4649
 40
4.05765
  0
ARC
  5
330
100
AcDbEntity
  8
0
100
AcDbCircle
 62
7
  6
CONTINUOUS
 10
115.5
 20
96.07425
 40
4.0005
100
AcDbArc
 50
190.1500124809
 51
349.8499875191
  0
CIRCLE
  5
331
100
AcDbEntity
  8
0
100
AcDbCircle
 62
7
  6
CONTINUOUS
 10
115.5
 20
97.4649
 40
3.29565
  0
CIRCLE
  5
332
100
AcDbEntity
  8
0
100
AcDbCircle
 62
7
  6
CONTINUOUS
 10
115.5
 20
97.4649
 40
3.1242
  0
ARC
  5
333
100
AcDbEntity
  8
0
100
AcDbCircle
 62
7
  6
CONTINUOUS
 10
771.1370824923
 20
512.477528362
 40
720.2119019515
100
AcDbArc
 50
203.774566752
 51
203.975533376
  0
ARC
  5
334
100
AcDbEntity
  8
0
100
AcDbCircle
 62
7
  6
CONTINUOUS
 10
-522.7730339809
 20
504.7918856176
 40
701.2230066166
100
AcDbArc
 50
336.0217455651
 51
336.228154307
  0
ARC
  5
335
100
AcDbEntity
  8
0
100
AcDbCircle
 62
7
  6
CONTINUOUS
 10
101.8568543127
 20
184.5764675047
 40
10.8871224107
100
AcDbArc
 50
14.5503671985
 51
40.531031962
  0
ARC
  5
336
100
AcDbEntity
  8
0
100
AcDbCircle
 62
7
  6
CONTINUOUS
 10
129.1431456836
 20
184.5764675055
 40
10.8871224107
100
AcDbArc
 50
139.4689680282
 51
165.4496328003
  0
ARC
  5
337
100
AcDbEntity
  8
0
100
AcDbCircle
 62
7
  6
CONTINUOUS
 10
101.91735
 20
184.801503
 40
9.525
100
AcDbArc
 50
0.0
 51
39.8253712608
  0
ARC
  5
338
100
AcDbEntity
  8
0
100
AcDbCircle
 62
7
  6
CONTINUOUS
 10
129.08265
 20
184.801503
 40
9.525
100
AcDbArc
 50
140.1746287392
 51
180.0
  0
ARC
  5
339
100
AcDbEntity
  8
0
100
AcDbCircle
 62
7
  6
CONTINUOUS
 10
115.5
 20
169.637703
 40
3.1242
100
AcDbArc
 50
180.0
 51
360.0
  0
ARC
  5
33A
100
AcDbEntity
  8
0
100
AcDbCircle
 62
7
  6
CONTINUOUS
 10
118.79565
 20
180.991503
 40
0.762
100
AcDbArc
 50
270.0
 51
360.0
  0
ARC
  5
33B
100
AcDbEntity
  8
0
100
AcDbCircle
 62
7
  6
CONTINUOUS
 10
112.20435
 20
180.991503
 40
0.762
100
AcDbArc
 50
180.0
 51
270.0
  0
ARC
  5
33C
100
AcDbEntity
  8
0
100
AcDbCircle
 62
7
  6
CONTINUOUS
 10
223.525203
 20
97.4649
 40
3.1242
100
AcDbArc
 50
90.0
 51
270.0
  0
ARC
  5
33D
100
AcDbEntity
  8
0
100
AcDbCircle
 62
7
  6
CONTINUOUS
 10
261.549003
 20
98.9889
 40
1.524
100
AcDbArc
 50
270.0
 51
360.0
  0
ARC
  5
33E
100
AcDbEntity
  8
0
100
AcDbCircle
 62
7
  6
CONTINUOUS
 10
234.879003
 20
94.16925
 40
0.762
100
AcDbArc
 50
180.0
 51
270.0
  0
ARC
  5
33F
100
AcDbEntity
  8
0
100
AcDbCircle
 62
7
  6
CONTINUOUS
 10
234.879003
 20
100.76055
 40
0.762
100
AcDbArc
 50
90.0
 51
180.0
  0
ARC
  5
340
100
AcDbEntity
  8
0
100
AcDbCircle
 62
7
  6
CONTINUOUS
 10
237.165003
 20
99.7198111715
 40
0.762
100
AcDbArc
 50
180.0
 51
267.6140559696
  0
ARC
  5
341
100
AcDbEntity
  8
0
100
AcDbCircle
 62
7
  6
CONTINUOUS
 10
237.165003
 20
95.2099888285
 40
0.762
100
AcDbArc
 50
92.3859440304
 51
180.0
  0
ARC
  5
342
100
AcDbEntity
  8
0
100
AcDbCircle
 62
7
  6
CONTINUOUS
 10
273.348003
 20
98.2149
 40
0.75
100
AcDbArc
 50
180.0
 51
298.810793743
  0
ARC
  5
343
100
AcDbEntity
  8
0
100
AcDbCircle
 62
7
  6
CONTINUOUS
 10
275.658003
 20
99.4854
 40
0.75
100
AcDbArc
 50
298.810793743
 51
360.0
  0
SPLINE
  5
344
100
AcDbEntity
  8
0
100
AcDbSpline
 62
7
  6
CONTINUOUS
 70
0
 71
3
 72
15
 73
11
 74
0
 42
0.0000001
 43
0.0000001
 44
0.0000000001
 40
0.0
 40
0.0
 40
0.0
 40
0.0
 40
0.1309203532
 40
0.2592035417
 40
0.3853284487
 40
0.5098097978
 40
0.6331422693
 40
0.7557505197
 40
0.8779632376
 40
1.0
 40
1.0
 40
1.0
 40
1.0
 10
291.2926242351
 20
203.0701744015
 30
0.0
 10
291.3751850673
 20
203.1015062484
 30
0.0
 10
291.5361743037
 20
203.1703565042
 30
0.0
 10
291.765161893
 20
203.2940973166
 30
0.0
 10
291.9772180664
 20
203.4375519699
 30
0.0
 10
292.1701234753
 20
203.6008587539
 30
0.0
 10
292.3412804595
 20
203.7836928458
 30
0.0
 10
292.487800353
 20
203.9850115197
 30
0.0
 10
292.6067507874
 20
204.2027657489
 30
0.0
 10
292.6660562094
 20
204.3570935279
 30
0.0
 10
292.6903592224
 20
204.4357381797
 30
0.0
  0
SPLINE
  5
345
100
AcDbEntity
  8
0
100
AcDbSpline
 62
7
  6
CONTINUOUS
 70
0
 71
3
 72
15
 73
11
 74
0
 42
0.0000001
 43
0.0000001
 44
0.0000000001
 40
0.0
 40
0.0
 40
0.0
 40
0.0
 40
0.1220377534
 40
0.2442526735
 40
0.3668626825
 40
0.4901961118
 40
0.6146777134
 40
0.7408023199
 40
0.8690832246
 40
1.0
 40
1.0
 40
1.0
 40
1.0
 10
284.936832066
 20
206.8317570652
 30
0.0
 10
284.912535258
 20
206.7531324925
 30
0.0
 10
284.8744412183
 20
206.5922932656
 30
0.0
 10
284.8497967374
 20
206.3454576637
 30
0.0
 10
284.857172065
 20
206.0966369364
 30
0.0
 10
284.8953042711
 20
205.8491762248
 30
0.0
 10
284.9623970437
 20
205.6055643933
 30
0.0
 10
285.0564907348
 20
205.3675349088
 30
0.0
 10
285.1756760766
 20
205.1362254473
 30
0.0
 10
285.2697039315
 20
204.9885802752
 30
0.0
 10
285.320167476
 20
204.916144977
 30
0.0
  0
SPLINE
  5
346
100
AcDbEntity
  8
0
100
AcDbSpline
 62
7
  6
CONTINUOUS
 70
0
 71
3
 72
11
 73
7
 74
0
 42
0.0000001
 43
0.0000001
 44
0.0000000001
 40
0.0
 40
0.0
 40
0.0
 40
0.0
 40
0.2694611572
 40
0.5272645116
 40
0.7712766595
 40
1.0
 40
1.0
 40
1.0
 40
1.0
 10
298.7521181924
 20
239.3651450395
 30
0.0
 10
298.6448685481
 20
239.4269942015
 30
0.0
 10
298.4397460247
 20
239.5565144603
 30
0.0
 10
298.1575375477
 20
239.7716589768
 30
0.0
 10
297.9112189573
 20
240.0004783886
 30
0.0
 10
297.7688300708
 20
240.1652952842
 30
0.0
 10
297.705455647
 20
240.2491238578
 30
0.0
  0
SPLINE
  5
347
100
AcDbEntity
  8
0
100
AcDbSpline
 62
7
  6
CONTINUOUS
 70
0
 71
3
 72
14
 73
10
 74
0
 42
0.0000001
 43
0.0000001
 44
0.0000000001
 40
0.0
 40
0.0
 40
0.0
 40
0.0
 40
0.0906837814
 40
0.1850228602
 40
0.286061198
 40
0.3968700986
 40
0.6601956433
 40
0.8189729247
 40
1.0
 40
1.0
 40
1.0
 40
1.0
 10
298.955505518
 20
240.217378888
 30
0.0
 10
298.9597435711
 20
240.2425755956
 30
0.0
 10
298.9684393023
 20
240.2939767077
 30
0.0
 10
298.982683008
 20
240.3733097737
 30
0.0
 10
298.9993216986
 20
240.4579648723
 30
0.0
 10
299.0277797904
 20
240.5887970432
 30
0.0
 10
299.0647011405
 20
240.7343906392
 30
0.0
 10
299.1109461084
 20
240.8979163842
 30
0.0
 10
299.1385746813
 20
240.989591083
 30
0.0
 10
299.1536338624
 20
241.0383226563
 30
0.0
  0
SPLINE
  5
348
100
AcDbEntity
  8
0
100
AcDbSpline
 62
7
  6
CONTINUOUS
 70
0
 71
3
 72
16
 73
12
 74
0
 42
0.0000001
 43
0.0000001
 44
0.0000000001
 40
0.0
 40
0.0
 40
0.0
 40
0.0
 40
0.0918534195
 40
0.1363975373
 40
0.1814285954
 40
0.2768489319
 40
0.3851151287
 40
0.5102308143
 40
0.6541248339
 40
0.8174336153
 40
1.0
 40
1.0
 40
1.0
 40
1.0
 10
300.8737573643
 20
235.4837591067
 30
0.0
 10
300.8676648573
 20
235.4837579514
 30
0.0
 10
300.8585107366
 20
235.4850467159
 30
0.0
 10
300.8473604901
 20
235.4896920404
 30
0.0
 10
300.8369104967
 20
235.4962246084
 30
0.0
 10
300.8252347166
 20
235.5082234988
 30
0.0
 10
300.8142511166
 20
235.5272377884
 30
0.0
 10
300.8057307529
 20
235.5508679422
 30
0.0
 10
300.7995640513
 20
235.5789312977
 30
0.0
 10
300.7956735729
 20
235.6112202581
 30
0.0
 10
300.7946206628
 20
235.6341564304
 30
0.0
 10
300.7944014656
 20
235.6462638159
 30
0.0
  0
SPLINE
  5
349
100
AcDbEntity
  8
0
100
AcDbSpline
 62
7
  6
CONTINUOUS
 70
0
 71
3
 72
13
 73
9
 74
0
 42
0.0000001
 43
0.0000001
 44
0.0000000001
 40
0.0
 40
0.0
 40
0.0
 40
0.0
 40
0.1965432131
 40
0.3078694888
 40
0.4284661062
 40
0.5583531404
 40
0.697258237
 40
1.0
 40
1.0
 40
1.0
 40
1.0
 10
295.8391413373
 20
235.4837591671
 30
0.0
 10
295.8173225552
 20
235.4837569679
 30
0.0
 10
295.783079222
 20
235.4903965148
 30
0.0
 10
295.7388174681
 20
235.5078390762
 30
0.0
 10
295.703151684
 20
235.5264984856
 30
0.0
 10
295.6667840629
 20
235.5499482036
 30
0.0
 10
295.6162494343
 20
235.5883928955
 30
0.0
 10
295.5803858212
 20
235.6220598867
 30
0.0
 10
295.5570689065
 20
235.6462638159
 30
0.0
  0
SPLINE
  5
34A
100
AcDbEntity
  8
0
100
AcDbSpline
 62
7
  6
CONTINUOUS
 70
0
 71
3
 72
13
 73
9
 74
0
 42
0.0000001
 43
0.0000001
 44
0.0000000001
 40
0.0
 40
0.0
 40
0.0
 40
0.0
 40
0.2215073117
 40
0.3396412473
 40
0.4627528429
 40
0.590692419
 40
0.7231606311
 40
1.0
 40
1.0
 40
1.0
 40
1.0
 10
292.0371395272
 20
208.0641081304
 30
0.0
 10
292.002300349
 20
208.0641052385
 30
0.0
 10
291.9487716442
 20
208.0707667151
 30
0.0
 10
291.8783917597
 20
208.0894197437
 30
0.0
 10
291.8235678781
 20
208.1087536865
 30
0.0
 10
291.7681816931
 20
208.1327507125
 30
0.0
 10
291.6928089958
 20
208.171035428
 30
0.0
 10
291.6378671457
 20
208.2048489419
 30
0.0
 10
291.6017798162
 20
208.2292129404
 30
0.0
  0
SPLINE
  5
34B
100
AcDbEntity
  8
0
100
AcDbSpline
 62
7
  6
CONTINUOUS
 70
0
 71
3
 72
11
 73
7
 74
0
 42
0.0000001
 43
0.0000001
 44
0.0000000001
 40
0.0
 40
0.0
 40
0.0
 40
0.0
 40
0.2440529793
 40
0.4905797932
 40
0.7418903189
 40
1.0
 40
1.0
 40
1.0
 40
1.0
 10
285.5705825647
 20
213.1702903882
 30
0.0
 10
285.5204044069
 20
213.2450131291
 30
0.0
 10
285.4299860956
 20
213.4025315274
 30
0.0
 10
285.3277160683
 20
213.6572022857
 30
0.0
 10
285.2593666695
 20
213.9283035468
 30
0.0
 10
285.2371432416
 20
214.1154355076
 30
0.0
 10
285.2315660985
 20
214.2104635587
 30
0.0
  0
SPLINE
  5
34C
100
AcDbEntity
  8
0
100
AcDbSpline
 62
7
  6
CONTINUOUS
 70
0
 71
3
 72
14
 73
10
 74
0
 42
0.0000001
 43
0.0000001
 44
0.0000000001
 40
0.0
 40
0.0
 40
0.0
 40
0.0
 40
0.28025186
 40
0.4091148473
 40
0.5321589608
 40
0.6509859482
 40
0.7673082426
 40
0.8830722091
 40
1.0
 40
1.0
 40
1.0
 40
1.0
 10
286.0996009545
 20
211.1523337787
 30
0.0
 10
286.1075686526
 20
211.3503497453
 30
0.0
 10
286.0993943484
 20
211.640995061
 30
0.0
 10
286.0441371254
 20
212.0135172273
 30
0.0
 10
285.9852905885
 20
212.2692888171
 30
0.0
 10
285.9087584554
 20
212.5110247909
 30
0.0
 10
285.8148209156
 20
212.7410024133
 30
0.0
 10
285.7029750829
 20
212.9612982347
 30
0.0
 10
285.6166779779
 20
213.1016475911
 30
0.0
 10
285.5705825647
 20
213.1702903882
 30
0.0
  0
SPLINE
  5
34D
100
AcDbEntity
  8
0
100
AcDbSpline
 62
7
  6
CONTINUOUS
 70
0
 71
3
 72
11
 73
7
 74
0
 42
0.0000001
 43
0.0000001
 44
0.0000000001
 40
0.0
 40
0.0
 40
0.0
 40
0.0
 40
0.2730540717
 40
0.5322298133
 40
0.7750599272
 40
1.0
 40
1.0
 40
1.0
 40
1.0
 10
298.3923455449
 20
227.0588199904
 30
0.0
 10
298.3930924397
 20
227.010051664
 30
0.0
 10
298.3960400586
 20
226.915007235
 30
0.0
 10
298.4051597727
 20
226.7768349357
 30
0.0
 10
298.4183159939
 20
226.6476268536
 30
0.0
 10
298.429533789
 20
226.564813505
 30
0.0
 10
298.4354857287
 20
226.525077065
 30
0.0
  0
SPLINE
  5
34E
100
AcDbEntity
  8
0
100
AcDbSpline
 62
7
  6
CONTINUOUS
 70
0
 71
3
 72
15
 73
11
 74
0
 42
0.0000001
 43
0.0000001
 44
0.0000000001
 40
0.0
 40
0.0
 40
0.0
 40
0.0
 40
0.1429924473
 40
0.2842731964
 40
0.4220943749
 40
0.5547033822
 40
0.6803640767
 40
0.797407603
 40
0.904335719
 40
1.0
 40
1.0
 40
1.0
 40
1.0
 10
301.5402656205
 20
238.7076262045
 30
0.0
 10
301.5539839953
 20
238.7397803012
 30
0.0
 10
301.5796579452
 20
238.8044003574
 30
0.0
 10
301.6127551086
 20
238.9021899002
 30
0.0
 10
301.6397448884
 20
238.9992149488
 30
0.0
 10
301.6600627502
 20
239.093960747
 30
0.0
 10
301.6732274929
 20
239.1848453155
 30
0.0
 10
301.6788635055
 20
239.270243393
 30
0.0
 10
301.6767381658
 20
239.3484777956
 30
0.0
 10
301.6696789555
 20
239.3976798228
 30
0.0
 10
301.6645351669
 20
239.4204948039
 30
0.0
  0
SPLINE
  5
34F
100
AcDbEntity
  8
0
100
AcDbSpline
 62
7
  6
CONTINUOUS
 70
0
 71
3
 72
15
 73
11
 74
0
 42
0.0000001
 43
0.0000001
 44
0.0000000001
 40
0.0
 40
0.0
 40
0.0
 40
0.0
 40
0.1291412888
 40
0.2608894872
 40
0.3934622112
 40
0.5249770831
 40
0.6534534178
 40
0.7768303581
 40
0.8930188614
 40
1.0
 40
1.0
 40
1.0
 40
1.0
 10
294.2792869207
 20
238.7076262045
 30
0.0
 10
294.2698080254
 20
238.7403470835
 30
0.0
 10
294.2492494393
 20
238.806048024
 30
0.0
 10
294.214427039
 20
238.90384831
 30
0.0
 10
294.1757373793
 20
239.0008600703
 30
0.0
 10
294.1337774794
 20
239.0955603124
 30
0.0
 10
294.0891872152
 20
239.1863588167
 30
0.0
 10
294.0426562858
 20
239.271607866
 30
0.0
 10
293.9949320693
 20
239.3496223373
 30
0.0
 10
293.9612690993
 20
239.3979833545
 30
0.0
 10
293.9442504377
 20
239.4204948039
 30
0.0
  0
SPLINE
  5
350
100
AcDbEntity
  8
0
100
AcDbSpline
 62
7
  6
CONTINUOUS
 70
0
 71
3
 72
8
 73
4
 74
0
 42
0.0000001
 43
0.0000001
 44
0.0000000001
 40
0.0
 40
0.0
 40
0.0
 40
0.0
 40
1.0
 40
1.0
 40
1.0
 40
1.0
 10
294.9987494915
 20
236.2258126775
 30
0.0
 10
294.7587658461
 20
237.0530366444
 30
0.0
 10
294.518951794
 20
237.880309826
 30
0.0
 10
294.2792869207
 20
238.7076262045
 30
0.0
  0
SPLINE
  5
351
100
AcDbEntity
  8
0
100
AcDbSpline
 62
7
  6
CONTINUOUS
 70
0
 71
3
 72
14
 73
10
 74
0
 42
0.0000001
 43
0.0000001
 44
0.0000000001
 40
0.0
 40
0.0
 40
0.0
 40
0.0
 40
0.2804896454
 40
0.4213834628
 40
0.5573236554
 40
0.6852703857
 40
0.8029007328
 40
0.9083461741
 40
1.0
 40
1.0
 40
1.0
 40
1.0
 10
297.4753133964
 20
227.0497313081
 30
0.0
 10
297.4720000029
 20
227.2010953234
 30
0.0
 10
297.4779320773
 20
227.4287579237
 30
0.0
 10
297.4983800599
 20
227.7288769345
 30
0.0
 10
297.5168168482
 20
227.9465967776
 30
0.0
 10
297.5349226511
 20
228.1517282631
 30
0.0
 10
297.5496398537
 20
228.3406387183
 30
0.0
 10
297.5586388855
 20
228.5103041165
 30
0.0
 10
297.5600482548
 20
228.6167367727
 30
0.0
 10
297.5591527375
 20
228.6662007769
 30
0.0
  0
SPLINE
  5
352
100
AcDbEntity
  8
0
100
AcDbSpline
 62
7
  6
CONTINUOUS
 70
0
 71
3
 72
11
 73
7
 74
0
 42
0.0000001
 43
0.0000001
 44
0.0000000001
 40
0.0
 40
0.0
 40
0.0
 40
0.0
 40
0.2468249184
 40
0.4949394935
 40
0.7456000861
 40
1.0
 40
1.0
 40
1.0
 40
1.0
 10
287.8881038039
 20
216.3820844467
 30
0.0
 10
287.876521937
 20
216.3446057727
 30
0.0
 10
287.8566177549
 20
216.2683809574
 30
0.0
 10
287.8368678866
 20
216.1513937784
 30
0.0
 10
287.8272327009
 20
216.0319386
 30
0.0
 10
287.8275651576
 20
215.9515624101
 30
0.0
 10
287.8293684695
 20
215.9111713436
 30
0.0
  0
SPLINE
  5
353
100
AcDbEntity
  8
0
100
AcDbSpline
 62
7
  6
CONTINUOUS
 70
0
 71
3
 72
22
 73
18
 74
0
 42
0.0000001
 43
0.0000001
 44
0.0000000001
 40
0.0
 40
0.0
 40
0.0
 40
0.0
 40
0.1557460906
 40
0.2305337511
 40
0.303056654
 40
0.3732061828
 40
0.4409072834
 40
0.5061232512
 40
0.5688605554
 40
0.6291739673
 40
0.6871715812
 40
0.7430192656
 40
0.7969437457
 40
0.8492332541
 40
0.9002345199
 40
0.9503450164
 40
1.0
 40
1.0
 40
1.0
 40
1.0
 10
293.5706105491
 20
227.5551145797
 30
0.0
 10
293.4071278957
 20
227.5551145797
 30
0.0
 10
293.1648874543
 20
227.544442555
 30
0.0
 10
292.848957913
 20
227.5063510577
 30
0.0
 10
292.6239893255
 20
227.467007371
 30
0.0
 10
292.4088481426
 20
227.4166842928
 30
0.0
 10
292.2044878644
 20
227.3555983766
 30
0.0
 10
292.0118262144
 20
227.2840145004
 30
0.0
 10
291.831726356
 20
227.2022400518
 30
0.0
 10
291.6649987735
 20
227.1106241261
 30
0.0
 10
291.5123990306
 20
227.0095557872
 30
0.0
 10
291.3746276835
 20
226.8994641074
 30
0.0
 10
291.2523296149
 20
226.7808185908
 30
0.0
 10
291.1460936573
 20
226.6541360829
 30
0.0
 10
291.0564443354
 20
226.5199732661
 30
0.0
 10
290.9838469757
 20
226.3789750857
 30
0.0
 10
290.9469893312
 20
226.2806502471
 30
0.0
 10
290.9316005123
 20
226.2308522474
 30
0.0
  0
SPLINE
  5
354
100
AcDbEntity
  8
0
100
AcDbSpline
 62
7
  6
CONTINUOUS
 70
0
 71
3
 72
23
 73
19
 74
0
 42
0.0000001
 43
0.0000001
 44
0.0000000001
 40
0.0
 40
0.0
 40
0.0
 40
0.0
 40
0.0487432855
 40
0.1003336587
 40
0.1547797104
 40
0.2119862113
 40
0.2717724072
 40
0.3338866642
 40
0.3980198345
 40
0.4638167363
 40
0.5308867597
 40
0.5988133666
 40
0.667163205
 40
0.7354947417
 40
0.8033667995
 40
0.8703470692
 40
0.9360205038
 40
1.0
 40
1.0
 40
1.0
 40
1.0
 10
298.5457063189
 20
225.0328392476
 30
0.0
 10
298.5040339745
 20
225.1177586059
 30
0.0
 10
298.4076719268
 20
225.2875016549
 30
0.0
 10
298.232755896
 20
225.5322418715
 30
0.0
 10
298.0251081547
 20
225.7720523659
 30
0.0
 10
297.7867428198
 20
226.0046598763
 30
0.0
 10
297.5199226592
 20
226.2279023603
 30
0.0
 10
297.227190081
 20
226.4396724353
 30
0.0
 10
296.9113322025
 20
226.637962894
 30
0.0
 10
296.5753626962
 20
226.8208877845
 30
0.0
 10
296.2224894952
 20
226.9867007595
 30
0.0
 10
295.8560864258
 20
227.1338184706
 30
0.0
 10
295.4796580212
 20
227.260832443
 30
0.0
 10
295.0968061823
 20
227.3665285695
 30
0.0
 10
294.7111956471
 20
227.4498941975
 30
0.0
 10
294.3265094771
 20
227.5101330484
 30
0.0
 10
293.9464459045
 20
227.5466679173
 30
0.0
 10
293.6947718156
 20
227.5551145797
 30
0.0
 10
293.5706105491
 20
227.5551145797
 30
0.0
  0
SPLINE
  5
355
100
AcDbEntity
  8
0
100
AcDbSpline
 62
7
  6
CONTINUOUS
 70
0
 71
3
 72
12
 73
8
 74
0
 42
0.0000001
 43
0.0000001
 44
0.0000000001
 40
0.0
 40
0.0
 40
0.0
 40
0.0
 40
0.1156765294
 40
0.2385026666
 40
0.4979465704
 40
0.7592560052
 40
1.0
 40
1.0
 40
1.0
 40
1.0
 10
293.0773677449
 20
205.6881000531
 30
0.0
 10
293.0866001945
 20
205.7179949498
 30
0.0
 10
293.104798068
 20
205.7798919228
 30
0.0
 10
293.1403686081
 20
205.9097985997
 30
0.0
 10
293.1833774223
 20
206.0784828351
 30
0.0
 10
293.2344980702
 20
206.2780038935
 30
0.0
 10
293.2709930179
 20
206.408832857
 30
0.0
 10
293.2898298214
 20
206.4711649644
 30
0.0
  0
SPLINE
  5
356
100
AcDbEntity
  8
0
100
AcDbSpline
 62
7
  6
CONTINUOUS
 70
0
 71
3
 72
11
 73
7
 74
0
 42
0.0000001
 43
0.0000001
 44
0.0000000001
 40
0.0
 40
0.0
 40
0.0
 40
0.0
 40
0.2462724294
 40
0.4941079473
 40
0.7449651601
 40
1.0
 40
1.0
 40
1.0
 40
1.0
 10
298.6851224488
 20
223.8348171161
 30
0.0
 10
298.6975621895
 20
223.8750721064
 30
0.0
 10
298.718683858
 20
223.9570798906
 30
0.0
 10
298.7386861253
 20
224.0831342172
 30
0.0
 10
298.7470221022
 20
224.2119908571
 30
0.0
 10
298.7447835886
 20
224.2986453291
 30
0.0
 10
298.7417782345
 20
224.3421740685
 30
0.0
  0
SPLINE
  5
357
100
AcDbEntity
  8
0
100
AcDbSpline
 62
7
  6
CONTINUOUS
 70
0
 71
3
 72
12
 73
8
 74
0
 42
0.0000001
 43
0.0000001
 44
0.0000000001
 40
0.0
 40
0.0
 40
0.0
 40
0.0
 40
0.3323091177
 40
0.6133249749
 40
0.8376555233
 40
0.9268941483
 40
1.0
 40
1.0
 40
1.0
 40
1.0
 10
285.3875453252
 20
208.2292129404
 30
0.0
 10
285.3796556306
 20
208.2134246294
 30
0.0
 10
285.3653707425
 20
208.1841442058
 30
0.0
 10
285.3468906901
 20
208.1436688752
 30
0.0
 10
285.3347026444
 20
208.114523943
 30
0.0
 10
285.3275170014
 20
208.0952824384
 30
0.0
 10
285.3247620837
 20
208.0871088249
 30
0.0
 10
285.3236182959
 20
208.0833982543
 30
0.0
  0
SPLINE
  5
358
100
AcDbEntity
  8
0
100
AcDbSpline
 62
7
  6
CONTINUOUS
 70
0
 71
3
 72
9
 73
5
 74
0
 42
0.0000001
 43
0.0000001
 44
0.0000000001
 40
0.0
 40
0.0
 40
0.0
 40
0.0
 40
0.503965961
 40
1.0
 40
1.0
 40
1.0
 40
1.0
 10
285.5257014249
 20
208.4511856213
 30
0.0
 10
285.4991931716
 20
208.4161071411
 30
0.0
 10
285.449625832
 20
208.344150405
 30
0.0
 10
285.4068901957
 20
208.2679245569
 30
0.0
 10
285.3875453252
 20
208.2292129404
 30
0.0
  0
SPLINE
  5
359
100
AcDbEntity
  8
0
100
AcDbSpline
 62
7
  6
CONTINUOUS
 70
0
 71
3
 72
15
 73
11
 74
0
 42
0.0000001
 43
0.0000001
 44
0.0000000001
 40
0.0
 40
0.0
 40
0.0
 40
0.0
 40
0.1323846316
 40
0.2644332313
 40
0.3952301852
 40
0.5238695825
 40
0.6494713921
 40
0.77119191
 40
0.888251604
 40
1.0
 40
1.0
 40
1.0
 40
1.0
 10
292.3965934655
 20
227.4100727994
 30
0.0
 10
292.3957055806
 20
227.4715381354
 30
0.0
 10
292.3865620771
 20
227.5943101082
 30
0.0
 10
292.3528247504
 20
227.7750288501
 30
0.0
 10
292.3015826837
 20
227.9497394187
 30
0.0
 10
292.2355331786
 20
228.1161349415
 30
0.0
 10
292.1572684803
 20
228.2724137666
 30
0.0
 10
292.0691059542
 20
228.4170569354
 30
0.0
 10
291.9730335148
 20
228.5486687814
 30
0.0
 10
291.9030369826
 20
228.628831011
 30
0.0
 10
291.8670367266
 20
228.6662007769
 30
0.0
  0
SPLINE
  5
35A
100
AcDbEntity
  8
0
100
AcDbSpline
 62
7
  6
CONTINUOUS
 70
0
 71
3
 72
9
 73
5
 74
0
 42
0.0000001
 43
0.0000001
 44
0.0000000001
 40
0.0
 40
0.0
 40
0.0
 40
0.0
 40
0.5000357186
 40
1.0
 40
1.0
 40
1.0
 40
1.0
 10
298.4354857287
 20
226.525077065
 30
0.0
 10
298.4476972993
 20
226.4435499733
 30
0.0
 10
298.475310313
 20
226.2810054203
 30
0.0
 10
298.5029866955
 20
226.1184768506
 30
0.0
 10
298.5154191459
 20
226.0369950631
 30
0.0
  0
SPLINE
  5
35B
100
AcDbEntity
  8
0
100
AcDbSpline
 62
7
  6
CONTINUOUS
 70
0
 71
3
 72
11
 73
7
 74
0
 42
0.0000001
 43
0.0000001
 44
0.0000000001
 40
0.0
 40
0.0
 40
0.0
 40
0.0
 40
0.2586567368
 40
0.5100166779
 40
0.7563103197
 40
1.0
 40
1.0
 40
1.0
 40
1.0
 10
303.2662202774
 20
237.183196649
 30
0.0
 10
303.3076850467
 20
237.2250402218
 30
0.0
 10
303.3851268304
 20
237.3119957259
 30
0.0
 10
303.4842160952
 20
237.4533747804
 30
0.0
 10
303.563794551
 20
237.6027559923
 30
0.0
 10
303.6035905956
 20
237.7073898952
 30
0.0
 10
303.6199728737
 20
237.7604167514
 30
0.0
  0
SPLINE
  5
35C
100
AcDbEntity
  8
0
100
AcDbSpline
 62
7
  6
CONTINUOUS
 70
0
 71
3
 72
11
 73
7
 74
0
 42
0.0000001
 43
0.0000001
 44
0.0000000001
 40
0.0
 40
0.0
 40
0.0
 40
0.0
 40
0.2425436063
 40
0.4881800695
 40
0.7398125773
 40
1.0
 40
1.0
 40
1.0
 40
1.0
 10
304.1272262235
 20
239.4018797684
 30
0.0
 10
304.1451585569
 20
239.4599090625
 30
0.0
 10
304.1731336146
 20
239.5793888123
 30
0.0
 10
304.1902471006
 20
239.7644040037
 30
0.0
 10
304.1826046186
 20
239.9544423019
 30
0.0
 10
304.1614844544
 20
240.0812235592
 30
0.0
 10
304.1471544769
 20
240.1447833579
 30
0.0
  0
SPLINE
  5
35D
100
AcDbEntity
  8
0
100
AcDbSpline
 62
7
  6
CONTINUOUS
 70
0
 71
3
 72
15
 73
11
 74
0
 42
0.0000001
 43
0.0000001
 44
0.0000000001
 40
0.0
 40
0.0
 40
0.0
 40
0.0
 40
0.1549490856
 40
0.3026278415
 40
0.4423170248
 40
0.5733477716
 40
0.6951166101
 40
0.807093084
 40
0.9088326533
 40
1.0
 40
1.0
 40
1.0
 40
1.0
 10
296.5331665108
 20
214.2104635587
 30
0.0
 10
296.5768518673
 20
214.1388531624
 30
0.0
 10
296.6609121031
 20
213.9982172209
 30
0.0
 10
296.7796060399
 20
213.7902313963
 30
0.0
 10
296.8874636208
 20
213.5910305554
 30
0.0
 10
296.9839169226
 20
213.4016769563
 30
0.0
 10
297.0684621406
 20
213.223180199
 30
0.0
 10
297.1406653244
 20
213.0564845205
 30
0.0
 10
297.2001590382
 20
212.9024771077
 30
0.0
 10
297.2329912911
 20
212.803270684
 30
0.0
 10
297.2469473069
 20
212.7559303909
 30
0.0
  0
SPLINE
  5
35E
100
AcDbEntity
  8
0
100
AcDbSpline
 62
7
  6
CONTINUOUS
 70
0
 71
3
 72
14
 73
10
 74
0
 42
0.0000001
 43
0.0000001
 44
0.0000000001
 40
0.0
 40
0.0
 40
0.0
 40
0.0
 40
0.2638314085
 40
0.3930167467
 40
0.5198935626
 40
0.644197112
 40
0.765724467
 40
0.8843430617
 40
1.0
 40
1.0
 40
1.0
 40
1.0
 10
297.2469473069
 20
212.7559303909
 30
0.0
 10
296.8169457728
 20
212.4122552562
 30
0.0
 10
296.2085540165
 20
211.8575500693
 30
0.0
 10
295.4869324071
 20
211.046826595
 30
0.0
 10
295.002452451
 20
210.4173161728
 30
0.0
 10
294.5747492037
 20
209.767000631
 30
0.0
 10
294.2068985859
 20
209.1005706323
 30
0.0
 10
293.9016474795
 20
208.4229905122
 30
0.0
 10
293.7392996468
 20
207.9611510614
 30
0.0
 10
293.6696909129
 20
207.7300981402
 30
0.0
  0
SPLINE
  5
35F
100
AcDbEntity
  8
0
100
AcDbSpline
 62
7
  6
CONTINUOUS
 70
0
 71
3
 72
23
 73
19
 74
0
 42
0.0000001
 43
0.0000001
 44
0.0000000001
 40
0.0
 40
0.0
 40
0.0
 40
0.0
 40
0.0614971772
 40
0.1202458178
 40
0.1771152937
 40
0.232786522
 40
0.2877796352
 40
0.3425027355
 40
0.3973136519
 40
0.4525869689
 40
0.5087793405
 40
0.5664858122
 40
0.6264790523
 40
0.6897241336
 40
0.7573658987
 40
0.8306934209
 40
0.911092671
 40
1.0
 40
1.0
 40
1.0
 40
1.0
 10
304.1308098221
 20
239.4149337052
 30
0.0
 10
304.1490989573
 20
239.4375559369
 30
0.0
 10
304.1867837739
 20
239.4802723668
 30
0.0
 10
304.2471956574
 20
239.5384320433
 30
0.0
 10
304.3093693648
 20
239.5904729104
 30
0.0
 10
304.3728037893
 20
239.6380192219
 30
0.0
 10
304.4370284977
 20
239.6827074727
 30
0.0
 10
304.5015889191
 20
239.7261700861
 30
0.0
 10
304.5660386076
 20
239.7700376461
 30
0.0
 10
304.6299284583
 20
239.8159414777
 30
0.0
 10
304.6927966859
 20
239.865515869
 30
0.0
 10
304.7541599646
 20
239.9203947445
 30
0.0
 10
304.8135099426
 20
239.9822014792
 30
0.0
 10
304.8703200038
 20
240.0525360954
 30
0.0
 10
304.9240616698
 20
240.1329680237
 30
0.0
 10
304.9742232914
 20
240.2250446844
 30
0.0
 10
305.0203150682
 20
240.3302966872
 30
0.0
 10
305.0465573481
 20
240.4060575289
 30
0.0
 10
305.058974426
 20
240.446239245
 30
0.0
  0
SPLINE
  5
360
100
AcDbEntity
  8
0
100
AcDbSpline
 62
7
  6
CONTINUOUS
 70
0
 71
3
 72
11
 73
7
 74
0
 42
0.0000001
 43
0.0000001
 44
0.0000000001
 40
0.0
 40
0.0
 40
0.0
 40
0.0
 40
0.2600264008
 40
0.5141812862
 40
0.7611775361
 40
1.0
 40
1.0
 40
1.0
 40
1.0
 10
295.9898769479
 20
214.694742542
 30
0.0
 10
295.6669984366
 20
214.4601909228
 30
0.0
 10
295.047164649
 20
213.970007828
 30
0.0
 10
294.1951455716
 20
213.1686083123
 30
0.0
 10
293.4401521235
 20
212.3181498101
 30
0.0
 10
292.9998492188
 20
211.7146128486
 30
0.0
 10
292.7996013165
 20
211.4076109
 30
0.0
  0
SPLINE
  5
361
100
AcDbEntity
  8
0
100
AcDbSpline
 62
7
  6
CONTINUOUS
 70
0
 71
3
 72
11
 73
7
 74
0
 42
0.0000001
 43
0.0000001
 44
0.0000000001
 40
0.0
 40
0.0
 40
0.0
 40
0.0
 40
0.2573181119
 40
0.5095456129
 40
0.756981302
 40
1.0
 40
1.0
 40
1.0
 40
1.0
 10
285.8020441141
 20
209.506348374
 30
0.0
 10
285.8455572604
 20
209.6434801105
 30
0.0
 10
285.9234627859
 20
209.917743314
 30
0.0
 10
286.0128129418
 20
210.3317431581
 30
0.0
 10
286.0731803666
 20
210.7428842637
 30
0.0
 10
286.0941370531
 20
211.0165722236
 30
0.0
 10
286.0996003621
 20
211.1523371207
 30
0.0
  0
SPLINE
  5
362
100
AcDbEntity
  8
0
100
AcDbSpline
 62
7
  6
CONTINUOUS
 70
0
 71
3
 72
11
 73
7
 74
0
 42
0.0000001
 43
0.0000001
 44
0.0000000001
 40
0.0
 40
0.0
 40
0.0
 40
0.0
 40
0.2509431812
 40
0.5007791107
 40
0.7502249385
 40
1.0
 40
1.0
 40
1.0
 40
1.0
 10
286.1006502916
 20
214.694742542
 30
0.0
 10
286.1772273415
 20
214.5859429783
 30
0.0
 10
286.3221089541
 20
214.3631078283
 30
0.0
 10
286.5136046037
 20
214.0140695799
 30
0.0
 10
286.6781289785
 20
213.6522161485
 30
0.0
 10
286.7694033628
 20
213.4034622849
 30
0.0
 10
286.8103651951
 20
213.2775293484
 30
0.0
  0
SPLINE
  5
363
100
AcDbEntity
  8
0
100
AcDbSpline
 62
7
  6
CONTINUOUS
 70
0
 71
3
 72
15
 73
11
 74
0
 42
0.0000001
 43
0.0000001
 44
0.0000000001
 40
0.0
 40
0.0
 40
0.0
 40
0.0
 40
0.1258297656
 40
0.2503755138
 40
0.3735790616
 40
0.4957689029
 40
0.6177737652
 40
0.7410150477
 40
0.8675450838
 40
1.0
 40
1.0
 40
1.0
 40
1.0
 10
304.1087088997
 20
240.3155927443
 30
0.0
 10
304.1448092253
 20
240.3371741957
 30
0.0
 10
304.216056367
 20
240.3811181508
 30
0.0
 10
304.3193843216
 20
240.4513327432
 30
0.0
 10
304.4172806602
 20
240.5270408891
 30
0.0
 10
304.508280186
 20
240.6097409337
 30
0.0
 10
304.5908716928
 20
240.7009478028
 30
0.0
 10
304.6634806535
 20
240.8021722229
 30
0.0
 10
304.7244642419
 20
240.9148315636
 30
0.0
 10
304.7553505167
 20
240.996022454
 30
0.0
 10
304.7684222557
 20
241.0383226563
 30
0.0
  0
SPLINE
  5
364
100
AcDbEntity
  8
0
100
AcDbSpline
 62
7
  6
CONTINUOUS
 70
0
 71
3
 72
14
 73
10
 74
0
 42
0.0000001
 43
0.0000001
 44
0.0000000001
 40
0.0
 40
0.0
 40
0.0
 40
0.0
 40
0.1224727052
 40
0.2453924999
 40
0.3689118888
 40
0.4931794726
 40
0.6183299018
 40
0.7444756319
 40
1.0
 40
1.0
 40
1.0
 40
1.0
 10
298.5154191459
 20
226.0369950631
 30
0.0
 10
298.5216243133
 20
225.9963266416
 30
0.0
 10
298.5333711065
 20
225.9147330537
 30
0.0
 10
298.5480825882
 20
225.7916755492
 30
0.0
 10
298.5591821515
 20
225.6676276073
 30
0.0
 10
298.5660974346
 20
225.5425214747
 30
0.0
 10
298.5684272353
 20
225.4163576236
 30
0.0
 10
298.5650984118
 20
225.2461167684
 30
0.0
 10
298.5552395484
 20
225.1181386355
 30
0.0
 10
298.5456716496
 20
225.0328418897
 30
0.0
  0
SPLINE
  5
365
100
AcDbEntity
  8
0
100
AcDbSpline
 62
7
  6
CONTINUOUS
 70
0
 71
3
 72
20
 73
16
 74
0
 42
0.0000001
 43
0.0000001
 44
0.0000000001
 40
0.0
 40
0.0
 40
0.0
 40
0.0
 40
0.0496607505
 40
0.0997770601
 40
0.1507842362
 40
0.2030797956
 40
0.257010509
 40
0.3128646506
 40
0.3708689816
 40
0.431189382
 40
0.4939339525
 40
0.5591574699
 40
0.6969603552
 40
0.8442358817
 40
1.0
 40
1.0
 40
1.0
 40
1.0
 10
283.0802995525
 20
197.6624212494
 30
0.0
 10
283.0921480832
 20
197.7007634736
 30
0.0
 10
283.1205265933
 20
197.7764691613
 30
0.0
 10
283.1764229872
 20
197.8850314027
 30
0.0
 10
283.245448649
 20
197.9883307192
 30
0.0
 10
283.3272452348
 20
198.0858705612
 30
0.0
 10
283.421408919
 20
198.1772223234
 30
0.0
 10
283.527486313
 20
198.2619879742
 30
0.0
 10
283.6449811675
 20
198.3398061646
 30
0.0
 10
283.773353062
 20
198.4103457617
 30
0.0
 10
283.9120240196
 20
198.4733105351
 30
0.0
 10
284.11348899
 20
198.5481589991
 30
0.0
 10
284.3880816885
 20
198.6201291535
 30
0.0
 10
284.741253655
 20
198.6712390682
 30
0.0
 10
284.9863402569
 20
198.6820438203
 30
0.0
 10
285.1122143552
 20
198.6820438203
 30
0.0
  0
SPLINE
  5
366
100
AcDbEntity
  8
0
100
AcDbSpline
 62
7
  6
CONTINUOUS
 70
0
 71
3
 72
10
 73
6
 74
0
 42
0.0000001
 43
0.0000001
 44
0.0000000001
 40
0.0
 40
0.0
 40
0.0
 40
0.0
 40
0.481296281
 40
0.7354841184
 40
1.0
 40
1.0
 40
1.0
 40
1.0
 10
298.7417782345
 20
224.3421740685
 30
0.0
 10
298.7338033846
 20
224.457679646
 30
0.0
 10
298.7013453661
 20
224.6333043299
 30
0.0
 10
298.6241675111
 20
224.8613180362
 30
0.0
 10
298.5737103411
 20
224.9756689913
 30
0.0
 10
298.545694705
 20
225.0328016651
 30
0.0
  0
SPLINE
  5
367
100
AcDbEntity
  8
0
100
AcDbSpline
 62
7
  6
CONTINUOUS
 70
0
 71
3
 72
21
 73
17
 74
0
 42
0.0000001
 43
0.0000001
 44
0.0000000001
 40
0.0
 40
0.0
 40
0.0
 40
0.0
 40
0.1767600933
 40
0.3420517633
 40
0.4192958489
 40
0.4923715216
 40
0.5609222406
 40
0.6246737937
 40
0.6834787246
 40
0.7373770038
 40
0.7866743717
 40
0.8320268004
 40
0.8745018385
 40
0.9155527849
 40
0.9568493676
 40
1.0
 40
1.0
 40
1.0
 40
1.0
 10
295.9427074382
 20
236.1083856238
 30
0.0
 10
295.9547398446
 20
236.068018697
 30
0.0
 10
295.9755239487
 20
235.9891273173
 30
0.0
 10
295.9935111619
 20
235.8906995006
 30
0.0
 10
296.0015049795
 20
235.8158827219
 30
0.0
 10
296.0041269309
 20
235.7637596716
 30
0.0
 10
296.0033901521
 20
235.7147828359
 30
0.0
 10
295.9991847689
 20
235.6693822699
 30
0.0
 10
295.9914271268
 20
235.6279808286
 30
0.0
 10
295.9800578139
 20
235.5909840189
 30
0.0
 10
295.9650395746
 20
235.558777852
 30
0.0
 10
295.9463586626
 20
235.5317430531
 30
0.0
 10
295.9240624533
 20
235.5102844018
 30
0.0
 10
295.8983453087
 20
235.4948140163
 30
0.0
 10
295.8696257506
 20
235.4856206229
 30
0.0
 10
295.8494241636
 20
235.4837602035
 30
0.0
 10
295.8391413373
 20
235.4837591671
 30
0.0
  0
SPLINE
  5
368
100
AcDbEntity
  8
0
100
AcDbSpline
 62
7
  6
CONTINUOUS
 70
0
 71
3
 72
15
 73
11
 74
0
 42
0.0000001
 43
0.0000001
 44
0.0000000001
 40
0.0
 40
0.0
 40
0.0
 40
0.0
 40
0.1069895415
 40
0.2232120857
 40
0.3466281091
 40
0.4751332059
 40
0.6066568116
 40
0.7392137228
 40
0.870921332
 40
1.0
 40
1.0
 40
1.0
 40
1.0
 10
294.8355095698
 20
239.4204948039
 30
0.0
 10
294.8525463833
 20
239.3979593441
 30
0.0
 10
294.8862648081
 20
239.3495535448
 30
0.0
 10
294.934120182
 20
239.2714891833
 30
0.0
 10
294.9808362546
 20
239.1862022501
 30
0.0
 10
295.025660853
 20
239.0953859465
 30
0.0
 10
295.067901396
 20
239.0006929411
 30
0.0
 10
295.1069171419
 20
238.9037149552
 30
0.0
 10
295.1421118288
 20
238.8059731584
 30
0.0
 10
295.1629563064
 20
238.7403203498
 30
0.0
 10
295.1725877669
 20
238.7076262045
 30
0.0
  0
SPLINE
  5
369
100
AcDbEntity
  8
0
100
AcDbSpline
 62
7
  6
CONTINUOUS
 70
0
 71
3
 72
18
 73
14
 74
0
 42
0.0000001
 43
0.0000001
 44
0.0000000001
 40
0.0
 40
0.0
 40
0.0
 40
0.0
 40
0.0486392573
 40
0.098677445
 40
0.1503386024
 40
0.2038030506
 40
0.316575499
 40
0.3761071906
 40
0.4377511681
 40
0.567252027
 40
0.7047081982
 40
0.8493204006
 40
1.0
 40
1.0
 40
1.0
 40
1.0
 10
295.6994320979
 20
214.4753009794
 30
0.0
 10
295.6965744753
 20
214.5255483029
 30
0.0
 10
295.6856719244
 20
214.6272583643
 30
0.0
 10
295.6546460443
 20
214.7798976086
 30
0.0
 10
295.6088828849
 20
214.9340028195
 30
0.0
 10
295.5270445125
 20
215.1443109983
 30
0.0
 10
295.4170422744
 20
215.3514872642
 30
0.0
 10
295.2831515485
 20
215.5532799031
 30
0.0
 10
295.1265487349
 20
215.7602503817
 30
0.0
 10
294.8978878202
 20
216.0128820565
 30
0.0
 10
294.5811724343
 20
216.2985130435
 30
0.0
 10
294.2224075487
 20
216.5673618035
 30
0.0
 10
293.9632516194
 20
216.7299325334
 30
0.0
 10
293.8281283346
 20
216.8077173983
 30
0.0
  0
SPLINE
  5
36A
100
AcDbEntity
  8
0
100
AcDbSpline
 62
7
  6
CONTINUOUS
 70
0
 71
3
 72
24
 73
20
 74
0
 42
0.0000001
 43
0.0000001
 44
0.0000000001
 40
0.0
 40
0.0
 40
0.0
 40
0.0
 40
0.0556520294
 40
0.109307163
 40
0.1616357779
 40
0.2134013023
 40
0.2654091947
 40
0.318446636
 40
0.3732263236
 40
0.4303456793
 40
0.4599449489
 40
0.4902899567
 40
0.5533307689
 40
0.6196793474
 40
0.6894024504
 40
0.7624617394
 40
0.8387287907
 40
0.9179973469
 40
1.0
 40
1.0
 40
1.0
 40
1.0
 10
285.4667153525
 20
205.3860216845
 30
0.0
 10
285.4532158244
 20
205.4436061868
 30
0.0
 10
285.4336823096
 20
205.5585231163
 30
0.0
 10
285.4284143902
 20
205.730786067
 30
0.0
 10
285.4479447333
 20
205.8979377411
 30
0.0
 10
285.4921929627
 20
206.0585063092
 30
0.0
 10
285.5607855462
 20
206.2110967332
 30
0.0
 10
285.653081422
 20
206.3544135526
 30
0.0
 10
285.7682090353
 20
206.4873089904
 30
0.0
 10
285.8810182506
 20
206.5873859898
 30
0.0
 10
285.9810764968
 20
206.6614154651
 30
0.0
 10
286.0904574083
 20
206.7330851851
 30
0.0
 10
286.2399037012
 20
206.8143110135
 30
0.0
 10
286.4350562565
 20
206.8968845411
 30
0.0
 10
286.6468247584
 20
206.9652267468
 30
0.0
 10
286.8735976761
 20
207.0188449969
 30
0.0
 10
287.1136744162
 20
207.0573579498
 30
0.0
 10
287.3652333865
 20
207.0804876012
 30
0.0
 10
287.5366802435
 20
207.0854610986
 30
0.0
 10
287.6238307611
 20
207.0854610986
 30
0.0
  0
SPLINE
  5
36B
100
AcDbEntity
  8
0
100
AcDbSpline
 62
7
  6
CONTINUOUS
 70
0
 71
3
 72
33
 73
29
 74
0
 42
0.0000001
 43
0.0000001
 44
0.0000000001
 40
0.0
 40
0.0
 40
0.0
 40
0.0
 40
0.072821242
 40
0.1482104771
 40
0.225100014
 40
0.3023537447
 40
0.3788192871
 40
0.4533796048
 40
0.4896296213
 40
0.525028463
 40
0.5594710966
 40
0.5928657112
 40
0.6251360572
 40
0.6562240287
 40
0.6860925212
 40
0.7147285699
 40
0.7421467229
 40
0.7683925003
 40
0.7935456284
 40
0.8177225052
 40
0.8410770894
 40
0.8637992132
 40
0.8861094018
 40
0.9082498183
 40
0.9304719554
 40
0.9530227844
 40
0.9761316618
 40
1.0
 40
1.0
 40
1.0
 40
1.0
 10
287.6238307611
 20
207.0854610986
 30
0.0
 10
287.7782308829
 20
207.0854610986
 30
0.0
 10
288.0926410459
 20
207.069345898
 30
0.0
 10
288.5656146846
 20
207.0011586562
 30
0.0
 10
289.040025645
 20
206.8899259341
 30
0.0
 10
289.5054248674
 20
206.7380823374
 30
0.0
 10
289.9516003045
 20
206.5489683462
 30
0.0
 10
290.3025937652
 20
206.3619929296
 30
0.0
 10
290.5651366052
 20
206.1969551066
 30
0.0
 10
290.7494819471
 20
206.0678787305
 30
0.0
 10
290.9220687186
 20
205.9330777222
 30
0.0
 10
291.0819456801
 20
205.7932907673
 30
0.0
 10
291.2282277374
 20
205.6492868881
 30
0.0
 10
291.3601056337
 20
205.5018542531
 30
0.0
 10
291.4768479194
 20
205.3517968188
 30
0.0
 10
291.5778036302
 20
205.1999291138
 30
0.0
 10
291.6624033494
 20
205.0470721366
 30
0.0
 10
291.7301593085
 20
204.8940503872
 30
0.0
 10
291.7806649862
 20
204.741691037
 30
0.0
 10
291.8135956881
 20
204.5908258199
 30
0.0
 10
291.8287124931
 20
204.4422952376
 30
0.0
 10
291.8258719357
 20
204.2969523592
 30
0.0
 10
291.8050417794
 20
204.1556613071
 30
0.0
 10
291.7663174165
 20
204.0192846009
 30
0.0
 10
291.7099329027
 20
203.8886620303
 30
0.0
 10
291.636249265
 20
203.7645784532
 30
0.0
 10
291.5457616613
 20
203.6477701542
 30
0.0
 10
291.4758693674
 20
203.5764618564
 30
0.0
 10
291.4385791001
 20
203.5422490233
 30
0.0
  0
SPLINE
  5
36C
100
AcDbEntity
  8
0
100
AcDbSpline
 62
7
  6
CONTINUOUS
 70
0
 71
3
 72
15
 73
11
 74
0
 42
0.0000001
 43
0.0000001
 44
0.0000000001
 40
0.0
 40
0.0
 40
0.0
 40
0.0
 40
0.1412408118
 40
0.2747892434
 40
0.4014971433
 40
0.522866586
 40
0.6409864237
 40
0.7582978894
 40
0.8772578932
 40
1.0
 40
1.0
 40
1.0
 40
1.0
 10
292.3786266315
 20
208.3280029035
 30
0.0
 10
292.3713107477
 20
208.3074774322
 30
0.0
 10
292.3548323489
 20
208.2682857591
 30
0.0
 10
292.3236139427
 20
208.2145726227
 30
0.0
 10
292.2868837523
 20
208.168266715
 30
0.0
 10
292.2449973645
 20
208.1299690156
 30
0.0
 10
292.1984058295
 20
208.1001347376
 30
0.0
 10
292.1476698533
 20
208.0790253541
 30
0.0
 10
292.0934365924
 20
208.0666484733
 30
0.0
 10
292.0560758895
 20
208.0641097022
 30
0.0
 10
292.0371395272
 20
208.0641081304
 30
0.0
  0
SPLINE
  5
36D
100
AcDbEntity
  8
0
100
AcDbSpline
 62
7
  6
CONTINUOUS
 70
0
 71
3
 72
27
 73
23
 74
0
 42
0.0000001
 43
0.0000001
 44
0.0000000001
 40
0.0
 40
0.0
 40
0.0
 40
0.0
 40
0.0212717204
 40
0.0427234303
 40
0.0645277344
 40
0.0868433724
 40
0.1098103146
 40
0.1335466798
 40
0.1581473553
 40
0.1836839857
 40
0.2377088646
 40
0.2958166341
 40
0.3578871066
 40
0.423581854
 40
0.49239304
 40
0.56368462
 40
0.6367276639
 40
0.7107317735
 40
0.784874106
 40
0.8583272193
 40
0.9302868073
 40
1.0
 40
1.0
 40
1.0
 40
1.0
 10
291.6140657277
 20
204.1144367402
 30
0.0
 10
291.6254400242
 20
204.1512436955
 30
0.0
 10
291.6441166071
 20
204.2265303052
 30
0.0
 10
291.6594056085
 20
204.3426195905
 30
0.0
 10
291.6619769669
 20
204.4615772629
 30
0.0
 10
291.6518361502
 20
204.5828638435
 30
0.0
 10
291.6290538556
 20
204.7059656396
 30
0.0
 10
291.5937513292
 20
204.8303639736
 30
0.0
 10
291.5460971285
 20
204.9555510031
 30
0.0
 10
291.4648622223
 20
205.1260004519
 30
0.0
 10
291.3321180248
 20
205.3381217999
 30
0.0
 10
291.1313836268
 20
205.5824384413
 30
0.0
 10
290.8895677554
 20
205.8175236327
 30
0.0
 10
290.6106515002
 20
206.0396005263
 30
0.0
 10
290.2991759519
 20
206.2451133395
 30
0.0
 10
289.9602384661
 20
206.4307144104
 30
0.0
 10
289.5993986241
 20
206.5933664592
 30
0.0
 10
289.2225878148
 20
206.7303965265
 30
0.0
 10
288.8360106007
 20
206.8395493208
 30
0.0
 10
288.4460191507
 20
206.919028206
 30
0.0
 10
288.0590684626
 20
206.9675248977
 30
0.0
 10
287.8023849314
 20
206.9788860846
 30
0.0
 10
287.6761301518
 20
206.9788860846
 30
0.0
  0
SPLINE
  5
36E
100
AcDbEntity
  8
0
100
AcDbSpline
 62
7
  6
CONTINUOUS
 70
0
 71
3
 72
30
 73
26
 74
0
 42
0.0000001
 43
0.0000001
 44
0.0000000001
 40
0.0
 40
0.0
 40
0.0
 40
0.0
 40
0.0697076049
 40
0.1416612685
 40
0.2151084023
 40
0.2892447055
 40
0.3632428016
 40
0.4362799143
 40
0.5075657142
 40
0.5763713362
 40
0.6420607798
 40
0.6735824866
 40
0.7041478965
 40
0.7337205011
 40
0.7622773885
 40
0.7898109628
 40
0.8163307682
 40
0.8418653537
 40
0.8664640593
 40
0.890198525
 40
0.9131636294
 40
0.9354774779
 40
0.9572800277
 40
0.9787300048
 40
1.0
 40
1.0
 40
1.0
 40
1.0
 10
287.5758433987
 20
208.1560229546
 30
0.0
 10
287.7398206081
 20
208.1560229546
 30
0.0
 10
288.0731957382
 20
208.1412674229
 30
0.0
 10
288.5757590442
 20
208.0782809179
 30
0.0
 10
289.0822714834
 20
207.9750554802
 30
0.0
 10
289.5843496534
 20
207.8332904223
 30
0.0
 10
290.0737440838
 20
207.6553186106
 30
0.0
 10
290.5423936645
 20
207.4440709327
 30
0.0
 10
290.9826047151
 20
207.2030121893
 30
0.0
 10
291.3871217503
 20
206.9361118047
 30
0.0
 10
291.6931445045
 20
206.6924585245
 30
0.0
 10
291.9136206114
 20
206.4879935259
 30
0.0
 10
292.0638457076
 20
206.3331712215
 30
0.0
 10
292.2005776666
 20
206.175422861
 30
0.0
 10
292.3232504047
 20
206.0153905466
 30
0.0
 10
292.4313515283
 20
205.8537292516
 30
0.0
 10
292.5244267271
 20
205.6910974814
 30
0.0
 10
292.6020794324
 20
205.5281569625
 30
0.0
 10
292.6639712322
 20
205.3655708522
 30
0.0
 10
292.7098222349
 20
205.2040038329
 30
0.0
 10
292.7394119939
 20
205.0441220328
 30
0.0
 10
292.75258337
 20
204.8865974192
 30
0.0
 10
292.7492443986
 20
204.7320976033
 30
0.0
 10
292.729388041
 20
204.5813231308
 30
0.0
 10
292.7051316344
 20
204.4835423676
 30
0.0
 10
292.6903591983
 20
204.4357381871
 30
0.0
  0
SPLINE
  5
36F
100
AcDbEntity
  8
0
100
AcDbSpline
 62
7
  6
CONTINUOUS
 70
0
 71
3
 72
9
 73
5
 74
0
 42
0.0000001
 43
0.0000001
 44
0.0000000001
 40
0.0
 40
0.0
 40
0.0
 40
0.0
 40
0.5034181895
 40
1.0
 40
1.0
 40
1.0
 40
1.0
 10
298.508292297
 20
226.0905679344
 30
0.0
 10
298.5139835469
 20
226.1199802521
 30
0.0
 10
298.5220854441
 20
226.1790681551
 30
0.0
 10
298.5239604977
 20
226.2386607197
 30
0.0
 10
298.5234255805
 20
226.2682069354
 30
0.0
  0
SPLINE
  5
370
100
AcDbEntity
  8
0
100
AcDbSpline
 62
7
  6
CONTINUOUS
 70
0
 71
3
 72
27
 73
23
 74
0
 42
0.0000001
 43
0.0000001
 44
0.0000000001
 40
0.0
 40
0.0
 40
0.0
 40
0.0
 40
0.0212717151
 40
0.0427234267
 40
0.0645277386
 40
0.0868433894
 40
0.1098103481
 40
0.1335467322
 40
0.158147428
 40
0.1836840791
 40
0.2377089974
 40
0.2958167992
 40
0.3578872938
 40
0.4235820517
 40
0.4923932365
 40
0.5636848045
 40
0.6367278271
 40
0.7107319082
 40
0.7848742075
 40
0.8583272856
 40
0.930286839
 40
1.0
 40
1.0
 40
1.0
 40
1.0
 10
289.050151395
 20
195.817599213
 30
0.0
 10
289.0615255
 20
195.8544061807
 30
0.0
 10
289.0802017047
 20
195.929692804
 30
0.0
 10
289.0954901656
 20
196.0457820594
 30
0.0
 10
289.0980610172
 20
196.1647396736
 30
0.0
 10
289.0879197295
 20
196.2860261696
 30
0.0
 10
289.0651370016
 20
196.4091278569
 30
0.0
 10
289.0298340809
 20
196.5335260603
 30
0.0
 10
288.9821795257
 20
196.6587129395
 30
0.0
 10
288.900944195
 20
196.8291621555
 30
0.0
 10
288.7681995827
 20
197.0412831654
 30
0.0
 10
288.567464854
 20
197.2855993768
 30
0.0
 10
288.3256488091
 20
197.520684113
 30
0.0
 10
288.0467325299
 20
197.7427605426
 30
0.0
 10
287.7352570955
 20
197.9482728989
 30
0.0
 10
287.3963198464
 20
198.1338735359
 30
0.0
 10
287.0354803455
 20
198.2965251889
 30
0.0
 10
286.6586699604
 20
198.4335549119
 30
0.0
 10
286.2720932304
 20
198.5427074251
 30
0.0
 10
285.8821022993
 20
198.6221861018
 30
0.0
 10
285.4951521394
 20
198.6706826644
 30
0.0
 10
285.2384689625
 20
198.6820438203
 30
0.0
 10
285.1122143552
 20
198.6820438203
 30
0.0
  0
SPLINE
  5
371
100
AcDbEntity
  8
0
100
AcDbSpline
 62
7
  6
CONTINUOUS
 70
0
 71
3
 72
20
 73
16
 74
0
 42
0.0000001
 43
0.0000001
 44
0.0000000001
 40
0.0
 40
0.0
 40
0.0
 40
0.0
 40
0.1683762469
 40
0.3326857052
 40
0.4886618509
 40
0.5621130615
 40
0.631753528
 40
0.697006017
 40
0.7573253391
 40
0.8122303158
 40
0.8613446476
 40
0.9044533146
 40
0.9415820132
 40
0.973119116
 40
1.0
 40
1.0
 40
1.0
 40
1.0
 10
301.3368016328
 20
236.1083856238
 30
0.0
 10
301.3193777092
 20
236.0671143317
 30
0.0
 10
301.2828536756
 20
235.9864344743
 30
0.0
 10
301.2231651002
 20
235.8708699901
 30
0.0
 10
301.1700254386
 20
235.7805098543
 30
0.0
 10
301.1264154464
 20
235.7139383433
 30
0.0
 10
301.0944172856
 20
235.6686576779
 30
0.0
 10
301.0627697204
 20
235.6274547586
 30
0.0
 10
301.0317770921
 20
235.5907514127
 30
0.0
 10
301.0017450845
 20
235.5589355486
 30
0.0
 10
300.9729647948
 20
235.532345048
 30
0.0
 10
300.9457032065
 20
235.5112494154
 30
0.0
 10
300.9201542879
 20
235.4958475806
 30
0.0
 10
300.8964680224
 20
235.4862685787
 30
0.0
 10
300.8809093552
 20
235.4837604629
 30
0.0
 10
300.8737573643
 20
235.4837591067
 30
0.0
  0
SPLINE
  5
372
100
AcDbEntity
  8
0
100
AcDbSpline
 62
7
  6
CONTINUOUS
 70
0
 71
3
 72
8
 73
4
 74
0
 42
0.0000001
 43
0.0000001
 44
0.0000000001
 40
0.0
 40
0.0
 40
0.0
 40
0.0
 40
1.0
 40
1.0
 40
1.0
 40
1.0
 10
302.4335664667
 20
238.7076262045
 30
0.0
 10
302.0681359612
 20
237.8411461215
 30
0.0
 10
301.7025548959
 20
236.9747295158
 30
0.0
 10
301.3368016328
 20
236.1083856238
 30
0.0
  0
SPLINE
  5
373
100
AcDbEntity
  8
0
100
AcDbSpline
 62
7
  6
CONTINUOUS
 70
0
 71
3
 72
9
 73
5
 74
0
 42
0.0000001
 43
0.0000001
 44
0.0000000001
 40
0.0
 40
0.0
 40
0.0
 40
0.0
 40
0.4956854475
 40
1.0
 40
1.0
 40
1.0
 40
1.0
 10
300.7925022425
 20
233.4660188868
 30
0.0
 10
300.8055177634
 20
233.5081290347
 30
0.0
 10
300.8248297298
 20
233.5953804198
 30
0.0
 10
300.8299169774
 20
233.6845603689
 30
0.0
 10
300.8291052537
 20
233.729396022
 30
0.0
  0
SPLINE
  5
374
100
AcDbEntity
  8
0
100
AcDbSpline
 62
7
  6
CONTINUOUS
 70
0
 71
3
 72
15
 73
11
 74
0
 42
0.0000001
 43
0.0000001
 44
0.0000000001
 40
0.0
 40
0.0
 40
0.0
 40
0.0
 40
0.0956546957
 40
0.2025818702
 40
0.3196287044
 40
0.4452960227
 40
0.5779138923
 40
0.7157429474
 40
0.8570241939
 40
1.0
 40
1.0
 40
1.0
 40
1.0
 10
302.5557942991
 20
239.4204948039
 30
0.0
 10
302.5609342069
 20
239.3976970358
 30
0.0
 10
302.568018917
 20
239.3485369478
 30
0.0
 10
302.5702613962
 20
239.2703605627
 30
0.0
 10
302.5648144913
 20
239.1850055673
 30
0.0
 10
302.5519010726
 20
239.0941419667
 30
0.0
 10
302.5318873137
 20
238.9993912
 30
0.0
 10
302.5052463694
 20
238.9023343953
 30
0.0
 10
302.4725364647
 20
238.8044885355
 30
0.0
 10
302.4471406364
 20
238.7398122084
 30
0.0
 10
302.4335664667
 20
238.7076262045
 30
0.0
  0
SPLINE
  5
375
100
AcDbEntity
  8
0
100
AcDbSpline
 62
7
  6
CONTINUOUS
 70
0
 71
3
 72
15
 73
11
 74
0
 42
0.0000001
 43
0.0000001
 44
0.0000000001
 40
0.0
 40
0.0
 40
0.0
 40
0.0
 40
0.124603184
 40
0.2518528816
 40
0.3805004501
 40
0.5092446671
 40
0.6367889495
 40
0.7618656136
 40
0.8832937889
 40
1.0
 40
1.0
 40
1.0
 40
1.0
 10
298.7521181924
 20
239.3651450395
 30
0.0
 10
298.8565829584
 20
239.3049018724
 30
0.0
 10
299.0725808153
 20
239.1913743441
 30
0.0
 10
299.4104467947
 20
239.0441586931
 30
0.0
 10
299.7616896886
 20
238.9199212977
 30
0.0
 10
300.1210271947
 20
238.8204736959
 30
0.0
 10
300.4831083763
 20
238.747313763
 30
0.0
 10
300.8425509154
 20
238.7015575628
 30
0.0
 10
301.1939587195
 20
238.6838211084
 30
0.0
 10
301.4246474635
 20
238.6910902126
 30
0.0
 10
301.5372593264
 20
238.6997984486
 30
0.0
  0
SPLINE
  5
376
100
AcDbEntity
  8
0
100
AcDbSpline
 62
7
  6
CONTINUOUS
 70
0
 71
3
 72
10
 73
6
 74
0
 42
0.0000001
 43
0.0000001
 44
0.0000000001
 40
0.0
 40
0.0
 40
0.0
 40
0.0
 40
0.225241409
 40
0.4681512663
 40
1.0
 40
1.0
 40
1.0
 40
1.0
 10
297.5197251933
 20
226.525077065
 30
0.0
 10
297.5137731057
 20
226.5641825055
 30
0.0
 10
297.502601252
 20
226.6456505504
 30
0.0
 10
297.484382217
 20
226.8203421296
 30
0.0
 10
297.4773574704
 20
226.9563529468
 30
0.0
 10
297.4753133964
 20
227.0497313081
 30
0.0
  0
SPLINE
  5
377
100
AcDbEntity
  8
0
100
AcDbSpline
 62
7
  6
CONTINUOUS
 70
0
 71
3
 72
14
 73
10
 74
0
 42
0.0000001
 43
0.0000001
 44
0.0000000001
 40
0.0
 40
0.0
 40
0.0
 40
0.0
 40
0.2577674772
 40
0.3888744291
 40
0.5191138481
 40
0.6468283449
 40
0.7704347833
 40
0.8885325249
 40
1.0
 40
1.0
 40
1.0
 40
1.0
 10
298.6807244863
 20
233.2601005111
 30
0.0
 10
298.5422492276
 20
233.2732918274
 30
0.0
 10
298.3346384978
 20
233.3115337764
 30
0.0
 10
298.066841345
 20
233.3943427592
 30
0.0
 10
297.8716011468
 20
233.4722397654
 30
0.0
 10
297.6870247079
 20
233.5640201567
 30
0.0
 10
297.5165452257
 20
233.667885819
 30
0.0
 10
297.3635343112
 20
233.7819768788
 30
0.0
 10
297.2720912173
 20
233.8659991872
 30
0.0
 10
297.2303581621
 20
233.9093198376
 30
0.0
  0
SPLINE
  5
378
100
AcDbEntity
  8
0
100
AcDbSpline
 62
7
  6
CONTINUOUS
 70
0
 71
3
 72
15
 73
11
 74
0
 42
0.0000001
 43
0.0000001
 44
0.0000000001
 40
0.0
 40
0.0
 40
0.0
 40
0.0
 40
0.1121828206
 40
0.2292547824
 40
0.3506982852
 40
0.4758858572
 40
0.6041338213
 40
0.7347268836
 40
0.8669314942
 40
1.0
 40
1.0
 40
1.0
 40
1.0
 10
292.7878952714
 20
228.6662007769
 30
0.0
 10
292.8204384178
 20
228.6324196347
 30
0.0
 10
292.8839091559
 20
228.5604104166
 30
0.0
 10
292.9718879553
 20
228.4429286563
 30
0.0
 10
293.053630874
 20
228.3145199654
 30
0.0
 10
293.1277041678
 20
228.1762100812
 30
0.0
 10
293.1924330702
 20
228.0290800611
 30
0.0
 10
293.2459119779
 20
227.8743567495
 30
0.0
 10
293.2860894153
 20
227.7135611591
 30
0.0
 10
293.302630886
 20
227.603662762
 30
0.0
 10
293.3080650272
 20
227.5482894007
 30
0.0
  0
SPLINE
  5
379
100
AcDbEntity
  8
0
100
AcDbSpline
 62
7
  6
CONTINUOUS
 70
0
 71
3
 72
23
 73
19
 74
0
 42
0.0000001
 43
0.0000001
 44
0.0000000001
 40
0.0
 40
0.0
 40
0.0
 40
0.0
 40
0.0616161473
 40
0.1248887517
 40
0.189517518
 40
0.255178844
 40
0.3215316054
 40
0.3882239587
 40
0.4548978127
 40
0.5211966152
 40
0.586768057
 40
0.651273996
 40
0.7143911531
 40
0.7758240884
 40
0.8353040908
 40
0.8926057233
 40
0.9475449736
 40
1.0
 40
1.0
 40
1.0
 40
1.0
 10
300.8308860571
 20
237.0481860711
 30
0.0
 10
300.7470530904
 20
237.0460613431
 30
0.0
 10
300.5769603938
 20
237.0470945385
 30
0.0
 10
300.3194282548
 20
237.0636638907
 30
0.0
 10
300.057745707
 20
237.0951691317
 30
0.0
 10
299.7940003823
 20
237.1413361975
 30
0.0
 10
299.5302873926
 20
237.2018233241
 30
0.0
 10
299.2686971976
 20
237.2761222744
 30
0.0
 10
299.0113166246
 20
237.3636728623
 30
0.0
 10
298.7601809262
 20
237.4637463191
 30
0.0
 10
298.5172984693
 20
237.5755829608
 30
0.0
 10
298.2845823984
 20
237.6982570167
 30
0.0
 10
298.0638987451
 20
237.8308353199
 30
0.0
 10
297.8569744732
 20
237.9722269075
 30
0.0
 10
297.6654765571
 20
238.1213569772
 30
0.0
 10
297.4908854738
 20
238.277012993
 30
0.0
 10
297.33463249
 20
238.4380020911
 30
0.0
 10
297.2412594314
 20
238.5507134525
 30
0.0
 10
297.1982061189
 20
238.6076622588
 30
0.0
  0
SPLINE
  5
37A
100
AcDbEntity
  8
0
100
AcDbSpline
 62
7
  6
CONTINUOUS
 70
0
 71
3
 72
15
 73
11
 74
0
 42
0.0000001
 43
0.0000001
 44
0.0000000001
 40
0.0
 40
0.0
 40
0.0
 40
0.0
 40
0.1229247876
 40
0.2489737697
 40
0.3769217687
 40
0.5054668024
 40
0.633303194
 40
0.7591383557
 40
0.8817408885
 40
1.0
 40
1.0
 40
1.0
 40
1.0
 10
299.6014994937
 20
236.2391936807
 30
0.0
 10
299.4706445833
 20
236.2451173866
 30
0.0
 10
299.205995302
 20
236.2678001903
 30
0.0
 10
298.8091623879
 20
236.3319655238
 30
0.0
 10
298.4121322668
 20
236.425873875
 30
0.0
 10
298.0208713266
 20
236.5480077962
 30
0.0
 10
297.6413196889
 20
236.6966836634
 30
0.0
 10
297.2790964139
 20
236.8694751895
 30
0.0
 10
296.9397808891
 20
237.0639926154
 30
0.0
 10
296.7276618524
 20
237.2091242827
 30
0.0
 10
296.6269295725
 20
237.2848430678
 30
0.0
  0
SPLINE
  5
37B
100
AcDbEntity
  8
0
100
AcDbSpline
 62
7
  6
CONTINUOUS
 70
0
 71
3
 72
10
 73
6
 74
0
 42
0.0000001
 43
0.0000001
 44
0.0000000001
 40
0.0
 40
0.0
 40
0.0
 40
0.0
 40
0.2252054953
 40
0.4673314902
 40
1.0
 40
1.0
 40
1.0
 40
1.0
 10
291.6920856441
 20
208.1731091807
 30
0.0
 10
291.6990635665
 20
208.1838858748
 30
0.0
 10
291.7126032277
 20
208.2068672175
 30
0.0
 10
291.7380512834
 20
208.2579144213
 30
0.0
 10
291.7540297072
 20
208.2992210799
 30
0.0
 10
291.7637110726
 20
208.3280029035
 30
0.0
  0
SPLINE
  5
37C
100
AcDbEntity
  8
0
100
AcDbSpline
 62
7
  6
CONTINUOUS
 70
0
 71
3
 72
14
 73
10
 74
0
 42
0.0000001
 43
0.0000001
 44
0.0000000001
 40
0.0
 40
0.0
 40
0.0
 40
0.0
 40
0.0916576507
 40
0.1970514468
 40
0.3145863749
 40
0.4424084505
 40
0.5782251468
 40
0.7190625391
 40
1.0
 40
1.0
 40
1.0
 40
1.0
 10
298.4800112822
 20
228.6662007769
 30
0.0
 10
298.4809018995
 20
228.6170074287
 30
0.0
 10
298.4795183255
 20
228.5111874436
 30
0.0
 10
298.4706122017
 20
228.3425319673
 30
0.0
 10
298.4559901945
 20
228.1548077076
 30
0.0
 10
298.4378584876
 20
227.951003115
 30
0.0
 10
298.4190846277
 20
227.7346862712
 30
0.0
 10
298.3975385655
 20
227.4361679592
 30
0.0
 10
298.3900361981
 20
227.2096082572
 30
0.0
 10
298.3923455449
 20
227.0588199904
 30
0.0
  0
SPLINE
  5
37D
100
AcDbEntity
  8
0
100
AcDbSpline
 62
7
  6
CONTINUOUS
 70
0
 71
3
 72
11
 73
7
 74
0
 42
0.0000001
 43
0.0000001
 44
0.0000000001
 40
0.0
 40
0.0
 40
0.0
 40
0.0
 40
0.2425450728
 40
0.4881799755
 40
0.7398154914
 40
1.0
 40
1.0
 40
1.0
 40
1.0
 10
303.6199728737
 20
237.7604167514
 30
0.0
 10
303.6379011253
 20
237.8184476807
 30
0.0
 10
303.6658714355
 20
237.9379273051
 30
0.0
 10
303.683003537
 20
238.1229424179
 30
0.0
 10
303.6753380346
 20
238.3129792856
 30
0.0
 10
303.6542347634
 20
238.4397626824
 30
0.0
 10
303.6399049488
 20
238.5033217588
 30
0.0
  0
SPLINE
  5
37E
100
AcDbEntity
  8
0
100
AcDbSpline
 62
7
  6
CONTINUOUS
 70
0
 71
3
 72
13
 73
9
 74
0
 42
0.0000001
 43
0.0000001
 44
0.0000000001
 40
0.0
 40
0.0
 40
0.0
 40
0.0
 40
0.1213552888
 40
0.2428855251
 40
0.3650771187
 40
0.4883620559
 40
0.7396884564
 40
1.0
 40
1.0
 40
1.0
 40
1.0
 10
302.8745659858
 20
236.9897464937
 30
0.0
 10
302.8860889095
 20
237.0225250929
 30
0.0
 10
302.906744553
 20
237.0890058745
 30
0.0
 10
302.9302586695
 20
237.1909441383
 30
0.0
 10
302.9462970917
 20
237.2948886915
 30
0.0
 10
302.9577425362
 20
237.4367741875
 30
0.0
 10
302.9528234507
 20
237.6191098285
 30
0.0
 10
302.9292283685
 20
237.7641492617
 30
0.0
 10
302.912836686
 20
237.8368536355
 30
0.0
  0
SPLINE
  5
37F
100
AcDbEntity
  8
0
100
AcDbSpline
 62
7
  6
CONTINUOUS
 70
0
 71
3
 72
11
 73
7
 74
0
 42
0.0000001
 43
0.0000001
 44
0.0000000001
 40
0.0
 40
0.0
 40
0.0
 40
0.0
 40
0.254477158
 40
0.5051540516
 40
0.7532325316
 40
1.0
 40
1.0
 40
1.0
 40
1.0
 10
288.1080626589
 20
216.8077173983
 30
0.0
 10
288.0834435849
 20
216.7751388769
 30
0.0
 10
288.037188449
 20
216.7084369794
 30
0.0
 10
287.9769558031
 20
216.60347854
 30
0.0
 10
287.9266496948
 20
216.4947749052
 30
0.0
 10
287.8997949063
 20
216.4199166045
 30
0.0
 10
287.8881038039
 20
216.3820844467
 30
0.0
  0
SPLINE
  5
380
100
AcDbEntity
  8
0
100
AcDbSpline
 62
7
  6
CONTINUOUS
 70
0
 71
3
 72
14
 73
10
 74
0
 42
0.0000001
 43
0.0000001
 44
0.0000000001
 40
0.0
 40
0.0
 40
0.0
 40
0.0
 40
0.182976957
 40
0.3423847858
 40
0.6045498248
 40
0.7143321456
 40
0.8145465622
 40
0.9086327707
 40
1.0
 40
1.0
 40
1.0
 40
1.0
 10
298.7521181924
 20
239.3651450395
 30
0.0
 10
298.7679108931
 20
239.4162502854
 30
0.0
 10
298.79676191
 20
239.5120985922
 30
0.0
 10
298.8446296496
 20
239.6822258431
 30
0.0
 10
298.8823662864
 20
239.8329650437
 30
0.0
 10
298.9110436993
 20
239.9679906123
 30
0.0
 10
298.9277312569
 20
240.0553082034
 30
0.0
 10
298.9421324293
 20
240.1375683575
 30
0.0
 10
298.9510752561
 20
240.1910394311
 30
0.0
 10
298.955505518
 20
240.217378888
 30
0.0
  0
SPLINE
  5
381
100
AcDbEntity
  8
0
100
AcDbSpline
 62
7
  6
CONTINUOUS
 70
0
 71
3
 72
15
 73
11
 74
0
 42
0.0000001
 43
0.0000001
 44
0.0000000001
 40
0.0
 40
0.0
 40
0.0
 40
0.0
 40
0.1133371837
 40
0.2302828887
 40
0.3508116328
 40
0.4747986239
 40
0.6020316086
 40
0.7322217549
 40
0.8650141963
 40
1.0
 40
1.0
 40
1.0
 40
1.0
 10
292.798034402
 20
209.506348374
 30
0.0
 10
292.8751325801
 20
209.7232620505
 30
0.0
 10
293.0526520375
 20
210.1568251683
 30
0.0
 10
293.3793614297
 20
210.7909685377
 30
0.0
 10
293.7682729807
 20
211.414620536
 30
0.0
 10
294.2164957942
 20
212.0231612319
 30
0.0
 10
294.720749303
 20
212.6121650935
 30
0.0
 10
295.277351714
 20
213.177310675
 30
0.0
 10
295.8821974197
 20
213.7144134241
 30
0.0
 10
296.311689355
 20
214.0488387466
 30
0.0
 10
296.5331665108
 20
214.2104635587
 30
0.0
  0
SPLINE
  5
382
100
AcDbEntity
  8
0
100
AcDbSpline
 62
7
  6
CONTINUOUS
 70
0
 71
3
 72
9
 73
5
 74
0
 42
0.0000001
 43
0.0000001
 44
0.0000000001
 40
0.0
 40
0.0
 40
0.0
 40
0.0
 40
0.2497153529
 40
1.0
 40
1.0
 40
1.0
 40
1.0
 10
297.5803767998
 20
226.1737490764
 30
0.0
 10
297.5750779176
 20
226.2029491193
 30
0.0
 10
297.5537766335
 20
226.3198644584
 30
0.0
 10
297.5331422987
 20
226.4369261736
 30
0.0
 10
297.5197251933
 20
226.525077065
 30
0.0
  0
SPLINE
  5
383
100
AcDbEntity
  8
0
100
AcDbSpline
 62
7
  6
CONTINUOUS
 70
0
 71
3
 72
15
 73
11
 74
0
 42
0.0000001
 43
0.0000001
 44
0.0000000001
 40
0.0
 40
0.0
 40
0.0
 40
0.0
 40
0.1474999268
 40
0.2883051526
 40
0.4222536953
 40
0.549392071
 40
0.6700145022
 40
0.784692665
 40
0.8942969047
 40
1.0
 40
1.0
 40
1.0
 40
1.0
 10
292.798034402
 20
209.506348374
 30
0.0
 10
292.8706197255
 20
209.4370985192
 30
0.0
 10
293.0077750216
 20
209.296655497
 30
0.0
 10
293.1917984382
 20
209.0757591405
 30
0.0
 10
293.3480731247
 20
208.8510281212
 30
0.0
 10
293.4753041644
 20
208.6242151319
 30
0.0
 10
293.5724172577
 20
208.3970748152
 30
0.0
 10
293.6385252043
 20
208.1713496469
 30
0.0
 10
293.6729509735
 20
207.9488965717
 30
0.0
 10
293.6744761565
 20
207.8018314285
 30
0.0
 10
293.6696909129
 20
207.7300981402
 30
0.0
  0
SPLINE
  5
384
100
AcDbEntity
  8
0
100
AcDbSpline
 62
7
  6
CONTINUOUS
 70
0
 71
3
 72
22
 73
18
 74
0
 42
0.0000001
 43
0.0000001
 44
0.0000000001
 40
0.0
 40
0.0
 40
0.0
 40
0.0
 40
0.0496549937
 40
0.0997654914
 40
0.1507667512
 40
0.2030562485
 40
0.2569807152
 40
0.3128283857
 40
0.3708259865
 40
0.4311393874
 40
0.4938766845
 40
0.5590926485
 40
0.6267937514
 40
0.6969432795
 40
0.7694662107
 40
0.8442538343
 40
1.0
 40
1.0
 40
1.0
 40
1.0
 10
284.9368320901
 20
206.8317570578
 30
0.0
 10
284.9522207
 20
206.8815552006
 30
0.0
 10
284.9890782576
 20
206.9798802328
 30
0.0
 10
285.0616753049
 20
207.1208787914
 30
0.0
 10
285.1513244454
 20
207.2550419565
 30
0.0
 10
285.2575602646
 20
207.3817248052
 30
0.0
 10
285.3798582601
 20
207.5003706445
 30
0.0
 10
285.5176295906
 20
207.6104626279
 30
0.0
 10
285.6702293722
 20
207.7115312479
 30
0.0
 10
285.8369570454
 20
207.8031474307
 30
0.0
 10
286.0170570437
 20
207.8849221086
 30
0.0
 10
286.2097188797
 20
207.9565061904
 30
0.0
 10
286.4140793815
 20
208.0175922717
 30
0.0
 10
286.6292208406
 20
208.06791551
 30
0.0
 10
286.8541896912
 20
208.1072592743
 30
0.0
 10
287.1701196798
 20
208.1453509299
 30
0.0
 10
287.4123604645
 20
208.1560229546
 30
0.0
 10
287.5758433987
 20
208.1560229546
 30
0.0
  0
SPLINE
  5
385
100
AcDbEntity
  8
0
100
AcDbSpline
 62
7
  6
CONTINUOUS
 70
0
 71
3
 72
15
 73
11
 74
0
 42
0.0000001
 43
0.0000001
 44
0.0000000001
 40
0.0
 40
0.0
 40
0.0
 40
0.0
 40
0.1290137664
 40
0.2561085495
 40
0.3816345759
 40
0.5059772917
 40
0.6295497326
 40
0.7527842344
 40
0.876120866
 40
1.0
 40
1.0
 40
1.0
 40
1.0
 10
286.0996003621
 20
211.1523371207
 30
0.0
 10
286.1051954507
 20
211.2913767791
 30
0.0
 10
286.1060649424
 20
211.5679236381
 30
0.0
 10
286.0755334079
 20
211.9788195184
 30
0.0
 10
286.013231793
 20
212.3810536388
 30
0.0
 10
285.9193409469
 20
212.7732095014
 30
0.0
 10
285.7941581432
 20
213.1539336236
 30
0.0
 10
285.6380863539
 20
213.5219058147
 30
0.0
 10
285.4516682882
 20
213.875815915
 30
0.0
 10
285.3080102691
 20
214.100877954
 30
0.0
 10
285.2315660985
 20
214.2104635587
 30
0.0
  0
SPLINE
  5
386
100
AcDbEntity
  8
0
100
AcDbSpline
 62
7
  6
CONTINUOUS
 70
0
 71
3
 72
11
 73
7
 74
0
 42
0.0000001
 43
0.0000001
 44
0.0000000001
 40
0.0
 40
0.0
 40
0.0
 40
0.0
 40
0.2647096378
 40
0.5200457179
 40
0.7652987317
 40
1.0
 40
1.0
 40
1.0
 40
1.0
 10
296.6269295725
 20
237.2848430678
 30
0.0
 10
296.5604220091
 20
237.3348357002
 30
0.0
 10
296.432610508
 20
237.4369229896
 30
0.0
 10
296.2544684583
 20
237.5988164896
 30
0.0
 10
296.0944213771
 20
237.7658005419
 30
0.0
 10
295.9983487139
 20
237.8823483251
 30
0.0
 10
295.9538612657
 20
237.9411941355
 30
0.0
  0
SPLINE
  5
387
100
AcDbEntity
  8
0
100
AcDbSpline
 62
7
  6
CONTINUOUS
 70
0
 71
3
 72
20
 73
16
 74
0
 42
0.0000001
 43
0.0000001
 44
0.0000000001
 40
0.0
 40
0.0
 40
0.0
 40
0.0
 40
0.0496607331
 40
0.0997770413
 40
0.1507842283
 40
0.2030798071
 40
0.2570105448
 40
0.3128647119
 40
0.3708690669
 40
0.4311894871
 40
0.4939340716
 40
0.5591575958
 40
0.6969604711
 40
0.8442359543
 40
1.0
 40
1.0
 40
1.0
 40
1.0
 10
285.644216813
 20
205.9592682509
 30
0.0
 10
285.656065501
 20
205.997610326
 30
0.0
 10
285.6844443032
 20
206.0733157103
 30
0.0
 10
285.7403410472
 20
206.1818774817
 30
0.0
 10
285.8093669797
 20
206.285176338
 30
0.0
 10
285.8911637574
 20
206.3827157348
 30
0.0
 10
285.9853275566
 20
206.4740670715
 30
0.0
 10
286.0914049908
 20
206.5588323206
 30
0.0
 10
286.2088998138
 20
206.6366501365
 30
0.0
 10
286.337271608
 20
206.7071893895
 30
0.0
 10
286.4759424002
 20
206.7701538523
 30
0.0
 10
286.6774070509
 20
206.8450019388
 30
0.0
 10
286.9519992013
 20
206.9169717284
 30
0.0
 10
287.3051703624
 20
206.9680813856
 30
0.0
 10
287.5502563691
 20
206.9788860846
 30
0.0
 10
287.6761301518
 20
206.9788860846
 30
0.0
  0
SPLINE
  5
388
100
AcDbEntity
  8
0
100
AcDbSpline
 62
7
  6
CONTINUOUS
 70
0
 71
3
 72
26
 73
22
 74
0
 42
0.0000001
 43
0.0000001
 44
0.0000000001
 40
0.0
 40
0.0
 40
0.0
 40
0.0
 40
0.0044117744
 40
0.0070735695
 40
0.0100966557
 40
0.0173298225
 40
0.0262590167
 40
0.0369549921
 40
0.0494563721
 40
0.0637841007
 40
0.0799496696
 40
0.1178080024
 40
0.1630297517
 40
0.2155696748
 40
0.2753557136
 40
0.3422950833
 40
0.4162773642
 40
0.4971762077
 40
0.5848504037
 40
0.7798897962
 40
1.0
 40
1.0
 40
1.0
 40
1.0
 10
111.7022115699
 20
98.89365
 30
0.0
 10
111.7009871968
 20
98.8903954699
 30
0.0
 10
111.6977232132
 20
98.8856750783
 30
0.0
 10
111.6919934174
 20
98.8801621498
 30
0.0
 10
111.6839112152
 20
98.8739302598
 30
0.0
 10
111.6707764956
 20
98.8663370217
 30
0.0
 10
111.6514329877
 20
98.8576875539
 30
0.0
 10
111.6276175274
 20
98.8490366887
 30
0.0
 10
111.5993250275
 20
98.8403873579
 30
0.0
 10
111.5665508245
 20
98.8317478544
 30
0.0
 10
111.5140579143
 20
98.8196060572
 30
0.0
 10
111.4372177788
 20
98.8048374764
 30
0.0
 10
111.3316503791
 20
98.788000882
 30
0.0
 10
111.2085924939
 20
98.7713197949
 30
0.0
 10
111.0682609149
 20
98.754833587
 30
0.0
 10
110.9109016668
 20
98.7385876816
 30
0.0
 10
110.7367975614
 20
98.7226189816
 30
0.0
 10
110.5462630506
 20
98.706961395
 30
0.0
 10
110.2604562465
 20
98.6857855693
 30
0.0
 10
109.8649313745
 20
98.6606866987
 30
0.0
 10
109.5381777117
 20
98.6433640462
 30
0.0
 10
109.3649018194
 20
98.6348726896
 30
0.0
  0
SPLINE
  5
389
100
AcDbEntity
  8
0
100
AcDbSpline
 62
7
  6
CONTINUOUS
 70
0
 71
3
 72
26
 73
22
 74
0
 42
0.0000001
 43
0.0000001
 44
0.0000000001
 40
0.0
 40
0.0
 40
0.0
 40
0.0
 40
0.0044117744
 40
0.0070735695
 40
0.0100966557
 40
0.0173298225
 40
0.0262590167
 40
0.0369549921
 40
0.0494563721
 40
0.0637841007
 40
0.0799496696
 40
0.1178080024
 40
0.1630297517
 40
0.2155696748
 40
0.2753557136
 40
0.3422950833
 40
0.4162773642
 40
0.4971762077
 40
0.5848504037
 40
0.7798897962
 40
1.0
 40
1.0
 40
1.0
 40
1.0
 10
119.2977884301
 20
98.89365
 30
0.0
 10
119.2990128032
 20
98.8903954699
 30
0.0
 10
119.3022767868
 20
98.8856750783
 30
0.0
 10
119.3080065826
 20
98.8801621498
 30
0.0
 10
119.3160887848
 20
98.8739302598
 30
0.0
 10
119.3292235044
 20
98.8663370217
 30
0.0
 10
119.3485670123
 20
98.8576875539
 30
0.0
 10
119.3723824726
 20
98.8490366887
 30
0.0
 10
119.4006749725
 20
98.8403873579
 30
0.0
 10
119.4334491755
 20
98.8317478544
 30
0.0
 10
119.4859420857
 20
98.8196060572
 30
0.0
 10
119.5627822212
 20
98.8048374764
 30
0.0
 10
119.6683496209
 20
98.788000882
 30
0.0
 10
119.7914075061
 20
98.7713197949
 30
0.0
 10
119.9317390851
 20
98.754833587
 30
0.0
 10
120.0890983332
 20
98.7385876816
 30
0.0
 10
120.2632024386
 20
98.7226189816
 30
0.0
 10
120.4537369494
 20
98.706961395
 30
0.0
 10
120.7395437535
 20
98.6857855693
 30
0.0
 10
121.1350686255
 20
98.6606866987
 30
0.0
 10
121.4618222883
 20
98.6433640462
 30
0.0
 10
121.6350981806
 20
98.6348726896
 30
0.0
  0
LINE
  5
38A
100
AcDbEntity
  8
0
100
AcDbLine
 62
7
  6
CONTINUOUS
 10
112.4354392053
 20
93.5027781674
 11
112.4517562142
 21
92.0947862367
  0
LINE
  5
38B
100
AcDbEntity
  8
0
100
AcDbLine
 62
7
  6
CONTINUOUS
 10
112.4517562142
 20
92.0947862367
 11
112.4517890032
 21
92.0919568774
  0
LINE
  5
38C
100
AcDbEntity
  8
0
100
AcDbLine
 62
7
  6
CONTINUOUS
 10
112.4517890032
 20
92.0919568774
 11
112.452
 21
92.07375
  0
LINE
  5
38D
100
AcDbEntity
  8
0
100
AcDbLine
 62
7
  6
CONTINUOUS
 10
118.5645607947
 20
93.5027781674
 11
118.548243923
 21
92.0947980772
  0
LINE
  5
38E
100
AcDbEntity
  8
0
100
AcDbLine
 62
7
  6
CONTINUOUS
 10
118.548243923
 20
92.0947980772
 11
118.5482109968
 21
92.0919568774
  0
LINE
  5
38F
100
AcDbEntity
  8
0
100
AcDbLine
 62
7
  6
CONTINUOUS
 10
118.5482109968
 20
92.0919568774
 11
118.548
 21
92.07375
  0
SPLINE
  5
390
100
AcDbEntity
  8
0
100
AcDbSpline
 62
7
  6
CONTINUOUS
 70
0
 71
3
 72
26
 73
22
 74
0
 42
0.0000001
 43
0.0000001
 44
0.0000000001
 40
0.0
 40
0.0
 40
0.0
 40
0.0
 40
0.2201102038
 40
0.4151495963
 40
0.5028237923
 40
0.5837226358
 40
0.6577049167
 40
0.7246442864
 40
0.7844303252
 40
0.8369702483
 40
0.8821919976
 40
0.9200503304
 40
0.9362158993
 40
0.9505436279
 40
0.9630450079
 40
0.9737409833
 40
0.9826701775
 40
0.9899033443
 40
0.9929264305
 40
0.9955882256
 40
1.0
 40
1.0
 40
1.0
 40
1.0
 10
109.3649018194
 20
96.2949273104
 30
0.0
 10
109.5381777117
 20
96.2864359538
 30
0.0
 10
109.8649313745
 20
96.2691133013
 30
0.0
 10
110.2604562465
 20
96.2440144307
 30
0.0
 10
110.5462630506
 20
96.222838605
 30
0.0
 10
110.7367975614
 20
96.2071810184
 30
0.0
 10
110.9109016668
 20
96.1912123184
 30
0.0
 10
111.0682609149
 20
96.174966413
 30
0.0
 10
111.2085924939
 20
96.1584802051
 30
0.0
 10
111.3316503791
 20
96.141799118
 30
0.0
 10
111.4372177788
 20
96.1249625236
 30
0.0
 10
111.5140579143
 20
96.1101939428
 30
0.0
 10
111.5665508245
 20
96.0980521456
 30
0.0
 10
111.5993250275
 20
96.0894126421
 30
0.0
 10
111.6276175274
 20
96.0807633113
 30
0.0
 10
111.6514329877
 20
96.0721124461
 30
0.0
 10
111.6707764956
 20
96.0634629783
 30
0.0
 10
111.6839112152
 20
96.0558697402
 30
0.0
 10
111.6919934174
 20
96.0496378502
 30
0.0
 10
111.6977232132
 20
96.0441249217
 30
0.0
 10
111.7009871968
 20
96.0394045301
 30
0.0
 10
111.7022115699
 20
96.03615
 30
0.0
  0
SPLINE
  5
391
100
AcDbEntity
  8
0
100
AcDbSpline
 62
7
  6
CONTINUOUS
 70
0
 71
3
 72
11
 73
7
 74
0
 42
0.0000001
 43
0.0000001
 44
0.0000000001
 40
0.0
 40
0.0
 40
0.0
 40
0.0
 40
0.2489108355
 40
0.5
 40
0.7510891645
 40
1.0
 40
1.0
 40
1.0
 40
1.0
 10
109.3649018194
 20
96.2949273104
 30
0.0
 10
109.3208073262
 20
96.4855935747
 30
0.0
 10
109.2545677304
 20
96.8741118969
 30
0.0
 10
109.221493416
 20
97.4649
 30
0.0
 10
109.2545677304
 20
98.0556881031
 30
0.0
 10
109.3208073262
 20
98.4442064253
 30
0.0
 10
109.3649018194
 20
98.6348726896
 30
0.0
  0
SPLINE
  5
392
100
AcDbEntity
  8
0
100
AcDbSpline
 62
7
  6
CONTINUOUS
 70
0
 71
3
 72
26
 73
22
 74
0
 42
0.0000001
 43
0.0000001
 44
0.0000000001
 40
0.0
 40
0.0
 40
0.0
 40
0.0
 40
0.2201102038
 40
0.4151495963
 40
0.5028237923
 40
0.5837226358
 40
0.6577049167
 40
0.7246442864
 40
0.7844303252
 40
0.8369702483
 40
0.8821919976
 40
0.9200503304
 40
0.9362158993
 40
0.9505436279
 40
0.9630450079
 40
0.9737409833
 40
0.9826701775
 40
0.9899033443
 40
0.9929264305
 40
0.9955882256
 40
1.0
 40
1.0
 40
1.0
 40
1.0
 10
121.6350981806
 20
96.2949273104
 30
0.0
 10
121.4618222883
 20
96.2864359538
 30
0.0
 10
121.1350686255
 20
96.2691133013
 30
0.0
 10
120.7395437535
 20
96.2440144307
 30
0.0
 10
120.4537369494
 20
96.222838605
 30
0.0
 10
120.2632024386
 20
96.2071810184
 30
0.0
 10
120.0890983332
 20
96.1912123184
 30
0.0
 10
119.9317390851
 20
96.174966413
 30
0.0
 10
119.7914075061
 20
96.1584802051
 30
0.0
 10
119.6683496209
 20
96.141799118
 30
0.0
 10
119.5627822212
 20
96.1249625236
 30
0.0
 10
119.4859420857
 20
96.1101939428
 30
0.0
 10
119.4334491755
 20
96.0980521456
 30
0.0
 10
119.4006749725
 20
96.0894126421
 30
0.0
 10
119.3723824726
 20
96.0807633113
 30
0.0
 10
119.3485670123
 20
96.0721124461
 30
0.0
 10
119.3292235044
 20
96.0634629783
 30
0.0
 10
119.3160887848
 20
96.0558697402
 30
0.0
 10
119.3080065826
 20
96.0496378502
 30
0.0
 10
119.3022767868
 20
96.0441249217
 30
0.0
 10
119.2990128032
 20
96.0394045301
 30
0.0
 10
119.2977884301
 20
96.03615
 30
0.0
  0
SPLINE
  5
393
100
AcDbEntity
  8
0
100
AcDbSpline
 62
7
  6
CONTINUOUS
 70
0
 71
3
 72
11
 73
7
 74
0
 42
0.0000001
 43
0.0000001
 44
0.0000000001
 40
0.0
 40
0.0
 40
0.0
 40
0.0
 40
0.2489108355
 40
0.5
 40
0.7510891645
 40
1.0
 40
1.0
 40
1.0
 40
1.0
 10
121.6350981806
 20
98.6348726896
 30
0.0
 10
121.6791926738
 20
98.4442064253
 30
0.0
 10
121.7454322696
 20
98.0556881031
 30
0.0
 10
121.778506584
 20
97.4649
 30
0.0
 10
121.7454322696
 20
96.8741118969
 30
0.0
 10
121.6791926738
 20
96.4855935747
 30
0.0
 10
121.6350981806
 20
96.2949273104
 30
0.0
  0
SPLINE
  5
394
100
AcDbEntity
  8
0
100
AcDbSpline
 62
7
  6
CONTINUOUS
 70
0
 71
3
 72
15
 73
11
 74
0
 42
0.0000001
 43
0.0000001
 44
0.0000000001
 40
0.0
 40
0.0
 40
0.0
 40
0.0
 40
0.0912462307
 40
0.1945250416
 40
0.3090113134
 40
0.4335851087
 40
0.5668397112
 40
0.7070644271
 40
0.8522301155
 40
1.0
 40
1.0
 40
1.0
 40
1.0
 10
111.0734317458
 20
98.8282380685
 30
0.0
 10
111.0600753835
 20
98.8451425594
 30
0.0
 10
111.0337514784
 20
98.882892382
 30
0.0
 10
110.9973224481
 20
98.9461820662
 30
0.0
 10
110.9620575851
 20
99.0189807416
 30
0.0
 10
110.9285967483
 20
99.1003214248
 30
0.0
 10
110.8975516907
 20
99.1890741958
 30
0.0
 10
110.8695056029
 20
99.283897081
 30
0.0
 10
110.8449923015
 20
99.3832229813
 30
0.0
 10
110.8313533674
 20
99.4510559442
 30
0.0
 10
110.825204825
 20
99.4854
 30
0.0
  0
LINE
  5
395
100
AcDbEntity
  8
0
100
AcDbLine
 62
7
  6
CONTINUOUS
 10
111.1257998848
 20
98.761960288
 11
111.0734317458
 21
98.8282380685
  0
LINE
  5
396
100
AcDbEntity
  8
0
100
AcDbLine
 62
7
  6
CONTINUOUS
 10
119.9265682542
 20
98.8282380685
 11
119.8742001152
 21
98.761960288
  0
SPLINE
  5
397
100
AcDbEntity
  8
0
100
AcDbSpline
 62
7
  6
CONTINUOUS
 70
0
 71
3
 72
15
 73
11
 74
0
 42
0.0000001
 43
0.0000001
 44
0.0000000001
 40
0.0
 40
0.0
 40
0.0
 40
0.0
 40
0.1477698843
 40
0.2929355728
 40
0.4331602887
 40
0.5664148912
 40
0.6909886865
 40
0.8054749584
 40
0.9087537693
 40
1.0
 40
1.0
 40
1.0
 40
1.0
 10
120.174795175
 20
99.4854
 30
0.0
 10
120.1686466326
 20
99.4510559443
 30
0.0
 10
120.1550076985
 20
99.3832229814
 30
0.0
 10
120.1304943971
 20
99.2838970811
 30
0.0
 10
120.1024483093
 20
99.1890741959
 30
0.0
 10
120.0714032517
 20
99.1003214249
 30
0.0
 10
120.0379424149
 20
99.0189807417
 30
0.0
 10
120.0026775519
 20
98.9461820662
 30
0.0
 10
119.9662485216
 20
98.882892382
 30
0.0
 10
119.9399246165
 20
98.8451425594
 30
0.0
 10
119.9265682542
 20
98.8282380685
 30
0.0
  0
SPLINE
  5
398
100
AcDbEntity
  8
0
100
AcDbSpline
 62
7
  6
CONTINUOUS
 70
0
 71
3
 72
26
 73
22
 74
0
 42
0.0000001
 43
0.0000001
 44
0.0000000001
 40
0.0
 40
0.0
 40
0.0
 40
0.0
 40
0.01253702
 40
0.0250574566
 40
0.0380426207
 40
0.0519420174
 40
0.0671291519
 40
0.0838908769
 40
0.1024340906
 40
0.1228970159
 40
0.1453614168
 40
0.1698628213
 40
0.22490486
 40
0.2876163777
 40
0.3571306167
 40
0.4322646394
 40
0.5116419777
 40
0.5938118436
 40
0.6773463588
 40
0.8432337481
 40
1.0
 40
1.0
 40
1.0
 40
1.0
 10
112.1570126655
 20
218.710503
 30
0.0
 10
112.1619893151
 20
218.710503
 30
0.0
 10
112.171970946
 20
218.7114913099
 30
0.0
 10
112.1864486367
 20
218.7161555474
 30
0.0
 10
112.2001165058
 20
218.7239763271
 30
0.0
 10
112.2128613659
 20
218.7349010836
 30
0.0
 10
112.2246197388
 20
218.7488807158
 30
0.0
 10
112.2353383152
 20
218.7658780305
 30
0.0
 10
112.2449606382
 20
218.7858587491
 30
0.0
 10
112.2534244593
 20
218.8087775238
 30
0.0
 10
112.2606675568
 20
218.8345704957
 30
0.0
 10
112.2689305765
 20
218.8742373289
 30
0.0
 10
112.2754088603
 20
218.9304490141
 30
0.0
 10
112.2773220511
 20
219.0048318121
 30
0.0
 10
112.273495163
 20
219.0871171542
 30
0.0
 10
112.2640131652
 20
219.1755840597
 30
0.0
 10
112.2491622567
 20
219.2683924493
 30
0.0
 10
112.229404786
 20
219.3636837429
 30
0.0
 10
112.1973628884
 20
219.4913833871
 30
0.0
 10
112.149277521
 20
219.6454384809
 30
0.0
 10
112.1026958923
 20
219.7648799058
 30
0.0
 10
112.0778684245
 20
219.8219420623
 30
0.0
  0
SPLINE
  5
399
100
AcDbEntity
  8
0
100
AcDbSpline
 62
7
  6
CONTINUOUS
 70
0
 71
3
 72
21
 73
17
 74
0
 42
0.0000001
 43
0.0000001
 44
0.0000000001
 40
0.0
 40
0.0
 40
0.0
 40
0.0
 40
0.1930495235
 40
0.3712471178
 40
0.4539345092
 40
0.531905987
 40
0.6048434394
 40
0.6724420912
 40
0.7344167889
 40
0.7905111014
 40
0.8405117033
 40
0.8842719297
 40
0.9217529432
 40
0.9531008294
 40
0.9788050564
 40
1.0
 40
1.0
 40
1.0
 40
1.0
 10
111.0734317458
 20
222.1319420623
 30
0.0
 10
111.0613839577
 20
222.1596662313
 30
0.0
 10
111.0375084836
 20
222.2126783744
 30
0.0
 10
111.0063829601
 20
222.2765961049
 30
0.0
 10
110.9818631285
 20
222.3236540723
 30
0.0
 10
110.9643188389
 20
222.3557528992
 30
0.0
 10
110.9472371033
 20
222.3854027715
 30
0.0
 10
110.9306955102
 20
222.4124616504
 30
0.0
 10
110.9147707955
 20
222.436791805
 30
0.0
 10
110.8995374668
 20
222.4582614373
 30
0.0
 10
110.8850675634
 20
222.476747791
 30
0.0
 10
110.8714260474
 20
222.492140275
 30
0.0
 10
110.858671697
 20
222.5043489985
 30
0.0
 10
110.8468207443
 20
222.513301819
 30
0.0
 10
110.8358672913
 20
222.518959165
 30
0.0
 10
110.8285236478
 20
222.520503
 30
0.0
 10
110.825204825
 20
222.520503
 30
0.0
  0
SPLINE
  5
39A
100
AcDbEntity
  8
0
100
AcDbSpline
 62
7
  6
CONTINUOUS
 70
0
 71
3
 72
9
 73
5
 74
0
 42
0.0000001
 43
0.0000001
 44
0.0000000001
 40
0.0
 40
0.0
 40
0.0
 40
0.0
 40
0.2500037688
 40
1.0
 40
1.0
 40
1.0
 40
1.0
 10
112.0778684245
 20
219.8219420623
 30
0.0
 10
111.9941197402
 20
220.0144256681
 30
0.0
 10
111.6591764606
 20
220.7843686757
 30
0.0
 10
111.324412372
 20
221.5543896329
 30
0.0
 10
111.0734317458
 20
222.1319420623
 30
0.0
  0
SPLINE
  5
39B
100
AcDbEntity
  8
0
100
AcDbSpline
 62
7
  6
CONTINUOUS
 70
0
 71
3
 72
26
 73
22
 74
0
 42
0.0000001
 43
0.0000001
 44
0.0000000001
 40
0.0
 40
0.0
 40
0.0
 40
0.0
 40
0.1567662514
 40
0.32265364
 40
0.4061881549
 40
0.4883580204
 40
0.5677353585
 40
0.642869381
 40
0.7123836202
 40
0.7750951373
 40
0.8301371754
 40
0.8546385814
 40
0.8771029836
 40
0.8975659096
 40
0.9161091236
 40
0.9328708484
 40
0.9480579829
 40
0.9619573794
 40
0.9749425434
 40
0.98746298
 40
1.0
 40
1.0
 40
1.0
 40
1.0
 10
118.9221315755
 20
219.8219420623
 30
0.0
 10
118.8973041078
 20
219.764879906
 30
0.0
 10
118.8507224792
 20
219.6454384816
 30
0.0
 10
118.802637112
 20
219.4913833884
 30
0.0
 10
118.7705952144
 20
219.3636837447
 30
0.0
 10
118.7508377437
 20
219.2683924514
 30
0.0
 10
118.7359868352
 20
219.1755840622
 30
0.0
 10
118.7265048371
 20
219.0871171568
 30
0.0
 10
118.7226779491
 20
219.004831815
 30
0.0
 10
118.7245911394
 20
218.9304490174
 30
0.0
 10
118.7310694231
 20
218.874237332
 30
0.0
 10
118.7393324426
 20
218.8345704978
 30
0.0
 10
118.7465755405
 20
218.8087775246
 30
0.0
 10
118.7550393618
 20
218.7858587491
 30
0.0
 10
118.764661685
 20
218.7658780301
 30
0.0
 10
118.7753802615
 20
218.7488807155
 30
0.0
 10
118.7871386343
 20
218.7349010834
 30
0.0
 10
118.7998834943
 20
218.723976327
 30
0.0
 10
118.8135513633
 20
218.7161555474
 30
0.0
 10
118.828029054
 20
218.7114913099
 30
0.0
 10
118.8380106849
 20
218.710503
 30
0.0
 10
118.8429873345
 20
218.710503
 30
0.0
  0
SPLINE
  5
39C
100
AcDbEntity
  8
0
100
AcDbSpline
 62
7
  6
CONTINUOUS
 70
0
 71
3
 72
9
 73
5
 74
0
 42
0.0000001
 43
0.0000001
 44
0.0000000001
 40
0.0
 40
0.0
 40
0.0
 40
0.0
 40
0.2499963167
 40
1.0
 40
1.0
 40
1.0
 40
1.0
 10
119.9265682542
 20
222.1319420623
 30
0.0
 10
119.8429088577
 20
221.9394264549
 30
0.0
 10
119.5082257531
 20
221.1693703184
 30
0.0
 10
119.1733750747
 20
220.3993870103
 30
0.0
 10
118.9221315755
 20
219.8219420623
 30
0.0
  0
SPLINE
  5
39D
100
AcDbEntity
  8
0
100
AcDbSpline
 62
7
  6
CONTINUOUS
 70
0
 71
3
 72
21
 73
17
 74
0
 42
0.0000001
 43
0.0000001
 44
0.0000000001
 40
0.0
 40
0.0
 40
0.0
 40
0.0
 40
0.0211949436
 40
0.0468991705
 40
0.0782470567
 40
0.1157280703
 40
0.1594882966
 40
0.2094888985
 40
0.265583211
 40
0.3275579087
 40
0.3951565605
 40
0.4680940129
 40
0.5460654907
 40
0.6287528821
 40
0.8069504765
 40
1.0
 40
1.0
 40
1.0
 40
1.0
 10
120.174795175
 20
222.520503
 30
0.0
 10
120.1714763523
 20
222.520503
 30
0.0
 10
120.1641327087
 20
222.518959165
 30
0.0
 10
120.1531792557
 20
222.513301819
 30
0.0
 10
120.141328303
 20
222.5043489985
 30
0.0
 10
120.1285739526
 20
222.492140275
 30
0.0
 10
120.1149324366
 20
222.476747791
 30
0.0
 10
120.1004625332
 20
222.4582614374
 30
0.0
 10
120.0852292045
 20
222.436791805
 30
0.0
 10
120.0693044899
 20
222.4124616505
 30
0.0
 10
120.0527628967
 20
222.3854027715
 30
0.0
 10
120.0356811611
 20
222.3557528992
 30
0.0
 10
120.0181368715
 20
222.3236540723
 30
0.0
 10
119.9936170399
 20
222.2765961049
 30
0.0
 10
119.9624915164
 20
222.2126783744
 30
0.0
 10
119.9386160423
 20
222.1596662313
 30
0.0
 10
119.9265682542
 20
222.1319420623
 30
0.0
  0
SPLINE
  5
39E
100
AcDbEntity
  8
0
100
AcDbSpline
 62
7
  6
CONTINUOUS
 70
0
 71
3
 72
13
 73
9
 74
0
 42
0.0000001
 43
0.0000001
 44
0.0000000001
 40
0.0
 40
0.0
 40
0.0
 40
0.0
 40
0.1338300819
 40
0.2600910651
 40
0.4408110476
 40
0.6186933916
 40
0.8022511676
 40
1.0
 40
1.0
 40
1.0
 40
1.0
 10
112.4354392053
 20
226.711503
 30
0.0
 10
112.4354392053
 20
226.8453352821
 30
0.0
 10
112.435913895
 20
227.1054308354
 30
0.0
 10
112.4381465054
 20
227.5462440539
 30
0.0
 10
112.4420601237
 20
228.031100043
 30
0.0
 10
112.4469843996
 20
228.5732465929
 30
0.0
 10
112.4509596493
 20
229.1324314235
 30
0.0
 10
112.452
 20
229.5137449166
 30
0.0
 10
112.452
 20
229.711497
 30
0.0
  0
SPLINE
  5
39F
100
AcDbEntity
  8
0
100
AcDbSpline
 62
7
  6
CONTINUOUS
 70
0
 71
3
 72
13
 73
9
 74
0
 42
0.0000001
 43
0.0000001
 44
0.0000000001
 40
0.0
 40
0.0
 40
0.0
 40
0.0
 40
0.1338300819
 40
0.2600910651
 40
0.4408110476
 40
0.6186933916
 40
0.8022511676
 40
1.0
 40
1.0
 40
1.0
 40
1.0
 10
118.5645607947
 20
226.711503
 30
0.0
 10
118.5645607947
 20
226.8453352821
 30
0.0
 10
118.564086105
 20
227.1054308354
 30
0.0
 10
118.5618534946
 20
227.5462440539
 30
0.0
 10
118.5579398763
 20
228.031100043
 30
0.0
 10
118.5530156004
 20
228.5732465929
 30
0.0
 10
118.5490403507
 20
229.1324314235
 30
0.0
 10
118.548
 20
229.5137449166
 30
0.0
 10
118.548
 20
229.711497
 30
0.0
  0
SPLINE
  5
3A0
100
AcDbEntity
  8
0
100
AcDbSpline
 62
7
  6
CONTINUOUS
 70
0
 71
3
 72
15
 73
11
 74
0
 42
0.0000001
 43
0.0000001
 44
0.0000000001
 40
0.0
 40
0.0
 40
0.0
 40
0.0
 40
0.1250022259
 40
0.2500021815
 40
0.3750004327
 40
0.4999988899
 40
0.6249984172
 40
0.749998829
 40
0.8749995306
 40
1.0
 40
1.0
 40
1.0
 40
1.0
 10
111.442388527
 20
205.7565063729
 30
0.0
 10
111.4562054524
 20
205.8390376893
 30
0.0
 10
111.487477013
 20
206.0035167513
 30
0.0
 10
111.5456976275
 20
206.2477960543
 30
0.0
 10
111.6149888563
 20
206.4891627948
 30
0.0
 10
111.6942813469
 20
206.7274086573
 30
0.0
 10
111.7816799228
 20
206.9627749745
 30
0.0
 10
111.8745487479
 20
207.196012724
 30
0.0
 10
111.9697000362
 20
207.4283145376
 30
0.0
 10
112.0322565155
 20
207.5835485869
 30
0.0
 10
112.0626742457
 20
207.661503
 30
0.0
  0
SPLINE
  5
3A1
100
AcDbEntity
  8
0
100
AcDbSpline
 62
7
  6
CONTINUOUS
 70
0
 71
3
 72
24
 73
20
 74
0
 42
0.0000001
 43
0.0000001
 44
0.0000000001
 40
0.0
 40
0.0
 40
0.0
 40
0.0
 40
0.1814310938
 40
0.3562311774
 40
0.4388709732
 40
0.5171236965
 40
0.5902870666
 40
0.657867212
 40
0.7195786709
 40
0.7753158617
 40
0.8251213986
 40
0.8691748373
 40
0.907826313
 40
0.9253256912
 40
0.9417380958
 40
0.9572094141
 40
0.9719229943
 40
0.9861018033
 40
1.0
 40
1.0
 40
1.0
 40
1.0
 10
112.0626742457
 20
207.661503
 30
0.0
 10
112.0997224556
 20
207.7564499747
 30
0.0
 10
112.1653821256
 20
207.9458219361
 30
0.0
 10
112.2192961947
 20
208.1871886325
 30
0.0
 10
112.2402341718
 20
208.3747597826
 30
0.0
 10
112.2447708912
 20
208.5063028637
 30
0.0
 10
112.2389535547
 20
208.6293320592
 30
0.0
 10
112.2237251672
 20
208.7421912147
 30
0.0
 10
112.2003026089
 20
208.8436232417
 30
0.0
 10
112.1700404721
 20
208.932752233
 30
0.0
 10
112.1342991968
 20
209.0090279955
 30
0.0
 10
112.0943707311
 20
209.0721027348
 30
0.0
 10
112.0573265607
 20
209.1148791254
 30
0.0
 10
112.026478749
 20
209.1416187682
 30
0.0
 10
112.0036981214
 20
209.1575479938
 30
0.0
 10
111.9805962564
 20
209.1699933116
 30
0.0
 10
111.9572475515
 20
209.1789230036
 30
0.0
 10
111.9337368961
 20
209.1843004981
 30
0.0
 10
111.9179398111
 20
209.185503
 30
0.0
 10
111.910132487
 20
209.185503
 30
0.0
  0
SPLINE
  5
3A2
100
AcDbEntity
  8
0
100
AcDbSpline
 62
7
  6
CONTINUOUS
 70
0
 71
3
 72
24
 73
20
 74
0
 42
0.0000001
 43
0.0000001
 44
0.0000000001
 40
0.0
 40
0.0
 40
0.0
 40
0.0
 40
0.0138981868
 40
0.0280769839
 40
0.0427905604
 40
0.0582618834
 40
0.0746742867
 40
0.0921736656
 40
0.1308251407
 40
0.1748785783
 40
0.2246841153
 40
0.2804213055
 40
0.3421327651
 40
0.409712911
 40
0.4828762822
 40
0.5611290075
 40
0.6437688059
 40
0.8185688969
 40
1.0
 40
1.0
 40
1.0
 40
1.0
 10
119.089867513
 20
209.185503
 30
0.0
 10
119.0820601944
 20
209.185503
 30
0.0
 10
119.0662631213
 20
209.1843005051
 30
0.0
 10
119.04275248
 20
209.1789230116
 30
0.0
 10
119.0194037801
 20
209.1699933251
 30
0.0
 10
118.9963019102
 20
209.1575480166
 30
0.0
 10
118.9735212804
 20
209.1416187899
 30
0.0
 10
118.9426734648
 20
209.1148791528
 30
0.0
 10
118.9056292916
 20
209.0721027648
 30
0.0
 10
118.8657008218
 20
209.0090280293
 30
0.0
 10
118.8299595425
 20
208.9327522697
 30
0.0
 10
118.7996974014
 20
208.8436232797
 30
0.0
 10
118.77627484
 20
208.742191253
 30
0.0
 10
118.7610464486
 20
208.6293320967
 30
0.0
 10
118.7552291085
 20
208.5063028993
 30
0.0
 10
118.7597658256
 20
208.3747598149
 30
0.0
 10
118.780703801
 20
208.1871886578
 30
0.0
 10
118.8346178699
 20
207.9458219502
 30
0.0
 10
118.9002775425
 20
207.7564499796
 30
0.0
 10
118.9373257543
 20
207.661503
 30
0.0
  0
SPLINE
  5
3A3
100
AcDbEntity
  8
0
100
AcDbSpline
 62
7
  6
CONTINUOUS
 70
0
 71
3
 72
15
 73
11
 74
0
 42
0.0000001
 43
0.0000001
 44
0.0000000001
 40
0.0
 40
0.0
 40
0.0
 40
0.0
 40
0.1250004694
 40
0.250001171
 40
0.3750015829
 40
0.5000011106
 40
0.6249995673
 40
0.7499978168
 40
0.8749977722
 40
1.0
 40
1.0
 40
1.0
 40
1.0
 10
118.9373257543
 20
207.661503
 30
0.0
 10
118.9677434845
 20
207.5835485869
 30
0.0
 10
119.0302999638
 20
207.4283145376
 30
0.0
 10
119.1254512521
 20
207.1960127239
 30
0.0
 10
119.2183200772
 20
206.9627749741
 30
0.0
 10
119.3057186524
 20
206.7274086567
 30
0.0
 10
119.3850111433
 20
206.4891627957
 30
0.0
 10
119.4543023719
 20
206.2477960566
 30
0.0
 10
119.5125229859
 20
206.0035167535
 30
0.0
 10
119.5437945473
 20
205.8390376906
 30
0.0
 10
119.557611473
 20
205.7565063729
 30
0.0
  0
SPLINE
  5
3A4
100
AcDbEntity
  8
0
100
AcDbSpline
 62
7
  6
CONTINUOUS
 70
0
 71
3
 72
26
 73
22
 74
0
 42
0.0000001
 43
0.0000001
 44
0.0000000001
 40
0.0
 40
0.0
 40
0.0
 40
0.0
 40
0.0125235583
 40
0.0250059103
 40
0.0379353076
 40
0.0517699342
 40
0.0668919035
 40
0.0835948891
 40
0.1020903636
 40
0.1225194566
 40
0.1449649297
 40
0.1694620459
 40
0.2245346902
 40
0.2873130602
 40
0.3569082168
 40
0.4321162946
 40
0.5115471772
 40
0.5937458336
 40
0.6772888422
 40
0.843176451
 40
1.0
 40
1.0
 40
1.0
 40
1.0
 10
117.8432072367
 20
218.710503
 30
0.0
 10
117.838231191
 20
218.710503
 30
0.0
 10
117.828260021
 20
218.7114899187
 30
0.0
 10
117.8138134207
 20
218.716163993
 30
0.0
 10
117.8002118362
 20
218.7240077603
 30
0.0
 10
117.7875715959
 20
218.7349681244
 30
0.0
 10
117.7759572373
 20
218.7489947215
 30
0.0
 10
117.7654215357
 20
218.7660494094
 30
0.0
 10
117.7560201226
 20
218.7860974269
 30
0.0
 10
117.7478151287
 20
218.8090928462
 30
0.0
 10
117.7408679765
 20
218.8349702871
 30
0.0
 10
117.733063719
 20
218.8747724697
 30
0.0
 10
117.7272500789
 20
218.9311486083
 30
0.0
 10
117.726221836
 20
219.0056904305
 30
0.0
 10
117.7310233492
 20
219.088091268
 30
0.0
 10
117.7415366509
 20
219.1766099111
 30
0.0
 10
117.757442688
 20
219.2693967427
 30
0.0
 10
117.778247955
 20
219.3645960991
 30
0.0
 10
117.8116396567
 20
219.4920939688
 30
0.0
 10
117.8612637425
 20
219.6458457901
 30
0.0
 10
117.9089355986
 20
219.7650087392
 30
0.0
 10
117.9342597801
 20
219.8219420623
 30
0.0
  0
SPLINE
  5
3A5
100
AcDbEntity
  8
0
100
AcDbSpline
 62
7
  6
CONTINUOUS
 70
0
 71
3
 72
21
 73
17
 74
0
 42
0.0000001
 43
0.0000001
 44
0.0000000001
 40
0.0
 40
0.0
 40
0.0
 40
0.0
 40
0.1928678325
 40
0.3709587837
 40
0.4536209564
 40
0.5315851191
 40
0.6045318626
 40
0.6721546204
 40
0.7341659005
 40
0.7903063578
 40
0.8403591106
 40
0.8841731712
 40
0.9217043607
 40
0.9530918976
 40
0.9788161172
 40
1.0
 40
1.0
 40
1.0
 40
1.0
 10
118.9567076688
 20
222.1319420623
 30
0.0
 10
118.9689123506
 20
222.1596453994
 30
0.0
 10
118.9930859352
 20
222.212625253
 30
0.0
 10
119.0245603525
 20
222.2765064325
 30
0.0
 10
119.0493368465
 20
222.323548557
 30
0.0
 10
119.0670587736
 20
222.355645452
 30
0.0
 10
119.0843058679
 20
222.3852988831
 30
0.0
 10
119.1009999823
 20
222.4123659804
 30
0.0
 10
119.1170637045
 20
222.4367080181
 30
0.0
 10
119.1324217338
 20
222.458192052
 30
0.0
 10
119.1470011176
 20
222.4766940488
 30
0.0
 10
119.1607358932
 20
222.4921020451
 30
0.0
 10
119.1735660717
 20
222.5043247259
 30
0.0
 10
119.1854742369
 20
222.5132886714
 30
0.0
 10
119.196464339
 20
222.5189537122
 30
0.0
 10
119.20382626
 20
222.520503
 30
0.0
 10
119.2071512873
 20
222.520503
 30
0.0
  0
SPLINE
  5
3A6
100
AcDbEntity
  8
0
100
AcDbSpline
 62
7
  6
CONTINUOUS
 70
0
 71
3
 72
21
 73
17
 74
0
 42
0.0000001
 43
0.0000001
 44
0.0000000001
 40
0.0
 40
0.0
 40
0.0
 40
0.0
 40
0.0649719831
 40
0.1285265833
 40
0.1911645203
 40
0.2532584133
 40
0.3459064977
 40
0.4383695449
 40
0.5308082144
 40
0.623255522
 40
0.7158083529
 40
0.8088177818
 40
0.8557301542
 40
0.9030974148
 40
0.951110017
 40
1.0
 40
1.0
 40
1.0
 40
1.0
 10
113.1650965374
 20
226.711503
 30
0.0
 10
113.1650965374
 20
226.7786729664
 30
0.0
 10
113.1597146859
 20
226.9116044429
 30
0.0
 10
113.1367679669
 20
227.1080593235
 30
0.0
 10
113.101212006
 20
227.2995718237
 30
0.0
 10
113.0475779591
 20
227.5179127927
 30
0.0
 10
112.9722848695
 20
227.7622984086
 30
0.0
 10
112.8758458573
 20
228.0325816394
 30
0.0
 10
112.7747708524
 20
228.3009036891
 30
0.0
 10
112.6760126293
 20
228.5702111762
 30
0.0
 10
112.5865475025
 20
228.8434469358
 30
0.0
 10
112.525825243
 20
229.0762475405
 30
0.0
 10
112.4890938976
 20
229.2664209764
 30
0.0
 10
112.468234365
 20
229.4121073942
 30
0.0
 10
112.4550470382
 20
229.5607472544
 30
0.0
 10
112.452
 20
229.6609530831
 30
0.0
 10
112.452
 20
229.711497
 30
0.0
  0
SPLINE
  5
3A7
100
AcDbEntity
  8
0
100
AcDbSpline
 62
7
  6
CONTINUOUS
 70
0
 71
3
 72
26
 73
22
 74
0
 42
0.0000001
 43
0.0000001
 44
0.0000000001
 40
0.0
 40
0.0
 40
0.0
 40
0.0
 40
0.1568235509
 40
0.322711162
 40
0.4062541718
 40
0.4884528293
 40
0.5678837127
 40
0.6430917911
 40
0.7126869482
 40
0.7754653178
 40
0.8305379619
 40
0.8550350778
 40
0.8774805509
 40
0.8979096435
 40
0.9164051168
 40
0.9331081021
 40
0.948230071
 40
0.9620646967
 40
0.9749940931
 40
0.9874764429
 40
1.0
 40
1.0
 40
1.0
 40
1.0
 10
113.0657402199
 20
219.8219420623
 30
0.0
 10
113.0910644017
 20
219.7650087385
 30
0.0
 10
113.1387362583
 20
219.6458457878
 30
0.0
 10
113.1883603446
 20
219.4920939644
 30
0.0
 10
113.2217520465
 20
219.3645960928
 30
0.0
 10
113.2425573134
 20
219.2693967352
 30
0.0
 10
113.2584633505
 20
219.1766099026
 30
0.0
 10
113.2689766514
 20
219.0880912586
 30
0.0
 10
113.2737781645
 20
219.0056904208
 30
0.0
 10
113.2727499204
 20
218.9311485987
 30
0.0
 10
113.2669362799
 20
218.8747724604
 30
0.0
 10
113.2591320212
 20
218.8349702783
 30
0.0
 10
113.2521848687
 20
218.8090928377
 30
0.0
 10
113.2439798745
 20
218.7860974191
 30
0.0
 10
113.2345784605
 20
218.7660494029
 30
0.0
 10
113.2240427588
 20
218.748994716
 30
0.0
 10
113.2124284001
 20
218.7349681197
 30
0.0
 10
113.1997881594
 20
218.7240077576
 30
0.0
 10
113.1861865759
 20
218.7161639917
 30
0.0
 10
113.1717399772
 20
218.711489918
 30
0.0
 10
113.1617688085
 20
218.710503
 30
0.0
 10
113.1567927633
 20
218.710503
 30
0.0
  0
SPLINE
  5
3A8
100
AcDbEntity
  8
0
100
AcDbSpline
 62
7
  6
CONTINUOUS
 70
0
 71
3
 72
21
 73
17
 74
0
 42
0.0000001
 43
0.0000001
 44
0.0000000001
 40
0.0
 40
0.0
 40
0.0
 40
0.0
 40
0.0211838828
 40
0.0469081023
 40
0.0782956392
 40
0.1158268287
 40
0.1596408893
 40
0.2096936421
 40
0.2658340995
 40
0.3278453795
 40
0.3954681374
 40
0.4684148808
 40
0.5463790435
 40
0.6290412163
 40
0.8071321674
 40
1.0
 40
1.0
 40
1.0
 40
1.0
 10
111.7928487127
 20
222.520503
 30
0.0
 10
111.79617374
 20
222.520503
 30
0.0
 10
111.803535661
 20
222.5189537122
 30
0.0
 10
111.814525763
 20
222.5132886714
 30
0.0
 10
111.8264339282
 20
222.5043247259
 30
0.0
 10
111.8392641068
 20
222.4921020452
 30
0.0
 10
111.8529988824
 20
222.4766940489
 30
0.0
 10
111.8675782662
 20
222.458192052
 30
0.0
 10
111.8829362955
 20
222.4367080181
 30
0.0
 10
111.8990000177
 20
222.4123659805
 30
0.0
 10
111.915694132
 20
222.3852988832
 30
0.0
 10
111.9329412264
 20
222.355645452
 30
0.0
 10
111.9506631535
 20
222.323548557
 30
0.0
 10
111.9754396474
 20
222.2765064325
 30
0.0
 10
112.0069140647
 20
222.212625253
 30
0.0
 10
112.0310876494
 20
222.1596453994
 30
0.0
 10
112.0432923312
 20
222.1319420623
 30
0.0
  0
SPLINE
  5
3A9
100
AcDbEntity
  8
0
100
AcDbSpline
 62
7
  6
CONTINUOUS
 70
0
 71
3
 72
21
 73
17
 74
0
 42
0.0000001
 43
0.0000001
 44
0.0000000001
 40
0.0
 40
0.0
 40
0.0
 40
0.0
 40
0.0649719831
 40
0.1285265833
 40
0.1911645203
 40
0.2532584133
 40
0.3459064977
 40
0.4383695449
 40
0.5308082144
 40
0.623255522
 40
0.7158083529
 40
0.8088177818
 40
0.8557301542
 40
0.9030974148
 40
0.951110017
 40
1.0
 40
1.0
 40
1.0
 40
1.0
 10
117.8349034626
 20
226.711503
 30
0.0
 10
117.8349034626
 20
226.7786729664
 30
0.0
 10
117.8402853141
 20
226.9116044429
 30
0.0
 10
117.8632320331
 20
227.1080593235
 30
0.0
 10
117.898787994
 20
227.2995718237
 30
0.0
 10
117.9524220409
 20
227.5179127927
 30
0.0
 10
118.0277151305
 20
227.7622984086
 30
0.0
 10
118.1241541427
 20
228.0325816394
 30
0.0
 10
118.2252291476
 20
228.3009036891
 30
0.0
 10
118.3239873707
 20
228.5702111762
 30
0.0
 10
118.4134524975
 20
228.8434469358
 30
0.0
 10
118.474174757
 20
229.0762475405
 30
0.0
 10
118.5109061024
 20
229.2664209764
 30
0.0
 10
118.531765635
 20
229.4121073942
 30
0.0
 10
118.5449529618
 20
229.5607472544
 30
0.0
 10
118.548
 20
229.6609530831
 30
0.0
 10
118.548
 20
229.711497
 30
0.0
  0
SPLINE
  5
3AA
100
AcDbEntity
  8
0
100
AcDbSpline
 62
7
  6
CONTINUOUS
 70
0
 71
3
 72
22
 73
18
 74
0
 42
0.0000001
 43
0.0000001
 44
0.0000000001
 40
0.0
 40
0.0
 40
0.0
 40
0.0
 40
0.1679169002
 40
0.2492072989
 40
0.327679564
 40
0.4026991325
 40
0.4737777685
 40
0.5406053408
 40
0.6030762007
 40
0.6613068822
 40
0.7156412646
 40
0.7666389875
 40
0.8150408227
 40
0.8617079909
 40
0.9075395552
 40
0.9533907168
 40
1.0
 40
1.0
 40
1.0
 40
1.0
 10
119.2727664771
 20
183.2457805249
 30
0.0
 10
119.2719179284
 20
183.1943380494
 30
0.0
 10
119.2676374955
 20
183.1179803974
 30
0.0
 10
119.2553349408
 20
183.0183093755
 30
0.0
 10
119.2430473557
 20
182.947395791
 30
0.0
 10
119.2276111938
 20
182.8803023009
 30
0.0
 10
119.2090415936
 20
182.8177101901
 30
0.0
 10
119.1873756675
 20
182.7601996361
 30
0.0
 10
119.1626725997
 20
182.7082367916
 30
0.0
 10
119.1350166588
 20
182.6621739242
 30
0.0
 10
119.104519736
 20
182.6222568118
 30
0.0
 10
119.0713274922
 20
182.5886377998
 30
0.0
 10
119.0356288455
 20
182.5613862467
 30
0.0
 10
118.9976632886
 20
182.5404907215
 30
0.0
 10
118.9577077107
 20
182.5258521967
 30
0.0
 10
118.9160636707
 20
182.5172927091
 30
0.0
 10
118.8876916191
 20
182.515503
 30
0.0
 10
118.8734106082
 20
182.515503
 30
0.0
  0
SPLINE
  5
3AB
100
AcDbEntity
  8
0
100
AcDbSpline
 62
7
  6
CONTINUOUS
 70
0
 71
3
 72
22
 73
18
 74
0
 42
0.0000001
 43
0.0000001
 44
0.0000000001
 40
0.0
 40
0.0
 40
0.0
 40
0.0
 40
0.0466092828
 40
0.0924604436
 40
0.1382920074
 40
0.1849591748
 40
0.233361009
 40
0.2843587306
 40
0.3386931118
 40
0.3969237921
 40
0.4593946518
 40
0.526222228
 40
0.5973008695
 40
0.6723204406
 40
0.7507927057
 40
0.8320831029
 40
1.0
 40
1.0
 40
1.0
 40
1.0
 10
112.1265893918
 20
182.515503
 30
0.0
 10
112.1123083811
 20
182.515503
 30
0.0
 10
112.0839363298
 20
182.5172927091
 30
0.0
 10
112.0422922903
 20
182.5258521965
 30
0.0
 10
112.0023367129
 20
182.5404907208
 30
0.0
 10
111.9643711565
 20
182.5613862454
 30
0.0
 10
111.9286725103
 20
182.5886377976
 30
0.0
 10
111.8954802669
 20
182.6222568085
 30
0.0
 10
111.8649833443
 20
182.6621739196
 30
0.0
 10
111.8373274034
 20
182.7082367859
 30
0.0
 10
111.8126243346
 20
182.7601996309
 30
0.0
 10
111.7909584073
 20
182.8177101875
 30
0.0
 10
111.7723888059
 20
182.8803023018
 30
0.0
 10
111.7569526436
 20
182.9473957943
 30
0.0
 10
111.7446650586
 20
183.0183093793
 30
0.0
 10
111.7323625044
 20
183.1179803997
 30
0.0
 10
111.7280820716
 20
183.1943380503
 30
0.0
 10
111.7272335229
 20
183.2457805249
 30
0.0
  0
SPLINE
  5
3AC
100
AcDbEntity
  8
0
100
AcDbSpline
 62
7
  6
CONTINUOUS
 70
0
 71
3
 72
15
 73
11
 74
0
 42
0.0000001
 43
0.0000001
 44
0.0000000001
 40
0.0
 40
0.0
 40
0.0
 40
0.0
 40
0.1249842621
 40
0.2499697985
 40
0.3749589702
 40
0.4999529826
 40
0.6249530899
 40
0.7499603749
 40
0.8749755165
 40
1.0
 40
1.0
 40
1.0
 40
1.0
 10
111.7022115699
 20
184.801503
 30
0.0
 10
111.6977929819
 20
185.0833862498
 30
0.0
 10
111.6646901163
 20
185.6470760105
 30
0.0
 10
111.5426103231
 20
186.4849899666
 30
0.0
 10
111.3489788882
 20
187.3094028459
 30
0.0
 10
111.0851925693
 20
188.1141370719
 30
0.0
 10
110.7531667964
 20
188.8932458061
 30
0.0
 10
110.355299037
 20
189.6409507356
 30
0.0
 10
109.8945441832
 20
190.3516216642
 30
0.0
 10
109.5475762037
 20
190.7973121751
 30
0.0
 10
109.3649018194
 20
191.0121584496
 30
0.0
  0
SPLINE
  5
3AD
100
AcDbEntity
  8
0
100
AcDbSpline
 62
7
  6
CONTINUOUS
 70
0
 71
3
 72
15
 73
11
 74
0
 42
0.0000001
 43
0.0000001
 44
0.0000000001
 40
0.0
 40
0.0
 40
0.0
 40
0.0
 40
0.1249842621
 40
0.2499697985
 40
0.3749589702
 40
0.4999529826
 40
0.6249530899
 40
0.7499603749
 40
0.8749755165
 40
1.0
 40
1.0
 40
1.0
 40
1.0
 10
119.2977884301
 20
184.801503
 30
0.0
 10
119.3022070181
 20
185.0833862498
 30
0.0
 10
119.3353098837
 20
185.6470760105
 30
0.0
 10
119.4573896769
 20
186.4849899666
 30
0.0
 10
119.6510211118
 20
187.3094028459
 30
0.0
 10
119.9148074307
 20
188.1141370719
 30
0.0
 10
120.2468332036
 20
188.8932458061
 30
0.0
 10
120.644700963
 20
189.6409507356
 30
0.0
 10
121.1054558168
 20
190.3516216642
 30
0.0
 10
121.4524237963
 20
190.7973121751
 30
0.0
 10
121.6350981806
 20
191.0121584496
 30
0.0
  0
SPLINE
  5
3AE
100
AcDbEntity
  8
0
100
AcDbSpline
 62
7
  6
CONTINUOUS
 70
0
 71
3
 72
14
 73
10
 74
0
 42
0.0000001
 43
0.0000001
 44
0.0000000001
 40
0.0
 40
0.0
 40
0.0
 40
0.0
 40
0.1249996355
 40
0.2499993988
 40
0.3749995221
 40
0.4999995226
 40
0.6250000555
 40
0.7500008137
 40
1.0
 40
1.0
 40
1.0
 40
1.0
 10
118.6051473351
 20
205.7565063729
 30
0.0
 10
118.5892726362
 20
205.8391917074
 30
0.0
 10
118.5534416226
 20
206.0038099981
 30
0.0
 10
118.4875979147
 20
206.2477596762
 30
0.0
 10
118.410676909
 20
206.4884309835
 30
0.0
 10
118.3245291604
 20
206.7259239677
 30
0.0
 10
118.2316204213
 20
206.9608285277
 30
0.0
 10
118.1025594057
 20
207.2718966084
 30
0.0
 10
118.0045716644
 20
207.5047410448
 30
0.0
 10
117.9430805872
 20
207.661503
 30
0.0
  0
SPLINE
  5
3AF
100
AcDbEntity
  8
0
100
AcDbSpline
 62
7
  6
CONTINUOUS
 70
0
 71
3
 72
24
 73
20
 74
0
 42
0.0000001
 43
0.0000001
 44
0.0000000001
 40
0.0
 40
0.0
 40
0.0
 40
0.0
 40
0.1814369183
 40
0.3562675189
 40
0.4389310951
 40
0.5172057576
 40
0.5903793889
 40
0.6579537863
 40
0.7196460219
 40
0.7753591893
 40
0.8251434727
 40
0.8691826911
 40
0.9078269456
 40
0.9253247161
 40
0.9417364992
 40
0.9572076389
 40
0.9719217025
 40
0.9861012179
 40
1.0
 40
1.0
 40
1.0
 40
1.0
 10
117.9430805872
 20
207.661503
 30
0.0
 10
117.905860455
 20
207.7563899489
 30
0.0
 10
117.8400770141
 20
207.9457454092
 30
0.0
 10
117.7853168693
 20
208.1869212682
 30
0.0
 10
117.7632515028
 20
208.374407952
 30
0.0
 10
117.7578314789
 20
208.5059524636
 30
0.0
 10
117.7628430422
 20
208.6290381763
 30
0.0
 10
117.7774343049
 20
208.7419811588
 30
0.0
 10
117.8004171425
 20
208.8434940283
 30
0.0
 10
117.8304123519
 20
208.9326829443
 30
0.0
 10
117.866012397
 20
209.008994698
 30
0.0
 10
117.905876379
 20
209.0720874387
 30
0.0
 10
117.9428985941
 20
209.1148696942
 30
0.0
 10
117.9737385865
 20
209.1416124991
 30
0.0
 10
117.9965173041
 20
209.1575438521
 30
0.0
 10
118.0196189973
 20
209.1699910631
 30
0.0
 10
118.0429687924
 20
209.1789219807
 30
0.0
 10
118.0664811539
 20
209.1843001955
 30
0.0
 10
118.0822794967
 20
209.185503
 30
0.0
 10
118.0900874152
 20
209.185503
 30
0.0
  0
SPLINE
  5
3B0
100
AcDbEntity
  8
0
100
AcDbSpline
 62
7
  6
CONTINUOUS
 70
0
 71
3
 72
11
 73
7
 74
0
 42
0.0000001
 43
0.0000001
 44
0.0000000001
 40
0.0
 40
0.0
 40
0.0
 40
0.0
 40
0.2524237473
 40
0.5021448096
 40
0.7508090873
 40
1.0
 40
1.0
 40
1.0
 40
1.0
 10
116.9519292825
 20
209.185503
 30
0.0
 10
116.9519292825
 20
208.8968439105
 30
0.0
 10
116.960185981
 20
208.3226078672
 30
0.0
 10
116.9885485456
 20
207.4644723375
 30
0.0
 10
117.0232592622
 20
206.6102894847
 30
0.0
 10
117.0442145808
 20
206.0413425144
 30
0.0
 10
117.052575
 20
205.756503
 30
0.0
  0
SPLINE
  5
3B1
100
AcDbEntity
  8
0
100
AcDbSpline
 62
7
  6
CONTINUOUS
 70
0
 71
3
 72
14
 73
10
 74
0
 42
0.0000001
 43
0.0000001
 44
0.0000000001
 40
0.0
 40
0.0
 40
0.0
 40
0.0
 40
0.2499964588
 40
0.3749938072
 40
0.4999950027
 40
0.6249968948
 40
0.7499978482
 40
0.874999834
 40
1.0
 40
1.0
 40
1.0
 40
1.0
 10
113.0569194128
 20
207.661503
 30
0.0
 10
112.9954290168
 20
207.5047427814
 30
0.0
 10
112.8974476899
 20
207.2719002333
 30
0.0
 10
112.7683813532
 20
206.96083837
 30
0.0
 10
112.6754789513
 20
206.7259319417
 30
0.0
 10
112.5893301758
 20
206.4884370458
 30
0.0
 10
112.5124046241
 20
206.2477637375
 30
0.0
 10
112.4465587141
 20
206.0038121551
 30
0.0
 10
112.4107273219
 20
205.8391920649
 30
0.0
 10
112.3948526649
 20
205.7565063729
 30
0.0
  0
SPLINE
  5
3B2
100
AcDbEntity
  8
0
100
AcDbSpline
 62
7
  6
CONTINUOUS
 70
0
 71
3
 72
24
 73
20
 74
0
 42
0.0000001
 43
0.0000001
 44
0.0000000001
 40
0.0
 40
0.0
 40
0.0
 40
0.0
 40
0.0138987351
 40
0.0280781779
 40
0.0427921891
 40
0.0582633393
 40
0.0746751202
 40
0.0921729414
 40
0.1308174018
 40
0.174856829
 40
0.2246412127
 40
0.2803544389
 40
0.3420466907
 40
0.4096210177
 40
0.4827945939
 40
0.5610692269
 40
0.6437327602
 40
0.8185632303
 40
1.0
 40
1.0
 40
1.0
 40
1.0
 10
112.9099125848
 20
209.185503
 30
0.0
 10
112.9177204769
 20
209.185503
 30
0.0
 10
112.9335187542
 20
209.1843002276
 30
0.0
 10
112.9570310231
 20
209.178922034
 30
0.0
 10
112.9803807597
 20
209.169991152
 30
0.0
 10
113.0034824647
 20
209.1575440136
 30
0.0
 10
113.0262612137
 20
209.1416126459
 30
0.0
 10
113.0571013523
 20
209.1148697921
 30
0.0
 10
113.094123731
 20
209.072087322
 30
0.0
 10
113.1339878302
 20
209.0089943126
 30
0.0
 10
113.1695878946
 20
208.932682338
 30
0.0
 10
113.1995830577
 20
208.8434933027
 30
0.0
 10
113.222565821
 20
208.7419804137
 30
0.0
 10
113.2371570109
 20
208.6290374846
 30
0.0
 10
113.2421685292
 20
208.5059518567
 30
0.0
 10
113.2367484393
 20
208.3744074197
 30
0.0
 10
113.2146830646
 20
208.1869208522
 30
0.0
 10
113.1599229099
 20
207.9457451803
 30
0.0
 10
113.0941395147
 20
207.7563898714
 30
0.0
 10
113.0569194128
 20
207.661503
 30
0.0
  0
SPLINE
  5
3B3
100
AcDbEntity
  8
0
100
AcDbSpline
 62
7
  6
CONTINUOUS
 70
0
 71
3
 72
11
 73
7
 74
0
 42
0.0000001
 43
0.0000001
 44
0.0000000001
 40
0.0
 40
0.0
 40
0.0
 40
0.0
 40
0.2524237473
 40
0.5021448096
 40
0.7508090873
 40
1.0
 40
1.0
 40
1.0
 40
1.0
 10
114.0480707175
 20
209.185503
 30
0.0
 10
114.0480707175
 20
208.8968439105
 30
0.0
 10
114.039814019
 20
208.3226078672
 30
0.0
 10
114.0114514544
 20
207.4644723375
 30
0.0
 10
113.9767407378
 20
206.6102894847
 30
0.0
 10
113.9557854192
 20
206.0413425144
 30
0.0
 10
113.947425
 20
205.756503
 30
0.0
  0
SPLINE
  5
3B4
100
AcDbEntity
  8
0
100
AcDbSpline
 62
7
  6
CONTINUOUS
 70
0
 71
3
 72
21
 73
17
 74
0
 42
0.0000001
 43
0.0000001
 44
0.0000000001
 40
0.0
 40
0.0
 40
0.0
 40
0.0
 40
0.0624607332
 40
0.1240279887
 40
0.185479732
 40
0.2472974619
 40
0.3411314801
 40
0.4362164192
 40
0.5318930823
 40
0.6272674713
 40
0.7215621589
 40
0.8144816565
 40
0.860589914
 40
0.9066764733
 40
0.953020834
 40
1.0
 40
1.0
 40
1.0
 40
1.0
 10
280.599003
 20
94.1150333657
 30
0.0
 10
280.6662435448
 20
94.1150333657
 30
0.0
 10
280.7998932457
 20
94.1067383341
 30
0.0
 10
280.9967998539
 20
94.0714972566
 30
0.0
 10
281.1884737279
 20
94.0170287534
 30
0.0
 10
281.4074501371
 20
93.934755012
 30
0.0
 10
281.6518889013
 20
93.8195451639
 30
0.0
 10
281.9209506693
 20
93.6728924126
 30
0.0
 10
282.1879657787
 20
93.5193250971
 30
0.0
 10
282.4560131911
 20
93.3692104964
 30
0.0
 10
282.7281996926
 20
93.2329519604
 30
0.0
 10
282.9619302802
 20
93.1395565999
 30
0.0
 10
283.1531847536
 20
93.083073808
 30
0.0
 10
283.2990181271
 20
93.0511389808
 30
0.0
 10
283.447899701
 20
93.0309277139
 30
0.0
 10
283.5484227503
 20
93.02625
 30
0.0
 10
283.598997
 20
93.02625
 30
0.0
  0
SPLINE
  5
3B5
100
AcDbEntity
  8
0
100
AcDbSpline
 62
7
  6
CONTINUOUS
 70
0
 71
3
 72
13
 73
9
 74
0
 42
0.0000001
 43
0.0000001
 44
0.0000000001
 40
0.0
 40
0.0
 40
0.0
 40
0.0
 40
0.247331232
 40
0.3733348476
 40
0.5
 40
0.6266651524
 40
0.752668768
 40
1.0
 40
1.0
 40
1.0
 40
1.0
 10
245.5390326546
 20
96.3215679023
 30
0.0
 10
245.4922395786
 20
96.5060568355
 30
0.0
 10
245.4400337259
 20
96.7895976714
 30
0.0
 10
245.4051770042
 20
97.1729294163
 30
0.0
 10
245.396378319
 20
97.4649
 30
0.0
 10
245.4051770042
 20
97.7568705837
 30
0.0
 10
245.4400337259
 20
98.1402023286
 30
0.0
 10
245.4922395786
 20
98.4237431645
 30
0.0
 10
245.5390326546
 20
98.6082320977
 30
0.0
  0
SPLINE
  5
3B6
100
AcDbEntity
  8
0
100
AcDbSpline
 62
7
  6
CONTINUOUS
 70
0
 71
3
 72
11
 73
7
 74
0
 42
0.0000001
 43
0.0000001
 44
0.0000000001
 40
0.0
 40
0.0
 40
0.0
 40
0.0
 40
0.248426337
 40
0.5
 40
0.751573663
 40
1.0
 40
1.0
 40
1.0
 40
1.0
 10
244.8996584496
 20
98.6348726896
 30
0.0
 10
244.8627606818
 20
98.4435503449
 30
0.0
 10
244.8075697942
 20
98.0545655061
 30
0.0
 10
244.7800893824
 20
97.4649
 30
0.0
 10
244.8075697942
 20
96.8752344939
 30
0.0
 10
244.8627606818
 20
96.4862496551
 30
0.0
 10
244.8996584496
 20
96.2949273104
 30
0.0
  0
SPLINE
  5
3B7
100
AcDbEntity
  8
0
100
AcDbSpline
 62
7
  6
CONTINUOUS
 70
0
 71
3
 72
17
 73
13
 74
0
 42
0.0000001
 43
0.0000001
 44
0.0000000001
 40
0.0
 40
0.0
 40
0.0
 40
0.0
 40
0.0619271758
 40
0.1233846668
 40
0.1847184459
 40
0.2461787613
 40
0.370023189
 40
0.4954189645
 40
0.6219790257
 40
0.7488609143
 40
0.8751113618
 40
1.0
 40
1.0
 40
1.0
 40
1.0
 10
263.073003
 20
95.1311848699
 30
0.0
 10
262.9976158621
 20
95.1311848699
 30
0.0
 10
262.8473519968
 20
95.1251166783
 30
0.0
 10
262.6238078087
 20
95.0991434367
 30
0.0
 10
262.4031284778
 20
95.05813707
 30
0.0
 10
262.1116213239
 20
94.9856089973
 30
0.0
 10
261.7522811125
 20
94.8658024608
 30
0.0
 10
261.3294131268
 20
94.6907513201
 30
0.0
 10
260.910524029
 20
94.4977369724
 30
0.0
 10
260.4926258682
 20
94.3002429065
 30
0.0
 10
260.0727730389
 20
94.1117192039
 30
0.0
 10
259.7877583592
 20
94.0003547551
 30
0.0
 10
259.644003
 20
93.9508720203
 30
0.0
  0
SPLINE
  5
3B8
100
AcDbEntity
  8
0
100
AcDbSpline
 62
7
  6
CONTINUOUS
 70
0
 71
3
 72
11
 73
7
 74
0
 42
0.0000001
 43
0.0000001
 44
0.0000000001
 40
0.0
 40
0.0
 40
0.0
 40
0.0
 40
0.0801663445
 40
0.2671837951
 40
0.5731106542
 40
1.0
 40
1.0
 40
1.0
 40
1.0
 10
259.644003
 20
93.40725
 30
0.0
 10
259.6439450853
 20
93.40725
 30
0.0
 10
259.643841244
 20
93.4074786338
 30
0.0
 10
259.6437945909
 20
93.4078479293
 30
0.0
 10
259.6437331858
 20
93.4085333203
 30
0.0
 10
259.643722493
 20
93.4090553382
 30
0.0
 10
259.6437175024
 20
93.409363696
 30
0.0
  0
SPLINE
  5
3B9
100
AcDbEntity
  8
0
100
AcDbSpline
 62
7
  6
CONTINUOUS
 70
0
 71
3
 72
21
 73
17
 74
0
 42
0.0000001
 43
0.0000001
 44
0.0000000001
 40
0.0
 40
0.0
 40
0.0
 40
0.0
 40
0.0046106626
 40
0.0109763973
 40
0.0289847365
 40
0.0540238335
 40
0.0860749151
 40
0.12510594
 40
0.1710802375
 40
0.2239544666
 40
0.2836791665
 40
0.3501976034
 40
0.4234474246
 40
0.5898586632
 40
0.7822839029
 40
1.0
 40
1.0
 40
1.0
 40
1.0
 10
259.6437175024
 20
93.409363696
 30
0.0
 10
259.6438133351
 20
93.4101904196
 30
0.0
 10
259.6439560879
 20
93.4121678546
 30
0.0
 10
259.6441688046
 20
93.4173953837
 30
0.0
 10
259.6442839949
 20
93.4263155722
 30
0.0
 10
259.6442795189
 20
93.439871209
 30
0.0
 10
259.6440969084
 20
93.4572211167
 30
0.0
 10
259.6439493157
 20
93.4783502478
 30
0.0
 10
259.6439860124
 20
93.503238708
 30
0.0
 10
259.6440332326
 20
93.5318622865
 30
0.0
 10
259.6440151524
 20
93.564194356
 30
0.0
 10
259.6440003425
 20
93.6002043325
 30
0.0
 10
259.6440073464
 20
93.6554720547
 30
0.0
 10
259.6440403651
 20
93.7334668978
 30
0.0
 10
259.6439888638
 20
93.8375389994
 30
0.0
 10
259.6439966603
 20
93.9115726171
 30
0.0
 10
259.644003
 20
93.9508720203
 30
0.0
  0
SPLINE
  5
3BA
100
AcDbEntity
  8
0
100
AcDbSpline
 62
7
  6
CONTINUOUS
 70
0
 71
3
 72
8
 73
4
 74
0
 42
0.0000001
 43
0.0000001
 44
0.0000000001
 40
0.0
 40
0.0
 40
0.0
 40
0.0
 40
1.0
 40
1.0
 40
1.0
 40
1.0
 10
280.599003
 20
93.5027781674
 30
0.0
 10
281.7066574539
 20
93.5027781674
 30
0.0
 10
282.4913425461
 20
92.07375
 30
0.0
 10
283.598997
 20
92.07375
 30
0.0
  0
ELLIPSE
  5
3BB
100
AcDbEntity
  8
0
100
AcDbEllipse
 62
7
  6
CONTINUOUS
 10
298.036314337
 20
235.4785039689
 30
0.0
 11
22.3803675774
 21
78.7993500309
 31
0.0
 40
0.0438917341
 41
-1.9352826387
 42
-1.9181583495
  0
ELLIPSE
  5
3BC
100
AcDbEntity
  8
0
100
AcDbEllipse
 62
7
  6
CONTINUOUS
 10
298.036314337
 20
235.4785039689
 30
0.0
 11
24.8654359158
 21
73.7522417442
 31
0.0
 40
0.0455074821
 41
-4.3372200355
 42
-4.3200957463
  0
ELLIPSE
  5
3BD
100
AcDbEntity
  8
0
100
AcDbEllipse
 62
7
  6
CONTINUOUS
 10
298.036314337
 20
235.4785039689
 30
0.0
 11
24.8654359158
 21
73.7522417442
 31
0.0
 40
0.0455074821
 41
-1.9324064365
 42
-1.9152821473
  0
ELLIPSE
  5
3BE
100
AcDbEntity
  8
0
100
AcDbEllipse
 62
7
  6
CONTINUOUS
 10
115.5
 20
219.091503
 30
0.0
 11
0.0
 21
97.3836
 31
0.0
 40
0.0416666667
 41
-1.9477479987
 42
-1.9306237095
  0
ELLIPSE
  5
3BF
100
AcDbEntity
  8
0
100
AcDbEllipse
 62
7
  6
CONTINUOUS
 10
115.5
 20
219.091503
 30
0.0
 11
0.0
 21
97.3836
 31
0.0
 40
0.0416666667
 41
-4.3525615977
 42
-4.3354373085
  0
ENDSEC
  0
SECTION
  2
OBJECTS
  0
DICTIONARY
  5
3C0
100
AcDbDictionary
  3
ACAD_GROUP
350
3C1
  3
ACAD_MLINESTYLE
350
3C2
  0
DICTIONARY
  5
3C1
102
{ACAD_REACTORS
330
3C0
102
}
100
AcDbDictionary
  0
DICTIONARY
  5
3C2
102
{ACAD_REACTORS
330
3C0
102
}
100
AcDbDictionary
  3
STANDARD
350
3C3
  0
MLINESTYLE
  5
3C3
102
{ACAD_REACTORS
330
3C2
102
}
100
AcDbMlineStyle
  2
STANDARD
 70
0
  3

 62
256
 51
90.0
 52
90.0
 71
2
 49
0.5
 62
256
  6
BYLAYER
 49
-0.5
 62
256
  6
BYLAYER
  0
ENDSEC
  0
EOF
