999
DXF file: c-0350780-01-v1-2d.dxf
999
Pro/ENGINEER 2005450 by Parametric Technology Corporation
0
SECTION
2
HEADER
9
$ACADVER
1
AC1014
9
$DWGCODEPAGE
3
ANSI_1252
9
$EXTMAX
10
420.0000000000
20
297.0000000000
30
0.0000000000
9
$EXTMIN
10
0.0000000000
20
0.0000000000
30
0.0000000000
9
$LIMMIN
10
0.0000000000
20
0.0000000000
9
$LIMMAX
10
420.0000000000
20
297.0000000000
9
$VIEWCTR
10
210.0000000000
20
148.5000000000
9
$VIEWSIZE
40
297.0000000000
9
$CLAYER
8
0
9
$LTSCALE
40
23.1000000000
9
$CELTYPE
6
BYLAYER
9
$DIMSCALE
40
1
9
$DIMASZ
40
4.5000000000
9
$DIMEXO
40
2.6250000000
9
$DIMDLI
40
15.9600000000
9
$DIMEXE
40
7.5600000000
9
$DIMCEN
40
3.7800000000
9
$DIMLFAC
40
1.0000000000
9
$DIMBLK
1
_CLOSED
9
$DIMTXT
40
3.0000000000
9
$DIMTOL
70
1
9
$DIMLIM
70
0
9
$DIMTFAC
40
1.0000000000
9
$DIMTP
40
0.0100000000
9
$DIMTM
40
0.0100000000
9
$PDMODE
70
3
9
$PDSIZE
40
0.3125000000
9
$HANDSEED
5
61F
9
$MEASUREMENT
70
1
0
ENDSEC
0
SECTION
2
CLASSES
0
ENDSEC
0
SECTION
2
TABLES
0
TABLE
2
VPORT
5
8
100
AcDbSymbolTable
70
2
0
VPORT
5
1F4
100
AcDbSymbolTableRecord
100
AcDbViewportTableRecord
2
*ACTIVE
70
0
10
0.0
20
0.0
11
1.0
21
1.0
12
210.0000000000
22
148.5000000000
13
0.0
23
0.0
14
1.0
24
1.0
15
0.0
25
0.0
16
0.0
26
0.0
36
1.0
17
0.0
27
0.0
37
0.0
40
297.0000000000
41
1.4141414141
42
50.0
43
0.0
44
0.0
50
0.0
51
0.0
71
0
72
100
73
1
74
1
75
0
76
0
77
0
78
0
0
ENDTAB
0
TABLE
2
LTYPE
5
5
100
AcDbSymbolTable
70
6
0
LTYPE
5
14
100
AcDbSymbolTableRecord
100
AcDbLinetypeTableRecord
2
BYBLOCK
70
0
3

72
65
73
0
40
0.0
0
LTYPE
5
15
100
AcDbSymbolTableRecord
100
AcDbLinetypeTableRecord
2
BYLAYER
70
0
3

72
65
73
0
40
0.0
0
LTYPE
5
16
100
AcDbSymbolTableRecord
100
AcDbLinetypeTableRecord
2
CONTINUOUS
70
64
3
Solid line
72
65
73
0
40
0
0
LTYPE
5
1F5
100
AcDbSymbolTableRecord
100
AcDbLinetypeTableRecord
2
CENTER
70
64
3
____ _ ____ _ ____ _ ____ _ ____ _ ____ _ ____
72
65
73
4
40
0.6
49
0.375
74
0
49
-0.075
74
0
49
0.075
74
0
49
-0.075
74
0
0
LTYPE
5
1F6
100
AcDbSymbolTableRecord
100
AcDbLinetypeTableRecord
2
HIDDEN
70
64
3
- - - - - - - - - - - - - - - - - - - -
72
65
73
2
40
0.2
49
0.1
74
0
49
-0.1
74
0
0
LTYPE
5
1F7
100
AcDbSymbolTableRecord
100
AcDbLinetypeTableRecord
2
PHANTOM
70
64
3
_____ _ _ _____ _ _ _____ _ _ _____
72
65
73
6
40
0.8
49
0.45
74
0
49
-0.05
74
0
49
0.1
74
0
49
-0.05
74
0
49
0.1
74
0
49
-0.05
74
0
0
LTYPE
5
1F8
100
AcDbSymbolTableRecord
100
AcDbLinetypeTableRecord
2
DOT
70
64
3
. . . . . . . . . . . . . . . . . . . .
72
65
73
2
40
0.2
49
0.1
74
0
49
-0.1
74
0
0
LTYPE
5
1F9
100
AcDbSymbolTableRecord
100
AcDbLinetypeTableRecord
2
DASHED
70
64
3
- - - - - - - - - - - - - - - - - - - -
72
65
73
2
40
0.2
49
0.1
74
0
49
-0.1
74
0
0
ENDTAB
0
TABLE
2
LAYER
5
2
100
AcDbSymbolTable
70
36
0
LAYER
5
10
100
AcDbSymbolTableRecord
100
AcDbLayerTableRecord
2
0
70
0
62
7
6
CONTINUOUS
0
LAYER
5
1FA
100
AcDbSymbolTableRecord
100
AcDbLayerTableRecord
2
DEFAULT_1
70
0
62
7
6
CENTER
0
LAYER
5
1FB
100
AcDbSymbolTableRecord
100
AcDbLayerTableRecord
2
DEFAULT_2
70
0
62
8
6
HIDDEN
0
LAYER
5
1FC
100
AcDbSymbolTableRecord
100
AcDbLayerTableRecord
2
DEFAULT_3
70
0
62
7
6
PHANTOM
0
LAYER
5
1FD
100
AcDbSymbolTableRecord
100
AcDbLayerTableRecord
2
_BLACK_HOLE
70
0
62
7
6
CONTINUOUS
0
LAYER
5
1FE
100
AcDbSymbolTableRecord
100
AcDbLayerTableRecord
2
DRAFT_ENTITY
70
0
62
7
6
CONTINUOUS
0
LAYER
5
1FF
100
AcDbSymbolTableRecord
100
AcDbLayerTableRecord
2
DRAFT_GEOM
70
0
62
7
6
CONTINUOUS
0
LAYER
5
200
100
AcDbSymbolTableRecord
100
AcDbLayerTableRecord
2
DRAFT_GRP
70
0
62
7
6
CONTINUOUS
0
LAYER
5
201
100
AcDbSymbolTableRecord
100
AcDbLayerTableRecord
2
DRAFT_OTHER
70
0
62
7
6
CONTINUOUS
0
LAYER
5
202
100
AcDbSymbolTableRecord
100
AcDbLayerTableRecord
2
DTM_ALL
70
0
62
7
6
CONTINUOUS
0
LAYER
5
203
100
AcDbSymbolTableRecord
100
AcDbLayerTableRecord
2
DTM_AXIS
70
0
62
7
6
CONTINUOUS
0
LAYER
5
204
100
AcDbSymbolTableRecord
100
AcDbLayerTableRecord
2
DTM_CSYS
70
0
62
7
6
CONTINUOUS
0
LAYER
5
205
100
AcDbSymbolTableRecord
100
AcDbLayerTableRecord
2
DTM_CURVE
70
0
62
7
6
CONTINUOUS
0
LAYER
5
206
100
AcDbSymbolTableRecord
100
AcDbLayerTableRecord
2
DTM_MAJOR
70
0
62
7
6
CONTINUOUS
0
LAYER
5
207
100
AcDbSymbolTableRecord
100
AcDbLayerTableRecord
2
DTM_POINT
70
0
62
7
6
CONTINUOUS
0
LAYER
5
208
100
AcDbSymbolTableRecord
100
AcDbLayerTableRecord
2
NOTE
70
0
62
7
6
CONTINUOUS
0
LAYER
5
209
100
AcDbSymbolTableRecord
100
AcDbLayerTableRecord
2
NO_SHOW
70
0
62
7
6
CONTINUOUS
0
LAYER
5
20A
100
AcDbSymbolTableRecord
100
AcDbLayerTableRecord
2
SET_DTM
70
0
62
7
6
CONTINUOUS
0
ENDTAB
0
TABLE
2
STYLE
5
3
100
AcDbSymbolTable
70
1
0
STYLE
5
11
100
AcDbSymbolTableRecord
100
AcDbTextStyleTableRecord
2
STANDARD
70
0
40
0.0
41
0.9500000000
50
0.0
71
0
42
0.2
3
txt
4

0
ENDTAB
0
TABLE
2
VIEW
5
6
100
AcDbSymbolTable
70
0
0
ENDTAB
0
TABLE
2
UCS
5
7
100
AcDbSymbolTable
70
0
0
ENDTAB
0
TABLE
2
APPID
5
9
100
AcDbSymbolTable
70
1
0
APPID
5
20B
100
AcDbSymbolTableRecord
100
AcDbRegAppTableRecord
2
ACAD
70
0
0
ENDTAB
0
TABLE
2
BLOCK_RECORD
5
1
100
AcDbSymbolTable
70
0
0
BLOCK_RECORD
5
1F
100
AcDbSymbolTableRecord
100
AcDbBlockTableRecord
2
*MODEL_SPACE
0
BLOCK_RECORD
5
1B
100
AcDbSymbolTableRecord
100
AcDbBlockTableRecord
2
*PAPER_SPACE
0
BLOCK_RECORD
5
20C
100
AcDbSymbolTableRecord
100
AcDbBlockTableRecord
2
TYCO_ELECT_LOGO_BL0
0
ENDTAB
0
TABLE
2
DIMSTYLE
5
A
100
AcDbSymbolTable
70
1
0
DIMSTYLE
105
20D
100
AcDbSymbolTableRecord
100
AcDbDimStyleTableRecord
2
STANDARD
70
0
3

4

5
_CLOSED
6
_CLOSED
7
_CLOSED
40
1.0
41
4.5000000000
42
0.0625
43
0.38
44
0.18
45
0.0
46
0.0
47
0.0100000000
48
0.0100000000
140
3.0000000000
141
0.09
142
0.0
143
25.4
144
1.0000000000
145
0.0
146
1.0000000000
147
0.09
71
1
72
0
73
1
74
1
75
0
76
0
77
0
78
8
170
0
171
2
172
0
173
0
174
0
175
0
176
0
177
0
178
0
270
2
271
2
272
2
273
2
274
2
275
0
280
0
281
0
282
0
283
1
284
8
285
0
286
0
287
3
288
0
340
11
0
ENDTAB
0
ENDSEC
0
SECTION
2
BLOCKS
0
BLOCK
5
20
100
AcDbEntity
8
0
100
AcDbBlockBegin
2
*MODEL_SPACE
70
0
10
0.0
20
0.0
30
0.0
3
*MODEL_SPACE
1

0
ENDBLK
5
21
100
AcDbEntity
8
0
100
AcDbBlockEnd
0
BLOCK
5
1C
100
AcDbEntity
8
0
100
AcDbBlockBegin
2
*PAPER_SPACE
70
0
10
0.0
20
0.0
30
0.0
3
*PAPER_SPACE
1

0
ENDBLK
5
1D
100
AcDbEntity
8
0
100
AcDbBlockEnd
0
BLOCK
5
20E
100
AcDbEntity
8
0
100
AcDbBlockBegin
62
2
6
CONTINUOUS
2
TYCO_ELECT_LOGO_BL0
70
64
10
303.1415755774
20
36.3453026123
3
TYCO_ELECT_LOGO_BL0
1

0
LINE
5
20F
100
AcDbEntity
8
0
100
AcDbLine
62
2
6
CONTINUOUS
10
312.9687502283
20
35.6431191360
11
312.9689251327
21
35.3714685744
0
LINE
5
210
100
AcDbEntity
8
0
100
AcDbLine
62
2
6
CONTINUOUS
10
310.4313707463
20
33.2030715497
11
310.7652420115
21
33.2039527773
0
LINE
5
211
100
AcDbEntity
8
0
100
AcDbLine
62
2
6
CONTINUOUS
10
305.7960942022
20
39.4306336519
11
305.5059948621
21
38.4817700022
0
LINE
5
212
100
AcDbEntity
8
0
100
AcDbLine
62
2
6
CONTINUOUS
10
305.1725956878
20
39.6451153179
11
305.6373865356
21
39.6451153179
0
LINE
5
213
100
AcDbEntity
8
0
100
AcDbLine
62
2
6
CONTINUOUS
10
304.6088972628
20
38.5352151857
11
304.8826280113
21
39.4305503668
0
LINE
5
214
100
AcDbEntity
8
0
100
AcDbLine
62
2
6
CONTINUOUS
10
301.9890514156
20
39.2415529754
11
303.1385222383
21
39.2415529754
0
LINE
5
215
100
AcDbEntity
8
0
100
AcDbLine
62
2
6
CONTINUOUS
10
302.0339077539
20
39.3882747333
11
301.9890514156
21
39.2415529754
0
LINE
5
216
100
AcDbEntity
8
0
100
AcDbLine
62
2
6
CONTINUOUS
10
302.7656646296
20
38.0219971176
11
302.9548570837
21
38.6408193940
0
LINE
5
217
100
AcDbEntity
8
0
100
AcDbLine
62
2
6
CONTINUOUS
10
303.1385222383
20
39.2415529754
11
303.2341257737
21
39.5542595539
0
LINE
5
218
100
AcDbEntity
8
0
100
AcDbLine
62
2
6
CONTINUOUS
10
303.7790405562
20
39.7452796731
11
303.3736471526
21
38.4193029422
0
LINE
5
219
100
AcDbEntity
8
0
100
AcDbLine
62
2
6
CONTINUOUS
10
305.2109202980
20
38.2634268849
11
304.7398616518
21
38.2634268849
0
LINE
5
21A
100
AcDbEntity
8
0
100
AcDbLine
62
2
6
CONTINUOUS
10
303.9335081744
20
37.6626933036
11
305.9545011226
21
37.6626933036
0
LINE
5
21B
100
AcDbEntity
8
0
100
AcDbLine
62
2
6
CONTINUOUS
10
306.4735378760
20
40.2027356911
11
304.3972576118
21
40.2027356911
0
LINE
5
21C
100
AcDbEntity
8
0
100
AcDbLine
62
2
6
CONTINUOUS
10
307.1937910594
20
34.0326016560
11
307.5437762167
21
34.0326016560
0
LINE
5
21D
100
AcDbEntity
8
0
100
AcDbLine
62
2
6
CONTINUOUS
10
307.2920786149
20
34.3554127045
11
307.1937910594
21
34.0326016560
0
LINE
5
21E
100
AcDbEntity
8
0
100
AcDbLine
62
2
6
CONTINUOUS
10
307.6420670133
20
34.3554127045
11
307.2920786149
21
34.3554127045
0
LINE
5
21F
100
AcDbEntity
8
0
100
AcDbLine
62
2
6
CONTINUOUS
10
307.5437762167
20
34.0326016560
11
307.6420670133
21
34.3554127045
0
LINE
5
220
100
AcDbEntity
8
0
100
AcDbLine
62
2
6
CONTINUOUS
10
307.4289632688
20
33.6555201749
11
307.0789781115
21
33.6555201749
0
LINE
5
221
100
AcDbEntity
8
0
100
AcDbLine
62
2
6
CONTINUOUS
10
305.5245130772
20
33.6019494718
11
305.1743335693
21
33.6013144515
0
LINE
5
222
100
AcDbEntity
8
0
100
AcDbLine
62
2
6
CONTINUOUS
10
305.4276671139
20
33.2851771513
11
305.5245130772
21
33.6019494718
0
LINE
5
223
100
AcDbEntity
8
0
100
AcDbLine
62
2
6
CONTINUOUS
10
303.1735686097
20
33.6683879978
11
303.0854503201
21
33.3789842484
0
LINE
5
224
100
AcDbEntity
8
0
100
AcDbLine
62
2
6
CONTINUOUS
10
302.5259315915
20
33.6019365076
11
302.4290759051
21
33.2851382588
0
LINE
5
225
100
AcDbEntity
8
0
100
AcDbLine
62
2
6
CONTINUOUS
10
302.1755997547
20
33.6019365076
11
302.5259315915
21
33.6019365076
0
LINE
5
226
100
AcDbEntity
8
0
100
AcDbLine
62
2
6
CONTINUOUS
10
301.5020735607
20
39.6451153179
11
301.8438544743
21
39.6451153179
0
LINE
5
227
100
AcDbEntity
8
0
100
AcDbLine
62
2
6
CONTINUOUS
10
300.8493373335
20
38.5081226496
11
301.1077405890
21
39.3533240249
0
LINE
5
228
100
AcDbEntity
8
0
100
AcDbLine
62
2
6
CONTINUOUS
10
301.5497995267
20
38.2634268849
11
301.0304028255
21
38.2634268849
0
LINE
5
229
100
AcDbEntity
8
0
100
AcDbLine
62
2
6
CONTINUOUS
10
301.8053862609
20
38.6408193940
11
301.7309962539
21
38.3975047488
0
LINE
5
22A
100
AcDbEntity
8
0
100
AcDbLine
62
2
6
CONTINUOUS
10
300.0162211483
20
39.7012659446
11
299.6526555351
21
38.5121170676
0
LINE
5
22B
100
AcDbEntity
8
0
100
AcDbLine
62
2
6
CONTINUOUS
10
298.0109507510
20
38.2636082714
11
298.6009156976
21
40.2027356911
0
LINE
5
22C
100
AcDbEntity
8
0
100
AcDbLine
62
2
6
CONTINUOUS
10
297.7053746591
20
40.2027356911
11
297.2298805519
21
38.6474558524
0
LINE
5
22D
100
AcDbEntity
8
0
100
AcDbLine
62
2
6
CONTINUOUS
10
296.2555759941
20
40.2027356911
11
296.0850994135
21
39.6451153179
0
LINE
5
22E
100
AcDbEntity
8
0
100
AcDbLine
62
2
6
CONTINUOUS
10
297.8267706063
20
37.6626933036
11
296.3753807854
21
37.6626933036
0
LINE
5
22F
100
AcDbEntity
8
0
100
AcDbLine
62
2
6
CONTINUOUS
10
297.5140894773
20
38.2634765878
11
298.0109507510
21
38.2636082714
0
LINE
5
230
100
AcDbEntity
8
0
100
AcDbLine
62
2
6
CONTINUOUS
10
296.6656986485
20
40.2027356911
11
297.7053746591
21
40.2027356911
0
LINE
5
231
100
AcDbEntity
8
0
100
AcDbLine
62
2
6
CONTINUOUS
10
298.6009156976
20
40.2027356911
11
299.6221485141
21
40.2027356911
0
LINE
5
232
100
AcDbEntity
8
0
100
AcDbLine
62
2
6
CONTINUOUS
10
301.8474789885
20
33.6019365076
11
301.5280695791
21
33.6019365076
0
LINE
5
233
100
AcDbEntity
8
0
100
AcDbLine
62
2
6
CONTINUOUS
10
301.7752932045
20
33.3648593491
11
301.8474789885
21
33.6019365076
0
LINE
5
234
100
AcDbEntity
8
0
100
AcDbLine
62
2
6
CONTINUOUS
10
300.7858283915
20
33.3648593491
11
301.0859716063
21
33.3648593491
0
LINE
5
235
100
AcDbEntity
8
0
100
AcDbLine
62
2
6
CONTINUOUS
10
300.8558306086
20
33.6019365076
11
300.7858283915
21
33.3648593491
0
LINE
5
236
100
AcDbEntity
8
0
100
AcDbLine
62
2
6
CONTINUOUS
10
301.1588571197
20
33.6019365076
11
300.8558306086
21
33.6019365076
0
LINE
5
237
100
AcDbEntity
8
0
100
AcDbLine
62
2
6
CONTINUOUS
10
301.2567008762
20
33.9232961291
11
301.1588571197
21
33.6019365076
0
LINE
5
238
100
AcDbEntity
8
0
100
AcDbLine
62
2
6
CONTINUOUS
10
301.6619187196
20
34.0397418906
11
301.2567008762
21
33.9232961291
0
LINE
5
239
100
AcDbEntity
8
0
100
AcDbLine
62
2
6
CONTINUOUS
10
301.5280695791
20
33.6019365076
11
301.6619187196
21
34.0397418906
0
LINE
5
23A
100
AcDbEntity
8
0
100
AcDbLine
62
2
6
CONTINUOUS
10
301.4554075857
20
33.3642761854
11
301.7752932045
21
33.3648593491
0
LINE
5
23B
100
AcDbEntity
8
0
100
AcDbLine
62
2
6
CONTINUOUS
10
296.8817860497
20
34.3549980749
11
297.2316739758
21
34.3554127045
0
LINE
5
23C
100
AcDbEntity
8
0
100
AcDbLine
62
2
6
CONTINUOUS
10
296.3013261794
20
34.0196690123
11
296.4039742749
21
34.3554127045
0
LINE
5
23D
100
AcDbEntity
8
0
100
AcDbLine
62
2
6
CONTINUOUS
10
299.6221485141
20
40.2027356911
11
298.5333497367
21
36.6414346704
0
LINE
5
23E
100
AcDbEntity
8
0
100
AcDbLine
62
2
6
CONTINUOUS
10
297.5145434533
20
36.6414346704
11
297.8267706063
21
37.6626933036
0
LINE
5
23F
100
AcDbEntity
8
0
100
AcDbLine
62
2
6
CONTINUOUS
10
293.3142260221
20
39.6451153179
11
293.4847057319
21
40.2027356911
0
LINE
5
240
100
AcDbEntity
8
0
100
AcDbLine
62
2
6
CONTINUOUS
10
294.1031602024
20
39.6449339314
11
293.3142260221
21
39.6451153179
0
LINE
5
241
100
AcDbEntity
8
0
100
AcDbLine
62
2
6
CONTINUOUS
10
293.6524800856
20
38.1708300934
11
294.1031602024
21
39.6449339314
0
LINE
5
242
100
AcDbEntity
8
0
100
AcDbLine
62
2
6
CONTINUOUS
10
295.4790074989
20
37.6626933036
11
294.0284812026
21
37.6626933036
0
LINE
5
243
100
AcDbEntity
8
0
100
AcDbLine
62
2
6
CONTINUOUS
10
295.6645839731
20
38.2634268849
11
295.4790074989
21
37.6626933036
0
LINE
5
244
100
AcDbEntity
8
0
100
AcDbLine
62
2
6
CONTINUOUS
10
294.9502130576
20
38.2634268849
11
295.6343062892
21
38.2634268849
0
LINE
5
245
100
AcDbEntity
8
0
100
AcDbLine
62
2
6
CONTINUOUS
10
295.1348472729
20
39.6451153179
11
294.7819439234
21
38.4908301245
0
LINE
5
246
100
AcDbEntity
8
0
100
AcDbLine
62
2
6
CONTINUOUS
10
294.2736917689
20
40.2027356911
11
294.4094489878
21
40.6467482244
0
LINE
5
247
100
AcDbEntity
8
0
100
AcDbLine
62
2
6
CONTINUOUS
10
293.4847057319
20
40.2027356911
11
294.2736917689
21
40.2027356911
0
LINE
5
248
100
AcDbEntity
8
0
100
AcDbLine
62
2
6
CONTINUOUS
10
295.5283116523
20
40.9320960916
11
295.3053237417
21
40.2027356911
0
LINE
5
249
100
AcDbEntity
8
0
100
AcDbLine
62
2
6
CONTINUOUS
10
294.4094489878
20
40.6467482244
11
295.5283116523
21
40.9320960916
0
LINE
5
24A
100
AcDbEntity
8
0
100
AcDbLine
62
2
6
CONTINUOUS
10
295.2719100721
20
35.3714037536
11
295.2716800701
21
35.6431191360
0
LINE
5
24B
100
AcDbEntity
8
0
100
AcDbLine
62
2
6
CONTINUOUS
10
294.8924733609
20
33.2603484380
11
295.1269198008
21
34.0196690123
0
LINE
5
24C
100
AcDbEntity
8
0
100
AcDbLine
62
2
6
CONTINUOUS
10
296.0850994135
20
39.6451153179
11
295.1348472729
21
39.6451153179
0
LINE
5
24D
100
AcDbEntity
8
0
100
AcDbLine
62
2
6
CONTINUOUS
10
295.3053237417
20
40.2027356911
11
296.2555759941
21
40.2027356911
0
LINE
5
24E
100
AcDbEntity
8
0
100
AcDbLine
62
2
6
CONTINUOUS
10
295.1269198008
20
34.0196690123
11
296.3013261794
21
34.0196690123
0
LINE
5
24F
100
AcDbEntity
8
0
100
AcDbLine
62
2
6
CONTINUOUS
10
296.0683731884
20
33.2603484380
11
294.8924733609
21
33.2603484380
0
LINE
5
250
100
AcDbEntity
8
0
100
AcDbLine
62
2
6
CONTINUOUS
10
296.4039742749
20
34.3554127045
11
294.8779889296
21
34.3554127045
0
LINE
5
251
100
AcDbEntity
8
0
100
AcDbLine
62
2
6
CONTINUOUS
10
296.0312940730
20
38.1277003669
11
296.6656986485
21
40.2027356911
0
LINE
5
252
100
AcDbEntity
8
0
100
AcDbLine
62
2
6
CONTINUOUS
10
312.9689251327
20
35.3714685744
11
295.2719100721
21
35.3714037536
0
LINE
5
253
100
AcDbEntity
8
0
100
AcDbLine
62
2
6
CONTINUOUS
10
295.2716800701
20
35.6431191360
11
312.9687502283
21
35.6431191360
0
LINE
5
254
100
AcDbEntity
8
0
100
AcDbLine
62
2
6
CONTINUOUS
10
302.9548570837
20
38.6408193940
11
301.8053862609
21
38.6408193940
0
LINE
5
255
100
AcDbEntity
8
0
100
AcDbLine
62
2
6
CONTINUOUS
10
300.2811928638
20
37.6626933036
11
302.2800937700
21
37.6626933036
0
LINE
5
256
100
AcDbEntity
8
0
100
AcDbLine
62
2
6
CONTINUOUS
10
302.7542779991
20
40.2027356911
11
300.6939220582
21
40.2027356911
0
LINE
5
257
100
AcDbEntity
8
0
100
AcDbLine
62
2
6
CONTINUOUS
10
309.4528267852
20
32.3262556757
11
309.1290827641
21
32.3262556757
0
LINE
5
258
100
AcDbEntity
8
0
100
AcDbLine
62
2
6
CONTINUOUS
10
308.9277097963
20
32.3271886482
11
308.5676720505
21
32.3271886482
0
LINE
5
259
100
AcDbEntity
8
0
100
AcDbLine
62
2
6
CONTINUOUS
10
308.8028507420
20
32.9619383972
11
309.1431655300
21
32.9619383972
0
LINE
5
25A
100
AcDbEntity
8
0
100
AcDbLine
62
2
6
CONTINUOUS
10
306.5186915917
20
31.8153638349
11
306.8686799901
21
31.8153638349
0
LINE
5
25B
100
AcDbEntity
8
0
100
AcDbLine
62
2
6
CONTINUOUS
10
305.8053091831
20
31.8153638349
11
306.1552942286
21
31.8153638349
0
LINE
5
25C
100
AcDbEntity
8
0
100
AcDbLine
62
2
6
CONTINUOUS
10
304.9782994884
20
31.8153638349
11
305.2809695968
21
32.8094290248
0
LINE
5
25D
100
AcDbEntity
8
0
100
AcDbLine
62
2
6
CONTINUOUS
10
302.2611625957
20
32.7331561940
11
301.9797180027
21
31.8153638349
0
LINE
5
25E
100
AcDbEntity
8
0
100
AcDbLine
62
2
6
CONTINUOUS
10
304.6283110901
20
31.8153638349
11
304.9782994884
21
31.8153638349
0
LINE
5
25F
100
AcDbEntity
8
0
100
AcDbLine
62
2
6
CONTINUOUS
10
300.3798946136
20
32.3271886482
11
300.0198601089
21
32.3271886482
0
LINE
5
260
100
AcDbEntity
8
0
100
AcDbLine
62
2
6
CONTINUOUS
10
300.2550355593
20
32.9619383972
11
300.5953535883
21
32.9619383972
0
LINE
5
261
100
AcDbEntity
8
0
100
AcDbLine
62
2
6
CONTINUOUS
10
301.4411175051
20
31.8485377792
11
301.5274734513
21
32.1301924255
0
LINE
5
262
100
AcDbEntity
8
0
100
AcDbLine
62
2
6
CONTINUOUS
10
300.7853392180
20
32.3791136853
11
300.7622924061
21
32.2915267028
0
LINE
5
263
100
AcDbEntity
8
0
100
AcDbLine
62
2
6
CONTINUOUS
10
296.4552707737
20
31.8153638349
11
296.1053471962
21
31.8153638349
0
LINE
5
264
100
AcDbEntity
8
0
100
AcDbLine
62
2
6
CONTINUOUS
10
298.2789729125
20
32.8460757994
11
297.4182613192
21
32.8460757994
0
LINE
5
265
100
AcDbEntity
8
0
100
AcDbLine
62
2
6
CONTINUOUS
10
297.3082753974
20
32.5537044868
11
298.5634460341
21
32.5543135788
0
LINE
5
266
100
AcDbEntity
8
0
100
AcDbLine
62
2
6
CONTINUOUS
10
298.4759173903
20
32.3172493844
11
298.1148558112
21
32.3172493844
0
LINE
5
267
100
AcDbEntity
8
0
100
AcDbLine
62
2
6
CONTINUOUS
10
294.7891934861
20
32.9225314860
11
295.9655338716
21
32.9225832308
0
LINE
5
268
100
AcDbEntity
8
0
100
AcDbLine
62
2
6
CONTINUOUS
10
295.9072689132
20
32.1482047847
11
294.5547438052
21
32.1481530398
0
LINE
5
269
100
AcDbEntity
8
0
100
AcDbLine
62
2
6
CONTINUOUS
10
295.8055085274
20
31.8153638349
11
295.9072689132
21
32.1482047847
0
LINE
5
26A
100
AcDbEntity
8
0
100
AcDbLine
62
2
6
CONTINUOUS
10
294.5547438052
20
32.1481530398
11
294.7891934861
21
32.9225314860
0
LINE
5
26B
100
AcDbEntity
8
0
100
AcDbLine
62
2
6
CONTINUOUS
10
294.1032411166
20
31.8153638349
11
295.8055085274
21
31.8153638349
0
LINE
5
26C
100
AcDbEntity
8
0
100
AcDbLine
62
2
6
CONTINUOUS
10
301.9797180027
20
31.8153638349
11
301.6293894069
21
31.8153638349
0
LINE
5
26D
100
AcDbEntity
8
0
100
AcDbLine
62
2
6
CONTINUOUS
10
294.8779889296
20
34.3554127045
11
294.1032411166
21
31.8153638349
0
LINE
5
26E
100
AcDbEntity
8
0
100
AcDbLine
62
2
6
CONTINUOUS
10
301.6293894069
20
31.8153638349
11
302.1755997547
21
33.6019365076
0
LINE
5
26F
100
AcDbEntity
8
0
100
AcDbLine
62
2
6
CONTINUOUS
10
297.2316739758
20
34.3554127045
11
296.4552707737
21
31.8153638349
0
LINE
5
270
100
AcDbEntity
8
0
100
AcDbLine
62
2
6
CONTINUOUS
10
296.1053471962
20
31.8153638349
11
296.8817860497
21
34.3549980749
0
LINE
5
271
100
AcDbEntity
8
0
100
AcDbLine
62
2
6
CONTINUOUS
10
295.9655338716
20
32.9225832308
11
296.0683731884
21
33.2603484380
0
LINE
5
272
100
AcDbEntity
8
0
100
AcDbLine
62
2
6
CONTINUOUS
10
301.0859716063
20
33.3648593491
11
300.7853392180
21
32.3791136853
0
LINE
5
273
100
AcDbEntity
8
0
100
AcDbLine
62
2
6
CONTINUOUS
10
301.1121349576
20
32.2414806865
11
301.4554075857
21
33.3642761854
0
LINE
5
274
100
AcDbEntity
8
0
100
AcDbLine
62
2
6
CONTINUOUS
10
305.1743335693
20
33.6013144515
11
304.6283110901
21
31.8153638349
0
LINE
5
275
100
AcDbEntity
8
0
100
AcDbLine
62
2
6
CONTINUOUS
10
307.0789781115
20
33.6555201749
11
306.5186915917
21
31.8153638349
0
LINE
5
276
100
AcDbEntity
8
0
100
AcDbLine
62
2
6
CONTINUOUS
10
306.8686799901
20
31.8153638349
11
307.4289649342
21
33.6555201749
0
LINE
5
277
100
AcDbEntity
8
0
100
AcDbLine
62
2
6
CONTINUOUS
10
306.1552942286
20
31.8153638349
11
306.5467015535
21
33.0962152432
0
LINE
5
278
100
AcDbEntity
8
0
100
AcDbLine
62
2
6
CONTINUOUS
10
306.1995996925
20
33.1182318515
11
305.8053091831
21
31.8153638349
0
SOLID
5
279
100
AcDbEntity
8
0
100
AcDbTrace
62
2
6
CONTINUOUS
10
312.9689251327
20
35.3714685744
11
295.2719100721
21
35.3714037536
12
312.9687502283
22
35.6431191359
13
312.9687502283
23
35.6431191359
0
SOLID
5
27A
100
AcDbEntity
8
0
100
AcDbTrace
62
2
6
CONTINUOUS
10
295.2719100721
20
35.3714037536
11
295.2716800701
21
35.6431191359
12
312.9687502283
22
35.6431191359
13
312.9687502283
23
35.6431191359
0
ARC
5
27B
100
AcDbEntity
8
0
100
AcDbCircle
62
2
6
CONTINUOUS
10
294.0284812026
20
38.0558746724
40
0.3931813688
100
AcDbArc
50
162.9999521597
51
270.0000000000
0
ARC
5
27C
100
AcDbEntity
8
0
100
AcDbCircle
62
2
6
CONTINUOUS
10
294.9502130576
20
38.4393846572
40
0.1759577723
100
AcDbArc
50
162.9998660549
51
270.0000000000
0
ARC
5
27D
100
AcDbEntity
8
0
100
AcDbCircle
62
2
6
CONTINUOUS
10
296.3753807854
20
38.0225020688
40
0.3598087652
100
AcDbArc
50
162.9999340480
51
270.0000000000
0
ARC
5
27E
100
AcDbEntity
8
0
100
AcDbCircle
62
2
6
CONTINUOUS
10
297.5140107333
20
38.5605890239
40
0.2971124466
100
AcDbArc
50
163.0000895389
51
270.0151851547
0
ARC
5
27F
100
AcDbEntity
8
0
100
AcDbCircle
62
2
6
CONTINUOUS
10
300.6939220582
20
39.4940683837
40
0.7086673074
100
AcDbArc
50
90.0000000000
51
162.9997216637
0
ARC
5
280
100
AcDbEntity
8
0
100
AcDbCircle
62
2
6
CONTINUOUS
10
300.2811928638
20
38.3199505830
40
0.6572572794
100
AcDbArc
50
162.9997216637
51
270.0000000000
0
ARC
5
281
100
AcDbEntity
8
0
100
AcDbCircle
62
2
6
CONTINUOUS
10
301.5020735607
20
39.2327646805
40
0.4123506374
100
AcDbArc
50
90.0000000000
51
163.0000456849
0
ARC
5
282
100
AcDbEntity
8
0
100
AcDbCircle
62
2
6
CONTINUOUS
10
301.8438544743
20
39.4463785506
40
0.1987367673
100
AcDbArc
50
343.0003587949
51
90.0000000000
0
ARC
5
283
100
AcDbEntity
8
0
100
AcDbCircle
62
2
6
CONTINUOUS
10
302.7542779991
20
39.7009630352
40
0.5017726559
100
AcDbArc
50
343.0000770715
51
90.0000000000
0
ARC
5
284
100
AcDbEntity
8
0
100
AcDbCircle
62
2
6
CONTINUOUS
10
302.2800937700
20
38.1704506334
40
0.5077573299
100
AcDbArc
50
270.0000000000
51
343.0000425193
0
ARC
5
285
100
AcDbEntity
8
0
100
AcDbCircle
62
2
6
CONTINUOUS
10
303.9335081744
20
38.2481355605
40
0.5854422570
100
AcDbArc
50
162.9999354306
51
270.0000000000
0
ARC
5
286
100
AcDbEntity
8
0
100
AcDbCircle
62
2
6
CONTINUOUS
10
304.3972576118
20
39.5562709896
40
0.6464647015
100
AcDbArc
50
90.0000000000
51
162.9999354306
0
ARC
5
287
100
AcDbEntity
8
0
100
AcDbCircle
62
2
6
CONTINUOUS
10
305.9545011226
20
38.2707520451
40
0.6080587415
100
AcDbArc
50
270.0000000000
51
343.0001957456
0
ARC
5
288
100
AcDbEntity
8
0
100
AcDbCircle
62
2
6
CONTINUOUS
10
306.4735378760
20
39.6792324978
40
0.5235031933
100
AcDbArc
50
343.0000605232
51
90.0000000000
0
ARC
5
289
100
AcDbEntity
8
0
100
AcDbCircle
62
2
6
CONTINUOUS
10
304.8141231196
20
38.4724715020
40
0.2146029406
100
AcDbArc
50
163.0000401844
51
265.1212831353
0
ARC
5
28A
100
AcDbEntity
8
0
100
AcDbCircle
62
2
6
CONTINUOUS
10
305.2109202980
20
38.5719841614
40
0.3085572765
100
AcDbArc
50
270.0000000000
51
342.9998558742
0
ARC
5
28B
100
AcDbEntity
8
0
100
AcDbCircle
62
2
6
CONTINUOUS
10
305.6373865356
20
39.4791558915
40
0.1659594263
100
AcDbArc
50
342.9998558742
51
90.0000000000
0
ARC
5
28C
100
AcDbEntity
8
0
100
AcDbCircle
62
2
6
CONTINUOUS
10
305.1725956878
20
39.3418985739
40
0.3032167440
100
AcDbArc
50
90.0000000000
51
163.0000401844
0
SOLID
5
28D
100
AcDbEntity
8
0
100
AcDbTrace
62
2
6
CONTINUOUS
10
294.4094489878
20
40.6467482244
11
295.5283116523
21
40.9320960916
12
294.2736917689
22
40.2027356912
13
294.2736917689
23
40.2027356912
0
SOLID
5
28E
100
AcDbEntity
8
0
100
AcDbTrace
62
2
6
CONTINUOUS
10
295.5283116523
20
40.9320960916
11
295.3053237417
21
40.2027356912
12
294.2736917689
22
40.2027356912
13
294.2736917689
23
40.2027356912
0
SOLID
5
28F
100
AcDbEntity
8
0
100
AcDbTrace
62
2
6
CONTINUOUS
10
296.2555759941
20
40.2027356912
11
293.3142260221
21
39.6451153180
12
295.3053237417
22
40.2027356912
13
295.3053237417
23
40.2027356912
0
SOLID
5
290
100
AcDbEntity
8
0
100
AcDbTrace
62
2
6
CONTINUOUS
10
295.3053237417
20
40.2027356912
11
293.3142260221
21
39.6451153180
12
294.2736917689
22
40.2027356912
13
294.2736917689
23
40.2027356912
0
SOLID
5
291
100
AcDbEntity
8
0
100
AcDbTrace
62
2
6
CONTINUOUS
10
293.3142260221
20
39.6451153180
11
293.4847057319
21
40.2027356912
12
294.2736917689
22
40.2027356912
13
294.2736917689
23
40.2027356912
0
SOLID
5
292
100
AcDbEntity
8
0
100
AcDbTrace
62
2
6
CONTINUOUS
10
293.3142260221
20
39.6451153180
11
296.2555759941
21
40.2027356912
12
295.1348472729
22
39.6451153180
13
295.1348472729
23
39.6451153180
0
SOLID
5
293
100
AcDbEntity
8
0
100
AcDbTrace
62
2
6
CONTINUOUS
10
296.2555759941
20
40.2027356912
11
296.0850994135
21
39.6451153180
12
295.1348472729
22
39.6451153180
13
295.1348472729
23
39.6451153180
0
SOLID
5
294
100
AcDbEntity
8
0
100
AcDbTrace
62
2
6
CONTINUOUS
10
294.1031602024
20
39.6449339314
11
293.3142260221
21
39.6451153180
12
295.1348472729
22
39.6451153180
13
295.1348472729
23
39.6451153180
0
SOLID
5
295
100
AcDbEntity
8
0
100
AcDbTrace
62
2
6
CONTINUOUS
10
295.1348472729
20
39.6451153180
11
294.7819439234
21
38.4908301245
12
294.1031602024
22
39.6449339314
13
294.1031602024
23
39.6449339314
0
SOLID
5
296
100
AcDbEntity
8
0
100
AcDbTrace
62
2
6
CONTINUOUS
10
295.6343062892
20
38.2634268850
11
293.6524800856
21
38.1708300934
12
294.9502130576
22
38.2634268850
13
294.9502130576
23
38.2634268850
0
SOLID
5
297
100
AcDbEntity
8
0
100
AcDbTrace
62
2
6
CONTINUOUS
10
294.9502130576
20
38.2634268850
11
293.6524800856
21
38.1708300934
12
294.8476174834
22
38.2964326170
13
294.8476174834
23
38.2964326170
0
SOLID
5
298
100
AcDbEntity
8
0
100
AcDbTrace
62
2
6
CONTINUOUS
10
294.8476174834
20
38.2964326170
11
293.6524800856
21
38.1708300934
12
294.7835111671
22
38.3830675431
13
294.7835111671
23
38.3830675431
0
SOLID
5
299
100
AcDbEntity
8
0
100
AcDbTrace
62
2
6
CONTINUOUS
10
294.7835111671
20
38.3830675431
11
293.6524800856
21
38.1708300934
12
294.7819439234
22
38.4908301245
13
294.7819439234
23
38.4908301245
0
SOLID
5
29A
100
AcDbEntity
8
0
100
AcDbTrace
62
2
6
CONTINUOUS
10
293.6524800856
20
38.1708300934
11
294.1031602024
21
39.6449339314
12
294.7819439234
22
38.4908301245
13
294.7819439234
23
38.4908301245
0
SOLID
5
29B
100
AcDbEntity
8
0
100
AcDbTrace
62
2
6
CONTINUOUS
10
293.6524800856
20
38.1708300934
11
295.6343062892
21
38.2634268850
12
293.6409788805
22
37.9892898453
13
293.6409788805
23
37.9892898453
0
SOLID
5
29C
100
AcDbEntity
8
0
100
AcDbTrace
62
2
6
CONTINUOUS
10
293.6409788805
20
37.9892898453
11
295.6343062892
21
38.2634268850
12
293.7124195641
22
37.8220015668
13
293.7124195641
23
37.8220015668
0
SOLID
5
29D
100
AcDbEntity
8
0
100
AcDbTrace
62
2
6
CONTINUOUS
10
293.7124195641
20
37.8220015668
11
295.6343062892
21
38.2634268850
12
293.8515108081
22
37.7047720260
13
293.8515108081
23
37.7047720260
0
SOLID
5
29E
100
AcDbEntity
8
0
100
AcDbTrace
62
2
6
CONTINUOUS
10
293.8515108081
20
37.7047720260
11
295.6343062892
21
38.2634268850
12
294.0284812026
22
37.6626933037
13
294.0284812026
23
37.6626933037
0
SOLID
5
29F
100
AcDbEntity
8
0
100
AcDbTrace
62
2
6
CONTINUOUS
10
295.6343062892
20
38.2634268850
11
295.4790074989
21
37.6626933037
12
294.0284812026
22
37.6626933037
13
294.0284812026
23
37.6626933037
0
LINE
5
2A0
100
AcDbEntity
8
0
100
AcDbLine
62
2
6
CONTINUOUS
10
297.5145434533
20
36.6414346704
11
298.5333497367
21
36.6414346704
0
SOLID
5
2A1
100
AcDbEntity
8
0
100
AcDbTrace
62
2
6
CONTINUOUS
10
298.0109507510
20
38.2636082714
11
298.6009156976
21
40.2027356912
12
299.6221485141
22
40.2027356912
13
299.6221485141
23
40.2027356912
0
SOLID
5
2A2
100
AcDbEntity
8
0
100
AcDbTrace
62
2
6
CONTINUOUS
10
297.5140894773
20
38.2634765878
11
296.0312940730
21
38.1277003669
12
297.3408165542
22
38.3191773792
13
297.3408165542
23
38.3191773792
0
SOLID
5
2A3
100
AcDbEntity
8
0
100
AcDbTrace
62
2
6
CONTINUOUS
10
297.3408165542
20
38.3191773792
11
296.0312940730
21
38.1277003669
12
297.2325359002
22
38.4654694980
13
297.2325359002
23
38.4654694980
0
SOLID
5
2A4
100
AcDbEntity
8
0
100
AcDbTrace
62
2
6
CONTINUOUS
10
297.2325359002
20
38.4654694980
11
296.0312940730
21
38.1277003669
12
297.2298805519
22
38.6474558524
13
297.2298805519
23
38.6474558524
0
SOLID
5
2A5
100
AcDbEntity
8
0
100
AcDbTrace
62
2
6
CONTINUOUS
10
297.2298805519
20
38.6474558524
11
296.0312940730
21
38.1277003669
12
297.7053746591
22
40.2027356912
13
297.7053746591
23
40.2027356912
0
SOLID
5
2A6
100
AcDbEntity
8
0
100
AcDbTrace
62
2
6
CONTINUOUS
10
296.0312940730
20
38.1277003669
11
296.6656986485
21
40.2027356912
12
297.7053746591
22
40.2027356912
13
297.7053746591
23
40.2027356912
0
SOLID
5
2A7
100
AcDbEntity
8
0
100
AcDbTrace
62
2
6
CONTINUOUS
10
297.5140894773
20
38.2634765878
11
298.0109507510
21
38.2636082714
12
296.0312940730
22
38.1277003669
13
296.0312940730
23
38.1277003669
0
SOLID
5
2A8
100
AcDbEntity
8
0
100
AcDbTrace
62
2
6
CONTINUOUS
10
296.0312940730
20
38.1277003669
11
298.0109507510
21
38.2636082714
12
296.0207690241
22
37.9615689390
13
296.0207690241
23
37.9615689390
0
SOLID
5
2A9
100
AcDbEntity
8
0
100
AcDbTrace
62
2
6
CONTINUOUS
10
296.0207690241
20
37.9615689390
11
298.0109507510
21
38.2636082714
12
296.0861459178
22
37.8084797828
13
296.0861459178
23
37.8084797828
0
SOLID
5
2AA
100
AcDbEntity
8
0
100
AcDbTrace
62
2
6
CONTINUOUS
10
296.0861459178
20
37.8084797828
11
298.0109507510
21
38.2636082714
12
296.2134313286
22
37.7012004644
13
296.2134313286
23
37.7012004644
0
SOLID
5
2AB
100
AcDbEntity
8
0
100
AcDbTrace
62
2
6
CONTINUOUS
10
296.2134313286
20
37.7012004644
11
298.0109507510
21
38.2636082714
12
296.3753807854
22
37.6626933037
13
296.3753807854
23
37.6626933037
0
SOLID
5
2AC
100
AcDbEntity
8
0
100
AcDbTrace
62
2
6
CONTINUOUS
10
296.3753807854
20
37.6626933037
11
298.0109507510
21
38.2636082714
12
297.8267706063
22
37.6626933037
13
297.8267706063
23
37.6626933037
0
SOLID
5
2AD
100
AcDbEntity
8
0
100
AcDbTrace
62
2
6
CONTINUOUS
10
298.0109507510
20
38.2636082714
11
299.6221485141
21
40.2027356912
12
297.8267706063
22
37.6626933037
13
297.8267706063
23
37.6626933037
0
SOLID
5
2AE
100
AcDbEntity
8
0
100
AcDbTrace
62
2
6
CONTINUOUS
10
297.8267706063
20
37.6626933037
11
299.6221485141
21
40.2027356912
12
297.5145434533
22
36.6414346704
13
297.5145434533
23
36.6414346704
0
SOLID
5
2AF
100
AcDbEntity
8
0
100
AcDbTrace
62
2
6
CONTINUOUS
10
299.6221485141
20
40.2027356912
11
298.5333497367
21
36.6414346704
12
297.5145434533
22
36.6414346704
13
297.5145434533
23
36.6414346704
0
ARC
5
2B0
100
AcDbEntity
8
0
100
AcDbCircle
62
2
6
CONTINUOUS
10
301.0304028255
20
38.4527655312
40
0.1893386463
100
AcDbArc
50
163.0000456849
51
270.0000000000
0
ARC
5
2B1
100
AcDbEntity
8
0
100
AcDbCircle
62
2
6
CONTINUOUS
10
301.5497995267
20
38.4529030821
40
0.1894761971
100
AcDbArc
50
270.0000000000
51
342.9997297923
0
SOLID
5
2B2
100
AcDbEntity
8
0
100
AcDbTrace
62
2
6
CONTINUOUS
10
300.4719939241
20
40.1670893758
11
300.6939220582
21
40.2027356912
12
302.7542779991
22
40.2027356912
13
302.7542779991
23
40.2027356912
0
SOLID
5
2B3
100
AcDbEntity
8
0
100
AcDbTrace
62
2
6
CONTINUOUS
10
302.7542779991
20
40.2027356912
11
302.9801249386
21
40.1490355272
12
300.4719939241
22
40.1670893758
13
300.4719939241
23
40.1670893758
0
SOLID
5
2B4
100
AcDbEntity
8
0
100
AcDbTrace
62
2
6
CONTINUOUS
10
300.2723919792
20
40.0637364845
11
300.4719939241
21
40.1670893758
12
302.9801249386
22
40.1490355272
13
302.9801249386
23
40.1490355272
0
SOLID
5
2B5
100
AcDbEntity
8
0
100
AcDbTrace
62
2
6
CONTINUOUS
10
302.9801249386
20
40.1490355272
11
303.1576311903
21
39.9994291160
12
300.2723919792
22
40.0637364845
13
300.2723919792
23
40.0637364845
0
SOLID
5
2B6
100
AcDbEntity
8
0
100
AcDbTrace
62
2
6
CONTINUOUS
10
300.1151963764
20
39.9030744200
11
300.2723919792
21
40.0637364845
12
303.1576311903
22
39.9994291160
13
303.1576311903
23
39.9994291160
0
SOLID
5
2B7
100
AcDbEntity
8
0
100
AcDbTrace
62
2
6
CONTINUOUS
10
303.1576311903
20
39.9994291160
11
303.2488029947
21
39.7859384844
12
300.1151963764
22
39.9030744200
13
300.1151963764
23
39.9030744200
0
SOLID
5
2B8
100
AcDbEntity
8
0
100
AcDbTrace
62
2
6
CONTINUOUS
10
300.0162211483
20
39.7012659446
11
300.1151963764
21
39.9030744200
12
303.2488029947
22
39.7859384844
13
303.2488029947
23
39.7859384844
0
SOLID
5
2B9
100
AcDbEntity
8
0
100
AcDbTrace
62
2
6
CONTINUOUS
10
300.0162211483
20
39.7012659446
11
303.2488029947
21
39.7859384844
12
301.5020735607
22
39.6451153180
13
301.5020735607
23
39.6451153180
0
SOLID
5
2BA
100
AcDbEntity
8
0
100
AcDbTrace
62
2
6
CONTINUOUS
10
301.5020735607
20
39.6451153180
11
303.2488029947
21
39.7859384844
12
301.8438544743
22
39.6451153180
13
301.8438544743
23
39.6451153180
0
SOLID
5
2BB
100
AcDbEntity
8
0
100
AcDbTrace
62
2
6
CONTINUOUS
10
301.8438544743
20
39.6451153180
11
303.2488029947
21
39.7859384844
12
301.9597313182
22
39.6078370893
13
301.9597313182
23
39.6078370893
0
SOLID
5
2BC
100
AcDbEntity
8
0
100
AcDbTrace
62
2
6
CONTINUOUS
10
303.2488029947
20
39.7859384844
11
303.2341257737
21
39.5542595539
12
301.9597313182
22
39.6078370893
13
301.9597313182
23
39.6078370893
0
SOLID
5
2BD
100
AcDbEntity
8
0
100
AcDbTrace
62
2
6
CONTINUOUS
10
302.0321367549
20
39.5099873983
11
301.9597313182
21
39.6078370893
12
303.2341257737
22
39.5542595539
13
303.2341257737
23
39.5542595539
0
SOLID
5
2BE
100
AcDbEntity
8
0
100
AcDbTrace
62
2
6
CONTINUOUS
10
302.0321367549
20
39.5099873983
11
303.2341257737
21
39.5542595539
12
302.0339077539
22
39.3882747333
13
302.0339077539
23
39.3882747333
0
SOLID
5
2BF
100
AcDbEntity
8
0
100
AcDbTrace
62
2
6
CONTINUOUS
10
302.0339077539
20
39.3882747333
11
303.2341257737
21
39.5542595539
12
301.9890514156
22
39.2415529755
13
301.9890514156
23
39.2415529755
0
SOLID
5
2C0
100
AcDbEntity
8
0
100
AcDbTrace
62
2
6
CONTINUOUS
10
303.2341257737
20
39.5542595539
11
303.1385222383
21
39.2415529755
12
301.9890514156
22
39.2415529755
13
301.9890514156
23
39.2415529755
0
SOLID
5
2C1
100
AcDbEntity
8
0
100
AcDbTrace
62
2
6
CONTINUOUS
10
301.1077405890
20
39.3533240249
11
299.6526555351
21
38.5121170676
12
301.1924475558
22
39.5050968035
13
301.1924475558
23
39.5050968035
0
SOLID
5
2C2
100
AcDbEntity
8
0
100
AcDbTrace
62
2
6
CONTINUOUS
10
301.1924475558
20
39.5050968035
11
299.6526555351
21
38.5121170676
12
301.3321666397
22
39.6084835732
13
301.3321666397
23
39.6084835732
0
SOLID
5
2C3
100
AcDbEntity
8
0
100
AcDbTrace
62
2
6
CONTINUOUS
10
301.5020735607
20
39.6451153180
11
301.3321666397
21
39.6084835732
12
300.0162211483
22
39.7012659446
13
300.0162211483
23
39.7012659446
0
SOLID
5
2C4
100
AcDbEntity
8
0
100
AcDbTrace
62
2
6
CONTINUOUS
10
299.6526555351
20
38.5121170676
11
300.0162211483
21
39.7012659446
12
301.3321666397
22
39.6084835732
13
301.3321666397
23
39.6084835732
0
SOLID
5
2C5
100
AcDbEntity
8
0
100
AcDbTrace
62
2
6
CONTINUOUS
10
301.1077405890
20
39.3533240249
11
300.8493373335
21
38.5081226496
12
299.6526555351
22
38.5121170676
13
299.6526555351
23
38.5121170676
0
SOLID
5
2C6
100
AcDbEntity
8
0
100
AcDbTrace
62
2
6
CONTINUOUS
10
301.7309962539
20
38.3975047488
11
301.8053862609
21
38.6408193942
12
302.9548570837
22
38.6408193942
13
302.9548570837
23
38.6408193942
0
SOLID
5
2C7
100
AcDbEntity
8
0
100
AcDbTrace
62
2
6
CONTINUOUS
10
300.9200054353
20
38.2989424536
11
299.6258724884
21
38.2695289901
12
300.8510240599
22
38.3921653543
13
300.8510240599
23
38.3921653543
0
SOLID
5
2C8
100
AcDbEntity
8
0
100
AcDbTrace
62
2
6
CONTINUOUS
10
300.8510240599
20
38.3921653543
11
299.6258724884
21
38.2695289901
12
300.8493373335
22
38.5081226496
13
300.8493373335
23
38.5081226496
0
SOLID
5
2C9
100
AcDbEntity
8
0
100
AcDbTrace
62
2
6
CONTINUOUS
10
299.6258724884
20
38.2695289901
11
299.6526555351
21
38.5121170676
12
300.8493373335
22
38.5081226496
13
300.8493373335
23
38.5081226496
0
SOLID
5
2CA
100
AcDbEntity
8
0
100
AcDbTrace
62
2
6
CONTINUOUS
10
300.9200054353
20
38.2989424536
11
301.0304028255
21
38.2634268850
12
299.6258724884
22
38.2695289901
13
299.6258724884
23
38.2695289901
0
SOLID
5
2CB
100
AcDbEntity
8
0
100
AcDbTrace
62
2
6
CONTINUOUS
10
301.5497995267
20
38.2634268850
11
299.6894509637
21
38.0338934995
12
301.0304028255
22
38.2634268850
13
301.0304028255
23
38.2634268850
0
SOLID
5
2CC
100
AcDbEntity
8
0
100
AcDbTrace
62
2
6
CONTINUOUS
10
299.6894509637
20
38.0338934995
11
299.6258724884
21
38.2695289901
12
301.0304028255
22
38.2634268850
13
301.0304028255
23
38.2634268850
0
SOLID
5
2CD
100
AcDbEntity
8
0
100
AcDbTrace
62
2
6
CONTINUOUS
10
301.7309962539
20
38.3975047488
11
302.9548570837
21
38.6408193942
12
301.6920730264
22
38.3277652358
13
301.6920730264
23
38.3277652358
0
SOLID
5
2CE
100
AcDbEntity
8
0
100
AcDbTrace
62
2
6
CONTINUOUS
10
301.6920730264
20
38.3277652358
11
302.9548570837
21
38.6408193942
12
301.6278718844
22
38.2802591240
13
301.6278718844
23
38.2802591240
0
SOLID
5
2CF
100
AcDbEntity
8
0
100
AcDbTrace
62
2
6
CONTINUOUS
10
299.6894509637
20
38.0338934995
11
301.5497995267
21
38.2634268850
12
302.7656646296
22
38.0219971176
13
302.7656646296
23
38.0219971176
0
SOLID
5
2D0
100
AcDbEntity
8
0
100
AcDbTrace
62
2
6
CONTINUOUS
10
301.5497995267
20
38.2634268850
11
301.6278718844
21
38.2802591240
12
302.7656646296
22
38.0219971176
13
302.7656646296
23
38.0219971176
0
SOLID
5
2D1
100
AcDbEntity
8
0
100
AcDbTrace
62
2
6
CONTINUOUS
10
302.9548570837
20
38.6408193942
11
302.7656646296
21
38.0219971176
12
301.6278718844
22
38.2802591240
13
301.6278718844
23
38.2802591240
0
SOLID
5
2D2
100
AcDbEntity
8
0
100
AcDbTrace
62
2
6
CONTINUOUS
10
299.8346241835
20
37.8377021562
11
299.6894509637
21
38.0338934995
12
302.7656646296
22
38.0219971176
13
302.7656646296
23
38.0219971176
0
SOLID
5
2D3
100
AcDbEntity
8
0
100
AcDbTrace
62
2
6
CONTINUOUS
10
302.7656646296
20
38.0219971176
11
302.6613587765
21
37.8351082698
12
299.8346241835
22
37.8377021562
13
299.8346241835
23
37.8377021562
0
SOLID
5
2D4
100
AcDbEntity
8
0
100
AcDbTrace
62
2
6
CONTINUOUS
10
300.0413743466
20
37.7080076035
11
299.8346241835
21
37.8377021562
12
302.6613587765
22
37.8351082698
13
302.6613587765
23
37.8351082698
0
SOLID
5
2D5
100
AcDbEntity
8
0
100
AcDbTrace
62
2
6
CONTINUOUS
10
302.6613587765
20
37.8351082698
11
302.4893125106
21
37.7078006312
12
300.0413743466
22
37.7080076035
13
300.0413743466
23
37.7080076035
0
SOLID
5
2D6
100
AcDbEntity
8
0
100
AcDbTrace
62
2
6
CONTINUOUS
10
300.2811928638
20
37.6626933037
11
300.0413743466
21
37.7080076035
12
302.4893125106
22
37.7078006312
13
302.4893125106
23
37.7078006312
0
SOLID
5
2D7
100
AcDbEntity
8
0
100
AcDbTrace
62
2
6
CONTINUOUS
10
302.4893125106
20
37.7078006312
11
302.2800937700
21
37.6626933037
12
300.2811928638
22
37.6626933037
13
300.2811928638
23
37.6626933037
0
LINE
5
2D8
100
AcDbEntity
8
0
100
AcDbLine
62
2
6
CONTINUOUS
10
306.5359911964
20
38.0929748608
11
306.9741666312
21
39.5261755055
0
SOLID
5
2D9
100
AcDbEntity
8
0
100
AcDbTrace
62
2
6
CONTINUOUS
10
306.7091657238
20
40.1467098884
11
304.1308855942
21
40.1453062674
12
306.4735378760
22
40.2027356912
13
306.4735378760
23
40.2027356912
0
SOLID
5
2DA
100
AcDbEntity
8
0
100
AcDbTrace
62
2
6
CONTINUOUS
10
304.1308855942
20
40.1453062674
11
304.3972576118
21
40.2027356912
12
306.4735378760
22
40.2027356912
13
306.4735378760
23
40.2027356912
0
SOLID
5
2DB
100
AcDbEntity
8
0
100
AcDbTrace
62
2
6
CONTINUOUS
10
306.7091657238
20
40.1467098884
11
306.8943593451
21
39.9906243483
12
304.1308855942
22
40.1453062674
13
304.1308855942
23
40.1453062674
0
SOLID
5
2DC
100
AcDbEntity
8
0
100
AcDbTrace
62
2
6
CONTINUOUS
10
303.9118404962
20
39.9832216122
11
304.1308855942
21
40.1453062674
12
306.8943593451
22
39.9906243483
13
306.8943593451
23
39.9906243483
0
SOLID
5
2DD
100
AcDbEntity
8
0
100
AcDbTrace
62
2
6
CONTINUOUS
10
306.8943593451
20
39.9906243483
11
306.9894795499
21
39.7678879126
12
303.9118404962
22
39.9832216122
13
303.9118404962
23
39.9832216122
0
SOLID
5
2DE
100
AcDbEntity
8
0
100
AcDbTrace
62
2
6
CONTINUOUS
10
303.7790405562
20
39.7452796731
11
303.9118404962
21
39.9832216122
12
306.9894795499
22
39.7678879126
13
306.9894795499
23
39.7678879126
0
SOLID
5
2DF
100
AcDbEntity
8
0
100
AcDbTrace
62
2
6
CONTINUOUS
10
303.7790405562
20
39.7452796731
11
306.9894795499
21
39.7678879126
12
305.1725956878
22
39.6451153180
13
305.1725956878
23
39.6451153180
0
SOLID
5
2E0
100
AcDbEntity
8
0
100
AcDbTrace
62
2
6
CONTINUOUS
10
305.1725956878
20
39.6451153180
11
306.9894795499
21
39.7678879126
12
305.6373865356
22
39.6451153180
13
305.6373865356
23
39.6451153180
0
SOLID
5
2E1
100
AcDbEntity
8
0
100
AcDbTrace
62
2
6
CONTINUOUS
10
305.6373865356
20
39.6451153180
11
306.9894795499
21
39.7678879126
12
305.7341523892
22
39.6139850455
13
305.7341523892
23
39.6139850455
0
SOLID
5
2E2
100
AcDbEntity
8
0
100
AcDbTrace
62
2
6
CONTINUOUS
10
305.7341523892
20
39.6139850455
11
306.9894795499
21
39.7678879126
12
305.7946160280
22
39.5322729125
13
305.7946160280
23
39.5322729125
0
SOLID
5
2E3
100
AcDbEntity
8
0
100
AcDbTrace
62
2
6
CONTINUOUS
10
306.9894795499
20
39.7678879126
11
306.9741666312
21
39.5261755055
12
305.7946160280
22
39.5322729125
13
305.7946160280
23
39.5322729125
0
SOLID
5
2E4
100
AcDbEntity
8
0
100
AcDbTrace
62
2
6
CONTINUOUS
10
305.7960942022
20
39.4306336519
11
305.7946160280
21
39.5322729125
12
306.9741666312
22
39.5261755055
13
306.9741666312
23
39.5261755055
0
SOLID
5
2E5
100
AcDbEntity
8
0
100
AcDbTrace
62
2
6
CONTINUOUS
10
304.6088972628
20
38.5352151857
11
303.3736471526
21
38.4193029422
12
304.8826280113
22
39.4305503668
13
304.8826280113
23
39.4305503668
0
SOLID
5
2E6
100
AcDbEntity
8
0
100
AcDbTrace
62
2
6
CONTINUOUS
10
304.8826280113
20
39.4305503668
11
303.3736471526
21
38.4193029422
12
304.9449161955
22
39.5421545166
13
304.9449161955
23
39.5421545166
0
SOLID
5
2E7
100
AcDbEntity
8
0
100
AcDbTrace
62
2
6
CONTINUOUS
10
304.9449161955
20
39.5421545166
11
303.3736471526
21
38.4193029422
12
305.0476568249
22
39.6181786390
13
305.0476568249
23
39.6181786390
0
SOLID
5
2E8
100
AcDbEntity
8
0
100
AcDbTrace
62
2
6
CONTINUOUS
10
305.1725956878
20
39.6451153180
11
305.0476568249
21
39.6181786390
12
303.7790405562
22
39.7452796731
13
303.7790405562
23
39.7452796731
0
SOLID
5
2E9
100
AcDbEntity
8
0
100
AcDbTrace
62
2
6
CONTINUOUS
10
303.3736471526
20
38.4193029422
11
303.7790405562
21
39.7452796731
12
305.0476568249
22
39.6181786390
13
305.0476568249
23
39.6181786390
0
SOLID
5
2EA
100
AcDbEntity
8
0
100
AcDbTrace
62
2
6
CONTINUOUS
10
304.6088972628
20
38.5352151857
11
304.6089416592
21
38.4095827875
12
303.3736471526
22
38.4193029422
13
303.3736471526
23
38.4193029422
0
SOLID
5
2EB
100
AcDbEntity
8
0
100
AcDbTrace
62
2
6
CONTINUOUS
10
305.2109202980
20
38.2634268850
11
303.3497913203
21
38.2032215258
12
304.7398616518
22
38.2634268850
13
304.7398616518
23
38.2634268850
0
SOLID
5
2EC
100
AcDbEntity
8
0
100
AcDbTrace
62
2
6
CONTINUOUS
10
304.7398616518
20
38.2634268850
11
303.3497913203
21
38.2032215258
12
304.6793046423
22
38.3055032407
13
304.6793046423
23
38.3055032407
0
SOLID
5
2ED
100
AcDbEntity
8
0
100
AcDbTrace
62
2
6
CONTINUOUS
10
304.6793046423
20
38.3055032407
11
303.3497913203
21
38.2032215258
12
304.6089416592
22
38.4095827875
13
304.6089416592
23
38.4095827875
0
SOLID
5
2EE
100
AcDbEntity
8
0
100
AcDbTrace
62
2
6
CONTINUOUS
10
303.3497913203
20
38.2032215258
11
303.3736471526
21
38.4193029422
12
304.6089416592
22
38.4095827875
13
304.6089416592
23
38.4095827875
0
SOLID
5
2EF
100
AcDbEntity
8
0
100
AcDbTrace
62
2
6
CONTINUOUS
10
305.7960942022
20
39.4306336519
11
306.9741666312
21
39.5261755055
12
305.5059948621
22
38.4817700022
13
305.5059948621
23
38.4817700022
0
SOLID
5
2F0
100
AcDbEntity
8
0
100
AcDbTrace
62
2
6
CONTINUOUS
10
305.5059948621
20
38.4817700022
11
306.9741666312
21
39.5261755055
12
305.4426094542
22
38.3682006298
13
305.4426094542
23
38.3682006298
0
SOLID
5
2F1
100
AcDbEntity
8
0
100
AcDbTrace
62
2
6
CONTINUOUS
10
303.3497913203
20
38.2032215258
11
305.2109202980
21
38.2634268850
12
306.5359911964
22
38.0929748608
13
306.5359911964
23
38.0929748608
0
SOLID
5
2F2
100
AcDbEntity
8
0
100
AcDbTrace
62
2
6
CONTINUOUS
10
305.2109202980
20
38.2634268850
11
305.3380593977
21
38.2908378611
12
306.5359911964
22
38.0929748608
13
306.5359911964
23
38.0929748608
0
SOLID
5
2F3
100
AcDbEntity
8
0
100
AcDbTrace
62
2
6
CONTINUOUS
10
305.3380593977
20
38.2908378611
11
305.4426094542
21
38.3682006298
12
306.5359911964
22
38.0929748608
13
306.5359911964
23
38.0929748608
0
SOLID
5
2F4
100
AcDbEntity
8
0
100
AcDbTrace
62
2
6
CONTINUOUS
10
306.9741666312
20
39.5261755055
11
306.5359911964
21
38.0929748608
12
305.4426094542
22
38.3682006298
13
305.4426094542
23
38.3682006298
0
SOLID
5
2F5
100
AcDbEntity
8
0
100
AcDbTrace
62
2
6
CONTINUOUS
10
303.4064233486
20
37.9933332398
11
303.3497913203
21
38.2032215258
12
306.5359911964
22
38.0929748608
13
306.5359911964
23
38.0929748608
0
SOLID
5
2F6
100
AcDbEntity
8
0
100
AcDbTrace
62
2
6
CONTINUOUS
10
306.5359911964
20
38.0929748608
11
306.4110812052
21
37.8691676064
12
303.4064233486
22
37.9933332398
13
303.4064233486
23
37.9933332398
0
SOLID
5
2F7
100
AcDbEntity
8
0
100
AcDbTrace
62
2
6
CONTINUOUS
10
303.5357343301
20
37.8185792720
11
303.4064233486
21
37.9933332398
12
306.4110812052
22
37.8691676064
13
306.4110812052
23
37.8691676064
0
SOLID
5
2F8
100
AcDbEntity
8
0
100
AcDbTrace
62
2
6
CONTINUOUS
10
306.4110812052
20
37.8691676064
11
306.2050490270
21
37.7167112697
12
303.5357343301
22
37.8185792720
13
303.5357343301
23
37.8185792720
0
SOLID
5
2F9
100
AcDbEntity
8
0
100
AcDbTrace
62
2
6
CONTINUOUS
10
303.7198937634
20
37.7030561905
11
303.5357343301
21
37.8185792720
12
306.2050490270
22
37.7167112697
13
306.2050490270
23
37.7167112697
0
SOLID
5
2FA
100
AcDbEntity
8
0
100
AcDbTrace
62
2
6
CONTINUOUS
10
303.7198937634
20
37.7030561905
11
306.2050490270
21
37.7167112697
12
303.9335081744
22
37.6626933037
13
303.9335081744
23
37.6626933037
0
SOLID
5
2FB
100
AcDbEntity
8
0
100
AcDbTrace
62
2
6
CONTINUOUS
10
306.2050490270
20
37.7167112697
11
305.9545011226
21
37.6626933037
12
303.9335081744
22
37.6626933037
13
303.9335081744
23
37.6626933037
0
SPLINE
5
2FC
100
AcDbEntity
8
0
100
AcDbSpline
62
2
6
CONTINUOUS
70
0
71
3
72
19
73
15
74
13
42
0.0000001000
43
0.0000001000
44
0.0000000001
12
0.4339606054
22
1.6586940674
32
0.0000000000
13
-0.4842836775
23
-1.6402585603
33
0.0000000000
40
0.0000000000
40
0.0000000000
40
0.0000000000
40
0.0000000000
40
0.0733467744
40
0.1498063967
40
0.2081411495
40
0.2583211915
40
0.3635870269
40
0.4385955180
40
0.5314601259
40
0.6303173621
40
0.7694874379
40
0.8818899910
40
0.9480681912
40
1.0000000000
40
1.0000000000
40
1.0000000000
40
1.0000000000
10
297.4044886153
20
32.8467650516
30
0.0000000000
10
297.4150984855
20
32.8873183381
30
0.0000000000
10
297.4391194108
20
32.9699180612
30
0.0000000000
10
297.4834500819
20
33.0808459090
30
0.0000000000
10
297.5351790666
20
33.1737008467
30
0.0000000000
10
297.6060873720
20
33.2733660396
30
0.0000000000
10
297.6959665889
20
33.3733194345
30
0.0000000000
10
297.8388895226
20
33.4444030296
30
0.0000000000
10
297.9901830375
20
33.4671793040
30
0.0000000000
10
298.1904283066
20
33.4453281425
30
0.0000000000
10
298.3118972011
20
33.2535161491
30
0.0000000000
10
298.3301895368
20
33.0715616394
30
0.0000000000
10
298.3114327972
20
32.9402040910
30
0.0000000000
10
298.2944258846
20
32.8744696640
30
0.0000000000
10
298.2860426422
20
32.8460757994
30
0.0000000000
11
297.4044886153
21
32.8467650516
31
0.0000000000
11
297.4405105507
21
32.9675398219
31
0.0000000000
11
297.4902019304
21
33.0891628452
31
0.0000000000
11
297.5390912689
21
33.1766722258
31
0.0000000000
11
297.5887608561
21
33.2471587357
31
0.0000000000
11
297.7159578111
21
33.3757797131
31
0.0000000000
11
297.8310192452
21
33.4338957095
31
0.0000000000
11
297.9884910880
21
33.4598562197
31
0.0000000000
11
298.1554173118
21
33.4282284005
31
0.0000000000
11
298.2989211515
21
33.2369190615
31
0.0000000000
11
298.3230209312
21
33.0452889458
31
0.0000000000
11
298.3079515142
21
32.9325788547
31
0.0000000000
11
298.2860426422
21
32.8460757994
31
0.0000000000
0
SPLINE
5
2FD
100
AcDbEntity
8
0
100
AcDbSpline
62
2
6
CONTINUOUS
70
0
71
3
72
29
73
25
74
23
42
0.0000001000
43
0.0000001000
44
0.0000000001
12
3.2865447635
22
4.6439573179
32
0.0000000000
13
2.3279098785
23
5.0001468094
33
0.0000000000
40
0.0000000000
40
0.0000000000
40
0.0000000000
40
0.0000000000
40
0.0237068947
40
0.0614711794
40
0.1139339560
40
0.1675655411
40
0.2062547008
40
0.2556460834
40
0.2904369029
40
0.3321299756
40
0.3780663041
40
0.4381384938
40
0.4871914533
40
0.5436480494
40
0.5978677001
40
0.6383222697
40
0.6838641822
40
0.7218908853
40
0.7725612673
40
0.8227985151
40
0.8688619739
40
0.9267501071
40
0.9670193089
40
1.0000000000
40
1.0000000000
40
1.0000000000
40
1.0000000000
10
298.5634460341
20
32.5543135788
30
0.0000000000
10
298.5894172910
20
32.5910115145
30
0.0000000000
10
298.6415508062
20
32.6926074410
30
0.0000000000
10
298.6860578716
20
32.9014013321
30
0.0000000000
10
298.7075808959
20
33.1721388641
30
0.0000000000
10
298.5997248734
20
33.4315226703
30
0.0000000000
10
298.4129583961
20
33.6212673567
30
0.0000000000
10
298.1978220941
20
33.7221979615
30
0.0000000000
10
297.9613999845
20
33.7248367864
30
0.0000000000
10
297.7347872056
20
33.6829026427
30
0.0000000000
10
297.4952546657
20
33.5394657460
30
0.0000000000
10
297.2893315570
20
33.3353242982
30
0.0000000000
10
297.1120869667
20
33.0813222003
30
0.0000000000
10
297.0059352731
20
32.8009930549
30
0.0000000000
10
296.9526586319
20
32.5250061304
30
0.0000000000
10
296.9287358344
20
32.2640711908
30
0.0000000000
10
296.9996234541
20
32.0329435393
30
0.0000000000
10
297.1869965162
20
31.8575898381
30
0.0000000000
10
297.4341928235
20
31.7623431773
30
0.0000000000
10
297.7105545103
20
31.7568336900
30
0.0000000000
10
297.9941321483
20
31.8090570637
30
0.0000000000
10
298.2352605303
20
31.9465112219
30
0.0000000000
10
298.3867163141
20
32.1405331483
30
0.0000000000
10
298.4503253648
20
32.2622799519
30
0.0000000000
10
298.4759173903
20
32.3172493844
30
0.0000000000
11
298.5634460341
21
32.5543135788
31
0.0000000000
11
298.6254463470
21
32.6710185117
31
0.0000000000
11
298.6765063617
21
32.8752456064
31
0.0000000000
11
298.6841990126
21
33.1675929552
31
0.0000000000
11
298.5707417269
21
33.4441917380
31
0.0000000000
11
298.4197050817
21
33.5981430224
31
0.0000000000
11
298.1685683209
21
33.7109946175
31
0.0000000000
11
297.9747931500
21
33.7189393928
31
0.0000000000
11
297.7471920101
21
33.6718868681
31
0.0000000000
11
297.5240259540
21
33.5463182496
31
0.0000000000
11
297.2832156458
21
33.3136254455
31
0.0000000000
11
297.1292679644
21
33.0876386931
31
0.0000000000
11
297.0134354181
21
32.7950190257
31
0.0000000000
11
296.9534546171
21
32.4987884275
31
0.0000000000
11
296.9437280239
21
32.2734883035
31
0.0000000000
11
297.0243757163
21
32.0327698924
31
0.0000000000
11
297.1755990664
21
31.8842257648
31
0.0000000000
11
297.4375371252
21
31.7785355621
31
0.0000000000
11
297.7173224737
21
31.7665360027
31
0.0000000000
11
297.9689714598
21
31.8175927764
31
0.0000000000
11
298.2470680537
21
31.9812759685
31
0.0000000000
11
298.3887904119
21
32.1553579835
31
0.0000000000
11
298.4759173903
21
32.3172493844
31
0.0000000000
0
SPLINE
5
2FE
100
AcDbEntity
8
0
100
AcDbSpline
62
2
6
CONTINUOUS
70
0
71
3
72
15
73
11
74
9
42
0.0000001000
43
0.0000001000
44
0.0000000001
12
-0.5418905177
22
-1.3380198412
32
0.0000000000
13
0.5616194682
23
1.3175437813
33
0.0000000000
40
0.0000000000
40
0.0000000000
40
0.0000000000
40
0.0000000000
40
0.1344931725
40
0.2838658276
40
0.4140293585
40
0.5229714824
40
0.6225394791
40
0.7146573457
40
0.8503771984
40
1.0000000000
40
1.0000000000
40
1.0000000000
40
1.0000000000
10
298.1148558112
20
32.3172493844
30
0.0000000000
10
298.0905622862
20
32.2572645399
30
0.0000000000
10
298.0132369571
20
32.1466037586
30
0.0000000000
10
297.8471824795
20
32.0373131828
30
0.0000000000
10
297.6697813677
20
31.9860231594
30
0.0000000000
10
297.5097684664
20
31.9863749253
30
0.0000000000
10
297.3701273634
20
32.0390791479
30
0.0000000000
10
297.2885150088
20
32.1770619797
30
0.0000000000
10
297.2534149906
20
32.3537592218
30
0.0000000000
10
297.2802650380
20
32.4879929562
30
0.0000000000
10
297.3082753974
20
32.5537044868
30
0.0000000000
11
298.1148558112
21
32.3172493844
31
0.0000000000
11
298.0090911764
21
32.1604247348
31
0.0000000000
11
297.8350414051
21
32.0427738652
31
0.0000000000
11
297.6589700072
21
31.9926501758
31
0.0000000000
11
297.5057932041
21
31.9963043925
31
0.0000000000
11
297.3777981641
21
32.0531147945
31
0.0000000000
11
297.3052042326
21
32.1604247348
31
0.0000000000
11
297.2667849826
21
32.3474000018
31
0.0000000000
11
297.3082753974
21
32.5537044868
31
0.0000000000
0
SPLINE
5
2FF
100
AcDbEntity
8
0
100
AcDbSpline
62
2
6
CONTINUOUS
70
0
71
3
72
25
73
21
74
19
42
0.0000001000
43
0.0000001000
44
0.0000000001
12
0.8157737047
22
5.0335446054
32
0.0000000000
13
2.3745652087
23
4.6624999616
33
0.0000000000
40
0.0000000000
40
0.0000000000
40
0.0000000000
40
0.0000000000
40
0.0394484903
40
0.1037557419
40
0.1635540219
40
0.2320001167
40
0.2877632861
40
0.3529425459
40
0.4122504376
40
0.4724413014
40
0.5349067516
40
0.5960085698
40
0.6515495438
40
0.6901619657
40
0.7475850286
40
0.8007903576
40
0.8565535222
40
0.9031299742
40
0.9436893149
40
1.0000000000
40
1.0000000000
40
1.0000000000
40
1.0000000000
10
300.5953535883
20
32.9619383972
30
0.0000000000
10
300.6060806020
20
33.0281269757
30
0.0000000000
10
300.6061702891
20
33.2058216386
30
0.0000000000
10
300.5001455311
20
33.4722432475
30
0.0000000000
10
300.2497776848
20
33.7008718895
30
0.0000000000
10
299.9274196116
20
33.7562427594
30
0.0000000000
10
299.6106752834
20
33.6856883094
30
0.0000000000
10
299.3464955843
20
33.5198091569
30
0.0000000000
10
299.1444214042
20
33.2790736015
30
0.0000000000
10
298.9840521725
20
33.0140404455
30
0.0000000000
10
298.8913949209
20
32.7157993748
30
0.0000000000
10
298.8437760673
20
32.4133001255
30
0.0000000000
10
298.9079917430
20
32.1492402951
30
0.0000000000
10
299.0588545684
20
31.9388566632
30
0.0000000000
10
299.2744546555
20
31.7879486173
30
0.0000000000
10
299.5616343903
20
31.7585724050
30
0.0000000000
10
299.8247584268
20
31.8115478126
30
0.0000000000
10
300.0311458652
20
31.9417012210
30
0.0000000000
10
300.2217080580
20
32.0930916532
30
0.0000000000
10
300.3244026304
20
32.2208177648
30
0.0000000000
10
300.3689737617
20
32.3083339539
30
0.0000000000
11
300.5953535883
21
32.9619383972
31
0.0000000000
11
300.5964129613
21
33.1619929324
31
0.0000000000
11
300.4754964645
21
33.4648735966
31
0.0000000000
11
300.2484298727
21
33.6658870325
31
0.0000000000
11
299.9081961107
21
33.7346582132
31
0.0000000000
11
299.6317410985
21
33.6751134911
31
0.0000000000
11
299.3505660144
21
33.5013261323
31
0.0000000000
11
299.1516534700
21
33.2757219299
31
0.0000000000
11
298.9971949942
21
33.0124355547
31
0.0000000000
11
298.8982343862
21
32.7115049279
31
0.0000000000
11
298.8640460121
21
32.4035276573
31
0.0000000000
11
298.9340514702
21
32.1306978042
31
0.0000000000
11
299.0471085568
21
31.9708149540
31
0.0000000000
11
299.2889317155
21
31.8085606684
31
0.0000000000
11
299.5563286915
21
31.7724580533
31
0.0000000000
11
299.8327837037
21
31.8320026637
31
0.0000000000
11
300.0369524597
21
31.9507809682
31
0.0000000000
11
300.1962263297
21
32.0809368877
31
0.0000000000
11
300.3689737617
21
32.3083339539
31
0.0000000000
0
SPLINE
5
300
100
AcDbEntity
8
0
100
AcDbSpline
62
2
6
CONTINUOUS
70
0
71
3
72
17
73
13
74
11
42
0.0000001000
43
0.0000001000
44
0.0000000001
12
-1.6832372324
22
-2.8102127831
32
0.0000000000
13
-0.4907448505
23
-2.8837932000
33
0.0000000000
40
0.0000000000
40
0.0000000000
40
0.0000000000
40
0.0000000000
40
0.0911488296
40
0.1741717444
40
0.2745703384
40
0.3731270547
40
0.4737805577
40
0.6049500673
40
0.7365509155
40
0.8489573523
40
0.9455276753
40
1.0000000000
40
1.0000000000
40
1.0000000000
40
1.0000000000
10
300.0075915431
20
32.3059754826
30
0.0000000000
10
299.9564498419
20
32.2205929473
30
0.0000000000
10
299.8194304902
20
32.0683705353
30
0.0000000000
10
299.5226285674
20
31.9619028728
30
0.0000000000
10
299.1674428480
20
32.0960221866
30
0.0000000000
10
299.1647213976
20
32.4774117858
30
0.0000000000
10
299.2734032648
20
32.8175798234
30
0.0000000000
10
299.3996080131
20
33.2110251498
30
0.0000000000
10
299.7150233797
20
33.5165292984
30
0.0000000000
10
300.1830543305
20
33.5171310514
30
0.0000000000
10
300.2752293079
20
33.1919244470
30
0.0000000000
10
300.2639462302
20
33.0143007038
30
0.0000000000
10
300.2550355593
20
32.9619383972
30
0.0000000000
11
300.0075915431
21
32.3059754826
31
0.0000000000
11
299.7990006674
21
32.0844615746
31
0.0000000000
11
299.5346975435
21
32.0010861559
31
0.0000000000
11
299.2284800609
21
32.1372937676
31
0.0000000000
11
299.1812233508
21
32.4628779171
31
0.0000000000
11
299.2641646937
21
32.7884750307
31
0.0000000000
11
299.4317675893
21
33.1929897919
31
0.0000000000
11
299.7690274177
21
33.4744888682
31
0.0000000000
11
300.1428822758
21
33.4424164304
31
0.0000000000
11
300.2637436749
21
33.1435658318
31
0.0000000000
11
300.2550355593
21
32.9619383972
31
0.0000000000
0
SPLINE
5
301
100
AcDbEntity
8
0
100
AcDbSpline
62
2
6
CONTINUOUS
70
0
71
3
72
14
73
10
74
8
42
0.0000001000
43
0.0000001000
44
0.0000000001
12
-0.0574347546
22
-0.9438772149
32
0.0000000000
13
0.9898432400
23
0.2257314897
33
0.0000000000
40
0.0000000000
40
0.0000000000
40
0.0000000000
40
0.0000000000
40
0.1547338624
40
0.3147803988
40
0.4246035258
40
0.5815857756
40
0.7408349255
40
0.8779715212
40
1.0000000000
40
1.0000000000
40
1.0000000000
40
1.0000000000
10
300.7622924061
20
32.2915267028
30
0.0000000000
10
300.7593300389
20
32.2428434471
30
0.0000000000
10
300.7472340803
20
32.1309547536
30
0.0000000000
10
300.7691519872
20
31.9828831261
30
0.0000000000
10
300.8730700623
20
31.8704667276
30
0.0000000000
10
301.0174180711
20
31.8309699142
30
0.0000000000
10
301.1705847551
20
31.8100107586
30
0.0000000000
10
301.3136693156
20
31.8218429588
30
0.0000000000
10
301.4008544835
20
31.8393558891
30
0.0000000000
10
301.4411175051
20
31.8485377792
30
0.0000000000
11
300.7622924061
21
32.2915267028
31
0.0000000000
11
300.7542872608
21
32.1333543394
31
0.0000000000
11
300.7899524473
21
31.9734714892
31
0.0000000000
11
300.8658994023
21
31.8906013375
31
0.0000000000
11
301.0165752401
21
31.8348016929
31
0.0000000000
11
301.1784084141
21
31.8153638349
31
0.0000000000
11
301.3184322945
21
31.8251217123
31
0.0000000000
11
301.4411175051
21
31.8485377792
31
0.0000000000
0
SPLINE
5
302
100
AcDbEntity
8
0
100
AcDbSpline
62
2
6
CONTINUOUS
70
0
71
3
72
12
73
8
74
6
42
0.0000001000
43
0.0000001000
44
0.0000000001
12
-0.4642864426
22
-0.2821308355
32
0.0000000000
13
0.1443993631
23
0.5107366788
33
0.0000000000
40
0.0000000000
40
0.0000000000
40
0.0000000000
40
0.0000000000
40
0.3792195484
40
0.5953596727
40
0.8070182821
40
0.8796536934
40
1.0000000000
40
1.0000000000
40
1.0000000000
40
1.0000000000
10
301.5274734513
20
32.1301924255
30
0.0000000000
10
301.4687846196
20
32.0945292495
30
0.0000000000
10
301.3639282750
20
32.0516855093
30
0.0000000000
10
301.2173482553
20
32.0640915774
30
0.0000000000
10
301.1302166928
20
32.1139842498
30
0.0000000000
10
301.1047546064
20
32.1840468656
30
0.0000000000
10
301.1063423142
20
32.2209922622
30
0.0000000000
10
301.1121349576
20
32.2414806865
30
0.0000000000
11
301.5274734513
21
32.1301924255
31
0.0000000000
11
301.3338756266
21
32.0610455076
31
0.0000000000
11
301.2173554329
21
32.0733690593
31
0.0000000000
11
301.1235320189
21
32.1394188840
31
0.0000000000
11
301.1097020541
21
32.1762860493
31
0.0000000000
11
301.1121349576
21
32.2414806865
31
0.0000000000
0
SPLINE
5
303
100
AcDbEntity
8
0
100
AcDbSpline
62
2
6
CONTINUOUS
70
0
71
3
72
15
73
11
74
9
42
0.0000001000
43
0.0000001000
44
0.0000000001
12
-1.1183147722
22
0.2647712288
32
0.0000000000
13
-0.3196609688
23
-1.0987489854
33
0.0000000000
40
0.0000000000
40
0.0000000000
40
0.0000000000
40
0.0000000000
40
0.0223833177
40
0.1006235556
40
0.2414461306
40
0.3509103406
40
0.5021624339
40
0.6459906680
40
0.8118992477
40
1.0000000000
40
1.0000000000
40
1.0000000000
40
1.0000000000
10
303.0854503201
20
33.3789842484
30
0.0000000000
10
303.0771064551
20
33.3809597346
30
0.0000000000
10
303.0394446958
20
33.3864924112
30
0.0000000000
10
302.9479049099
20
33.3718711615
30
0.0000000000
10
302.8247584690
20
33.3544345876
30
0.0000000000
10
302.6827592028
20
33.2978512139
30
0.0000000000
10
302.5495783981
20
33.2184349661
30
0.0000000000
10
302.4340335595
20
33.0853193851
30
0.0000000000
10
302.3319386906
20
32.9262194640
30
0.0000000000
10
302.2808908846
20
32.8018211332
30
0.0000000000
10
302.2608480617
20
32.7329292963
30
0.0000000000
11
303.0854503201
21
33.3789842484
31
0.0000000000
11
303.0603268956
21
33.3828458917
31
0.0000000000
11
302.9717516332
21
33.3758700370
31
0.0000000000
11
302.8146842271
21
33.3458103041
31
0.0000000000
11
302.6986595773
21
33.3011939240
31
0.0000000000
11
302.5532255069
21
33.2098100072
31
0.0000000000
11
302.4426113375
21
33.0896368623
31
0.0000000000
11
302.3412232690
21
32.9308378244
31
0.0000000000
11
302.2608480617
21
32.7329292963
31
0.0000000000
0
SPLINE
5
304
100
AcDbEntity
8
0
100
AcDbSpline
62
2
6
CONTINUOUS
70
0
71
3
72
11
73
7
74
5
42
0.0000001000
43
0.0000001000
44
0.0000000001
12
0.6112522491
22
0.5985046411
32
0.0000000000
13
0.8711866534
23
0.0213594937
33
0.0000000000
40
0.0000000000
40
0.0000000000
40
0.0000000000
40
0.0000000000
40
0.1664753079
40
0.3878638331
40
0.6909096239
40
1.0000000000
40
1.0000000000
40
1.0000000000
40
1.0000000000
10
302.4290759051
20
33.2851382588
30
0.0000000000
10
302.4629953739
20
33.3183503403
30
0.0000000000
10
302.5438514969
20
33.3941602231
30
0.0000000000
10
302.6989118774
20
33.5164392419
30
0.0000000000
10
302.9114349858
20
33.6295850966
30
0.0000000000
10
303.0838101395
20
33.6661873265
30
0.0000000000
10
303.1735686097
20
33.6683879978
30
0.0000000000
11
302.4290759051
21
33.2851382588
31
0.0000000000
11
302.5335446827
21
33.3821072699
31
0.0000000000
11
302.6834398036
21
33.4981332033
31
0.0000000000
11
302.9138885499
21
33.6173701166
31
0.0000000000
11
303.1735686097
21
33.6683879978
31
0.0000000000
0
SPLINE
5
305
100
AcDbEntity
8
0
100
AcDbSpline
62
2
6
CONTINUOUS
70
0
71
3
72
21
73
17
74
15
42
0.0000001000
43
0.0000001000
44
0.0000000001
12
-1.6726633932
22
-3.0794841457
32
0.0000000000
13
-0.2098510428
23
-2.7829587933
33
0.0000000000
40
0.0000000000
40
0.0000000000
40
0.0000000000
40
0.0000000000
40
0.0902316617
40
0.1724191741
40
0.2410265088
40
0.3068713213
40
0.3922110359
40
0.4719796451
40
0.5353020326
40
0.6020441376
40
0.6940512300
40
0.7761362688
40
0.8204354448
40
0.8680827810
40
0.9148331741
40
1.0000000000
40
1.0000000000
40
1.0000000000
40
1.0000000000
10
308.5554067258
20
32.3059754826
30
0.0000000000
10
308.5050976600
20
32.2133531587
30
0.0000000000
10
308.3672456729
20
32.0683705353
30
0.0000000000
10
308.1030896059
20
31.9823563830
30
0.0000000000
10
307.8381251157
20
32.0190659269
30
0.0000000000
10
307.7081927480
20
32.2610362331
30
0.0000000000
10
307.7331096694
20
32.5250342857
30
0.0000000000
10
307.8047944072
20
32.7713193720
30
0.0000000000
10
307.8801802715
20
32.9948351935
30
0.0000000000
10
307.9815120819
20
33.2243392223
30
0.0000000000
10
308.1737932428
20
33.4282697007
30
0.0000000000
10
308.4160276674
20
33.5135764170
30
0.0000000000
10
308.6141670752
20
33.4948244949
30
0.0000000000
10
308.7554403578
20
33.4056806516
30
0.0000000000
10
308.8263598470
20
33.2107734887
30
0.0000000000
10
308.8088081911
20
33.0409436529
30
0.0000000000
10
308.8028507420
20
32.9619383972
30
0.0000000000
11
308.5554067258
21
32.3059754826
31
0.0000000000
11
308.3468158501
21
32.0844615746
31
0.0000000000
11
308.0825127262
21
32.0010861559
31
0.0000000000
11
307.8568683921
21
32.0521429296
31
0.0000000000
11
307.7397640768
21
32.2407835977
31
0.0000000000
11
307.7427940661
21
32.5285389288
31
0.0000000000
11
307.8119766353
21
32.7884750307
31
0.0000000000
11
307.8819432010
21
32.9902140125
31
0.0000000000
11
307.9795827721
21
33.1929897919
31
0.0000000000
11
308.1968267775
21
33.4144907357
31
0.0000000000
11
308.4595035699
21
33.5017666902
31
0.0000000000
11
308.6077950081
21
33.4837672952
31
0.0000000000
11
308.7413558078
21
33.3944567499
31
0.0000000000
11
308.8024392417
21
33.2491263928
31
0.0000000000
11
308.8028507420
21
32.9619383972
31
0.0000000000
0
SPLINE
5
306
100
AcDbEntity
8
0
100
AcDbSpline
62
2
6
CONTINUOUS
70
0
71
3
72
26
73
22
74
20
42
0.0000001000
43
0.0000001000
44
0.0000000001
12
0.6978882498
22
4.9958387879
32
0.0000000000
13
2.7700319723
23
4.2095185224
33
0.0000000000
40
0.0000000000
40
0.0000000000
40
0.0000000000
40
0.0000000000
40
0.0394790130
40
0.0712964408
40
0.1043596262
40
0.1642041640
40
0.1882066937
40
0.2739195014
40
0.3324071853
40
0.3757737075
40
0.4321283527
40
0.4785136197
40
0.5282485437
40
0.5888496388
40
0.6528974315
40
0.7037823041
40
0.7652472293
40
0.8128193384
40
0.8700606829
40
0.9283903452
40
1.0000000000
40
1.0000000000
40
1.0000000000
40
1.0000000000
10
309.1431655300
20
32.9619383972
30
0.0000000000
10
309.1523495097
20
33.0276819920
30
0.0000000000
10
309.1535028235
20
33.1502010502
30
0.0000000000
10
309.1103389696
20
33.3229774932
30
0.0000000000
10
309.0064139774
20
33.5078034766
30
0.0000000000
10
308.8552049891
20
33.6488211574
30
0.0000000000
10
308.5858835766
20
33.7494692206
30
0.0000000000
10
308.2813962610
20
33.7449676511
30
0.0000000000
10
308.0019935445
20
33.5868848834
30
0.0000000000
10
307.7928645533
20
33.4183830231
30
0.0000000000
10
307.6468418897
20
33.2161030375
30
0.0000000000
10
307.5264407752
20
32.9877151032
30
0.0000000000
10
307.4442343557
20
32.7352289748
30
0.0000000000
10
307.3904832235
20
32.4430003507
30
0.0000000000
10
307.4507366304
20
32.1404450758
30
0.0000000000
10
307.6428093690
20
31.9003576737
30
0.0000000000
10
307.8967091340
20
31.7830186058
30
0.0000000000
10
308.1816014631
20
31.7601318597
30
0.0000000000
10
308.4500693489
20
31.8492472658
30
0.0000000000
10
308.7092399516
20
32.0350915154
30
0.0000000000
10
308.8506685999
20
32.2078532311
30
0.0000000000
10
308.9167889444
20
32.3083339539
30
0.0000000000
11
309.1431655300
21
32.9619383972
31
0.0000000000
11
309.1442313851
21
33.1619929324
31
0.0000000000
11
309.1043067046
21
33.3182044224
31
0.0000000000
11
309.0233148883
21
33.4648735966
31
0.0000000000
11
308.7962482965
21
33.6658870325
31
0.0000000000
11
308.6827363450
21
33.7095814978
31
0.0000000000
11
308.2484472686
21
33.7026634487
31
0.0000000000
11
307.9851031573
21
33.5666762276
31
0.0000000000
11
307.8161136553
21
33.4261923430
31
0.0000000000
11
307.6433628705
21
33.1987952768
31
0.0000000000
11
307.5350200762
21
32.9901990207
31
0.0000000000
11
307.4547832933
21
32.7512838732
31
0.0000000000
11
307.4107403537
21
32.4473664114
31
0.0000000000
11
307.4818666529
21
32.1306978042
31
0.0000000000
11
307.6427844160
21
31.9292155293
31
0.0000000000
11
307.9231212225
21
31.7934783799
31
0.0000000000
11
308.1635719189
21
31.7762289475
31
0.0000000000
11
308.4408788777
21
31.8613149648
31
0.0000000000
11
308.6830972197
21
32.0307224492
31
0.0000000000
11
308.9167889444
21
32.3083339539
31
0.0000000000
0
SPLINE
5
307
100
AcDbEntity
8
0
100
AcDbSpline
62
2
6
CONTINUOUS
70
0
71
3
72
32
73
28
74
26
42
0.0000001000
43
0.0000001000
44
0.0000000001
12
-0.8091764396
22
-4.5149058799
32
0.0000000000
13
1.1250412741
23
-3.9968343281
33
0.0000000000
40
0.0000000000
40
0.0000000000
40
0.0000000000
40
0.0000000000
40
0.0270670319
40
0.0650982430
40
0.0825891820
40
0.1277855908
40
0.1676182036
40
0.2195537228
40
0.2700262469
40
0.3362114275
40
0.3890455849
40
0.4472306847
40
0.4918243416
40
0.5434665653
40
0.5821848250
40
0.6374614946
40
0.6851752196
40
0.7361892993
40
0.7646046448
40
0.7937290425
40
0.8272900050
40
0.8753620121
40
0.9023587604
40
0.9418232193
40
0.9615441081
40
0.9757510093
40
1.0000000000
40
1.0000000000
40
1.0000000000
40
1.0000000000
10
309.1290827641
20
32.3262556757
30
0.0000000000
10
309.1217820960
20
32.2855206419
30
0.0000000000
10
309.1264785908
20
32.1915311868
30
0.0000000000
10
309.1702620101
20
32.0784647050
30
0.0000000000
10
309.2190362046
20
31.9382757351
30
0.0000000000
10
309.3527946172
20
31.8506090692
30
0.0000000000
10
309.5346212210
20
31.7696978708
30
0.0000000000
10
309.7463085491
20
31.7693863052
30
0.0000000000
10
309.9903129173
20
31.7889486201
30
0.0000000000
10
310.2265899210
20
31.8701565156
30
0.0000000000
10
310.4427024436
20
32.0234803629
30
0.0000000000
10
310.5460590472
20
32.2288694377
30
0.0000000000
10
310.6034090365
20
32.4577746204
30
0.0000000000
10
310.4939338197
20
32.6374361648
30
0.0000000000
10
310.3539764508
20
32.7953722259
30
0.0000000000
10
310.1652591372
20
32.8919904999
30
0.0000000000
10
309.9693616526
20
32.9838094817
30
0.0000000000
10
309.7740330965
20
33.0532257634
30
0.0000000000
10
309.7362269021
20
33.2191984149
30
0.0000000000
10
309.7645617204
20
33.3536984820
30
0.0000000000
10
309.8942287191
20
33.4672338842
30
0.0000000000
10
310.0553986791
20
33.4909246407
30
0.0000000000
10
310.2200686516
20
33.4990759116
30
0.0000000000
10
310.3505971277
20
33.4686610641
30
0.0000000000
10
310.4221213721
20
33.3797079504
30
0.0000000000
10
310.4289551779
20
33.2943248422
30
0.0000000000
10
310.4222770412
20
33.2353779492
30
0.0000000000
10
310.4313707463
20
33.2030715497
30
0.0000000000
11
309.1290827641
21
32.3262556757
31
0.0000000000
11
309.1308418665
21
32.2082030289
31
0.0000000000
11
309.1799561242
21
32.0497489534
31
0.0000000000
11
309.2096235022
21
31.9794582489
31
0.0000000000
11
309.3603414736
21
31.8523736060
31
0.0000000000
11
309.5213323124
21
31.7870235106
31
0.0000000000
11
309.7474075930
21
31.7724969458
31
0.0000000000
11
309.9664088915
21
31.7950543678
31
0.0000000000
11
310.2387805090
21
31.8907640714
31
0.0000000000
11
310.4222123496
21
32.0302817795
31
0.0000000000
11
310.5454414939
21
32.2521602313
31
0.0000000000
11
310.5763545356
21
32.4442046092
31
0.0000000000
11
310.4790287080
21
32.6473565793
31
0.0000000000
11
310.3639764488
21
32.7709938668
31
0.0000000000
11
310.1569586158
21
32.8946074289
31
0.0000000000
11
309.9674660313
21
32.9806832680
31
0.0000000000
11
309.7782392713
21
33.0977702719
31
0.0000000000
11
309.7457255179
21
33.2173768374
31
0.0000000000
11
309.7748149449
21
33.3410415049
31
0.0000000000
11
309.8815579267
21
33.4412242865
31
0.0000000000
11
310.0852538261
21
33.4909981672
31
0.0000000000
11
310.2029856100
21
33.4935380249
31
0.0000000000
11
310.3662896573
21
33.4390860942
31
0.0000000000
11
310.4176703114
21
33.3700946345
31
0.0000000000
11
310.4262476091
21
33.3087209309
31
0.0000000000
11
310.4313707463
21
33.2030715497
31
0.0000000000
0
SPLINE
5
308
100
AcDbEntity
8
0
100
AcDbSpline
62
2
6
CONTINUOUS
70
0
71
3
72
28
73
24
74
22
42
0.0000001000
43
0.0000001000
44
0.0000000001
12
0.4050140247
22
4.2539565332
32
0.0000000000
13
0.3030085241
23
4.1434230042
33
0.0000000000
40
0.0000000000
40
0.0000000000
40
0.0000000000
40
0.0000000000
40
0.0276966009
40
0.0495302358
40
0.0824352404
40
0.1393464906
40
0.1868711219
40
0.2468992545
40
0.3156408751
40
0.3678096287
40
0.4242324638
40
0.4720596604
40
0.5175769929
40
0.5743626810
40
0.6359764535
40
0.6859665481
40
0.7488964451
40
0.7936867950
40
0.8443733975
40
0.8904019873
40
0.9406792921
40
0.9693681122
40
1.0000000000
40
1.0000000000
40
1.0000000000
40
1.0000000000
10
310.7652420115
20
33.2039527773
30
0.0000000000
10
310.7689811821
20
33.2432261562
30
0.0000000000
10
310.7681393141
20
33.3142163884
30
0.0000000000
10
310.7424834313
20
33.4290993061
30
0.0000000000
10
310.6692513843
20
33.5732866768
30
0.0000000000
10
310.4994680189
20
33.6917886651
30
0.0000000000
10
310.2667241466
20
33.7309552668
30
0.0000000000
10
310.0143989527
20
33.7252391554
30
0.0000000000
10
309.7646344169
20
33.6515067916
30
0.0000000000
10
309.5454984090
20
33.5192018694
30
0.0000000000
10
309.4251334579
20
33.3131827410
30
0.0000000000
10
309.4413788753
20
33.0968889725
30
0.0000000000
10
309.5052845392
20
32.8836784178
30
0.0000000000
10
309.7160548242
20
32.7554924543
30
0.0000000000
10
309.9245923432
20
32.6496035893
30
0.0000000000
10
310.1610370014
20
32.5533321854
30
0.0000000000
10
310.2615332696
20
32.3105459736
30
0.0000000000
10
310.1489536801
20
32.0902072873
30
0.0000000000
10
309.9457333220
20
32.0214634053
30
0.0000000000
10
309.7401950536
20
32.0131096084
30
0.0000000000
10
309.5531846321
20
32.0609716096
30
0.0000000000
10
309.4637500386
20
32.1963575564
30
0.0000000000
10
309.4497328775
20
32.2839487195
30
0.0000000000
10
309.4528267852
20
32.3262556757
30
0.0000000000
11
310.7652420115
21
33.2039527773
31
0.0000000000
11
310.7634827973
21
33.3220054241
31
0.0000000000
11
310.7429273393
21
33.4127801372
31
0.0000000000
11
310.6780015967
21
33.5371177193
31
0.0000000000
11
310.4823143781
21
33.6805142799
31
0.0000000000
11
310.2840804541
21
33.7222956573
31
0.0000000000
11
310.0282943363
21
33.7150258928
31
0.0000000000
11
309.7474108341
21
33.6315209443
31
0.0000000000
11
309.5624400991
21
33.5080645897
31
0.0000000000
11
309.4453302597
21
33.2979801534
31
0.0000000000
11
309.4494024588
21
33.0941418717
31
0.0000000000
11
309.5179079860
21
32.9126051863
31
0.0000000000
11
309.7085553742
21
32.7634401262
31
0.0000000000
11
309.9429433205
21
32.6449216242
31
0.0000000000
11
310.1276283007
21
32.5386077224
31
0.0000000000
11
310.2235379387
21
32.2880796891
31
0.0000000000
11
310.1379012799
21
32.1174282041
31
0.0000000000
11
309.9400489649
21
32.0305956916
31
0.0000000000
11
309.7439832666
21
32.0230249792
31
0.0000000000
11
309.5426566994
21
32.0965239955
31
0.0000000000
11
309.4733791139
21
32.1973048643
31
0.0000000000
11
309.4528267852
21
32.3262556757
31
0.0000000000
0
SOLID
5
309
100
AcDbEntity
8
0
100
AcDbTrace
62
2
6
CONTINUOUS
10
296.4039742749
20
34.3554127045
11
296.3013261794
21
34.0196690123
12
295.1269198008
22
34.0196690123
13
295.1269198008
23
34.0196690123
0
SOLID
5
30A
100
AcDbEntity
8
0
100
AcDbTrace
62
2
6
CONTINUOUS
10
294.5547438052
20
32.1481530398
11
294.1032411166
21
31.8153638350
12
294.7891934861
22
32.9225314860
13
294.7891934861
23
32.9225314860
0
SOLID
5
30B
100
AcDbEntity
8
0
100
AcDbTrace
62
2
6
CONTINUOUS
10
295.9655338716
20
32.9225832308
11
294.7891934861
21
32.9225314860
12
296.0683731884
22
33.2603484378
13
296.0683731884
23
33.2603484378
0
SOLID
5
30C
100
AcDbEntity
8
0
100
AcDbTrace
62
2
6
CONTINUOUS
10
296.0683731884
20
33.2603484378
11
294.7891934861
21
32.9225314860
12
294.8924733609
22
33.2603484378
13
294.8924733609
23
33.2603484378
0
SOLID
5
30D
100
AcDbEntity
8
0
100
AcDbTrace
62
2
6
CONTINUOUS
10
294.7891934861
20
32.9225314860
11
294.1032411166
21
31.8153638350
12
294.8924733609
22
33.2603484378
13
294.8924733609
23
33.2603484378
0
SOLID
5
30E
100
AcDbEntity
8
0
100
AcDbTrace
62
2
6
CONTINUOUS
10
294.8924733609
20
33.2603484378
11
294.1032411166
21
31.8153638350
12
295.1269198008
22
34.0196690123
13
295.1269198008
23
34.0196690123
0
SOLID
5
30F
100
AcDbEntity
8
0
100
AcDbTrace
62
2
6
CONTINUOUS
10
296.4039742749
20
34.3554127045
11
295.1269198008
21
34.0196690123
12
294.8779889296
22
34.3554127045
13
294.8779889296
23
34.3554127045
0
SOLID
5
310
100
AcDbEntity
8
0
100
AcDbTrace
62
2
6
CONTINUOUS
10
294.1032411166
20
31.8153638350
11
294.8779889296
21
34.3554127045
12
295.1269198008
22
34.0196690123
13
295.1269198008
23
34.0196690123
0
SOLID
5
311
100
AcDbEntity
8
0
100
AcDbTrace
62
2
6
CONTINUOUS
10
294.5547438052
20
32.1481530398
11
295.9072689132
21
32.1482047847
12
294.1032411166
22
31.8153638350
13
294.1032411166
23
31.8153638350
0
SOLID
5
312
100
AcDbEntity
8
0
100
AcDbTrace
62
2
6
CONTINUOUS
10
295.9072689132
20
32.1482047847
11
295.8055085274
21
31.8153638350
12
294.1032411166
22
31.8153638350
13
294.1032411166
23
31.8153638350
0
SOLID
5
313
100
AcDbEntity
8
0
100
AcDbTrace
62
2
6
CONTINUOUS
10
296.8817860497
20
34.3549980749
11
297.2316739758
21
34.3554127045
12
296.1053471962
22
31.8153638350
13
296.1053471962
23
31.8153638350
0
SOLID
5
314
100
AcDbEntity
8
0
100
AcDbTrace
62
2
6
CONTINUOUS
10
297.2316739758
20
34.3554127045
11
296.4552707737
21
31.8153638350
12
296.1053471962
22
31.8153638350
13
296.1053471962
23
31.8153638350
0
SOLID
5
315
100
AcDbEntity
8
0
100
AcDbTrace
62
2
6
CONTINUOUS
10
298.0739613280
20
33.7213794285
11
298.3187375096
21
33.6597661969
12
297.8214643880
22
33.6947058083
13
297.8214643880
23
33.6947058083
0
SOLID
5
316
100
AcDbEntity
8
0
100
AcDbTrace
62
2
6
CONTINUOUS
10
297.5904414149
20
33.5925458832
11
297.8214643880
21
33.6947058083
12
298.3187375096
22
33.6597661969
13
298.3187375096
23
33.6597661969
0
SOLID
5
317
100
AcDbEntity
8
0
100
AcDbTrace
62
2
6
CONTINUOUS
10
298.3187375096
20
33.6597661969
11
298.5209712380
21
33.5064915941
12
297.5904414149
22
33.5925458832
13
297.5904414149
23
33.5925458832
0
SOLID
5
318
100
AcDbEntity
8
0
100
AcDbTrace
62
2
6
CONTINUOUS
10
297.9338312704
20
33.4562899690
11
297.3927281108
21
33.4332223872
12
298.5209712380
22
33.5064915941
13
298.5209712380
23
33.5064915941
0
SOLID
5
319
100
AcDbEntity
8
0
100
AcDbTrace
62
2
6
CONTINUOUS
10
297.3927281108
20
33.4332223872
11
297.5904414149
21
33.5925458832
12
298.5209712380
22
33.5064915941
13
298.5209712380
23
33.5064915941
0
SOLID
5
31A
100
AcDbEntity
8
0
100
AcDbTrace
62
2
6
CONTINUOUS
10
297.9338312704
20
33.4562899690
11
297.7957485236
21
33.4204232900
12
297.3927281108
22
33.4332223872
13
297.3927281108
23
33.4332223872
0
SOLID
5
31B
100
AcDbEntity
8
0
100
AcDbTrace
62
2
6
CONTINUOUS
10
297.9338312704
20
33.4562899690
11
298.5209712380
21
33.5064915941
12
298.0794065932
22
33.4536145306
13
298.0794065932
23
33.4536145306
0
SOLID
5
31C
100
AcDbEntity
8
0
100
AcDbTrace
62
2
6
CONTINUOUS
10
298.0794065932
20
33.4536145306
11
298.5209712380
21
33.5064915941
12
298.2053733643
22
33.3918759250
13
298.2053733643
23
33.3918759250
0
SOLID
5
31D
100
AcDbEntity
8
0
100
AcDbTrace
62
2
6
CONTINUOUS
10
298.5209712380
20
33.5064915941
11
298.6522432725
21
33.2890808655
12
298.2053733643
22
33.3918759250
13
298.2053733643
23
33.3918759250
0
SOLID
5
31E
100
AcDbEntity
8
0
100
AcDbTrace
62
2
6
CONTINUOUS
10
298.2866993555
20
33.2695197691
11
298.2053733643
21
33.3918759250
12
298.6522432725
22
33.2890808655
13
298.6522432725
23
33.2890808655
0
SOLID
5
31F
100
AcDbEntity
8
0
100
AcDbTrace
62
2
6
CONTINUOUS
10
297.6754320908
20
33.3431641467
11
297.2268689190
21
33.2413138913
12
297.7957485236
22
33.4204232900
13
297.7957485236
23
33.4204232900
0
SOLID
5
320
100
AcDbEntity
8
0
100
AcDbTrace
62
2
6
CONTINUOUS
10
297.2268689190
20
33.2413138913
11
297.3927281108
21
33.4332223872
12
297.7957485236
22
33.4204232900
13
297.7957485236
23
33.4204232900
0
SOLID
5
321
100
AcDbEntity
8
0
100
AcDbTrace
62
2
6
CONTINUOUS
10
297.6754320908
20
33.3431641467
11
297.5800899029
21
33.2357375909
12
297.2268689190
22
33.2413138913
13
297.2268689190
23
33.2413138913
0
SOLID
5
322
100
AcDbEntity
8
0
100
AcDbTrace
62
2
6
CONTINUOUS
10
298.2866993555
20
33.2695197691
11
298.6522432725
21
33.2890808655
12
298.3214929456
22
33.1284412211
13
298.3214929456
23
33.1284412211
0
SOLID
5
323
100
AcDbEntity
8
0
100
AcDbTrace
62
2
6
CONTINUOUS
10
298.6522432725
20
33.2890808655
11
298.6923500542
21
33.0396557730
12
298.3214929456
22
33.1284412211
13
298.3214929456
23
33.1284412211
0
SOLID
5
324
100
AcDbEntity
8
0
100
AcDbTrace
62
2
6
CONTINUOUS
10
297.5033082484
20
33.1150273704
11
297.0972414075
21
33.0237682271
12
297.5800899029
22
33.2357375909
13
297.5800899029
23
33.2357375909
0
SOLID
5
325
100
AcDbEntity
8
0
100
AcDbTrace
62
2
6
CONTINUOUS
10
297.0972414075
20
33.0237682271
11
297.2268689190
21
33.2413138913
12
297.5800899029
22
33.2357375909
13
297.5800899029
23
33.2357375909
0
SOLID
5
326
100
AcDbEntity
8
0
100
AcDbTrace
62
2
6
CONTINUOUS
10
298.3172379818
20
32.9858470927
11
298.3214929456
21
33.1284412211
12
298.6923500542
22
33.0396557730
13
298.6923500542
23
33.0396557730
0
SOLID
5
327
100
AcDbEntity
8
0
100
AcDbTrace
62
2
6
CONTINUOUS
10
297.5033082484
20
33.1150273704
11
297.4461935850
21
32.9837503241
12
297.0972414075
22
33.0237682271
13
297.0972414075
23
33.0237682271
0
SOLID
5
328
100
AcDbEntity
8
0
100
AcDbTrace
62
2
6
CONTINUOUS
10
298.3172379818
20
32.9858470927
11
298.6923500542
21
33.0396557730
12
298.2789729125
22
32.8460757992
13
298.2789729125
23
32.8460757992
0
SOLID
5
329
100
AcDbEntity
8
0
100
AcDbTrace
62
2
6
CONTINUOUS
10
298.6923500542
20
33.0396557730
11
298.6600086282
21
32.7868768272
12
298.2789729125
22
32.8460757992
13
298.2789729125
23
32.8460757992
0
SOLID
5
32A
100
AcDbEntity
8
0
100
AcDbTrace
62
2
6
CONTINUOUS
10
298.6600086282
20
32.7868768272
11
297.0107239534
21
32.7853048059
12
298.2789729125
22
32.8460757992
13
298.2789729125
23
32.8460757992
0
SOLID
5
32B
100
AcDbEntity
8
0
100
AcDbTrace
62
2
6
CONTINUOUS
10
298.2789729125
20
32.8460757992
11
297.0107239534
21
32.7853048059
12
297.4182613192
22
32.8460757992
13
297.4182613192
23
32.8460757992
0
SOLID
5
32C
100
AcDbEntity
8
0
100
AcDbTrace
62
2
6
CONTINUOUS
10
297.4182613192
20
32.8460757992
11
297.0107239534
21
32.7853048059
12
297.4461935850
22
32.9837503241
13
297.4461935850
23
32.9837503241
0
SOLID
5
32D
100
AcDbEntity
8
0
100
AcDbTrace
62
2
6
CONTINUOUS
10
297.0107239534
20
32.7853048059
11
297.0972414075
21
33.0237682271
12
297.4461935850
22
32.9837503241
13
297.4461935850
23
32.9837503241
0
SOLID
5
32E
100
AcDbEntity
8
0
100
AcDbTrace
62
2
6
CONTINUOUS
10
298.6600086282
20
32.7868768272
11
298.5634460341
21
32.5543135788
12
297.0107239534
22
32.7853048059
13
297.0107239534
23
32.7853048059
0
SOLID
5
32F
100
AcDbEntity
8
0
100
AcDbTrace
62
2
6
CONTINUOUS
10
298.5634460341
20
32.5543135788
11
297.3082753974
21
32.5537044868
12
297.0107239534
22
32.7853048059
13
297.0107239534
23
32.7853048059
0
SOLID
5
330
100
AcDbEntity
8
0
100
AcDbTrace
62
2
6
CONTINUOUS
10
296.9589236748
20
32.5372717038
11
297.0107239534
21
32.7853048059
12
297.3082753974
22
32.5537044868
13
297.3082753974
23
32.5537044868
0
SOLID
5
331
100
AcDbEntity
8
0
100
AcDbTrace
62
2
6
CONTINUOUS
10
297.3082753974
20
32.5537044868
11
297.2676784299
21
32.3820535547
12
296.9589236748
22
32.5372717038
13
296.9589236748
23
32.5372717038
0
SOLID
5
332
100
AcDbEntity
8
0
100
AcDbTrace
62
2
6
CONTINUOUS
10
296.9427771129
20
32.2844299195
11
296.9589236748
21
32.5372717038
12
297.2676784299
22
32.3820535547
13
297.2676784299
23
32.3820535547
0
SOLID
5
333
100
AcDbEntity
8
0
100
AcDbTrace
62
2
6
CONTINUOUS
10
297.2676784299
20
32.3820535547
11
297.2880346875
21
32.2078142169
12
296.9427771129
22
32.2844299195
13
296.9427771129
23
32.2844299195
0
SOLID
5
334
100
AcDbEntity
8
0
100
AcDbTrace
62
2
6
CONTINUOUS
10
298.0184611877
20
32.1699483946
11
298.1148558112
21
32.3172493842
12
298.4759173903
22
32.3172493842
13
298.4759173903
23
32.3172493842
0
SOLID
5
335
100
AcDbEntity
8
0
100
AcDbTrace
62
2
6
CONTINUOUS
10
298.4759173903
20
32.3172493842
11
298.3495746521
21
32.0975380377
12
298.0184611877
22
32.1699483946
13
298.0184611877
23
32.1699483946
0
SOLID
5
336
100
AcDbEntity
8
0
100
AcDbTrace
62
2
6
CONTINUOUS
10
297.8780564852
20
32.0640459555
11
298.0184611877
21
32.1699483946
12
298.3495746521
22
32.0975380377
13
298.3495746521
23
32.0975380377
0
SOLID
5
337
100
AcDbEntity
8
0
100
AcDbTrace
62
2
6
CONTINUOUS
10
297.3752149997
20
32.0553757462
11
297.0182339601
21
32.0424268856
12
297.2880346875
22
32.2078142169
13
297.2880346875
23
32.2078142169
0
SOLID
5
338
100
AcDbEntity
8
0
100
AcDbTrace
62
2
6
CONTINUOUS
10
297.0182339601
20
32.0424268856
11
296.9427771129
21
32.2844299195
12
297.2880346875
22
32.2078142169
13
297.2880346875
23
32.2078142169
0
SOLID
5
339
100
AcDbEntity
8
0
100
AcDbTrace
62
2
6
CONTINUOUS
10
297.3752149997
20
32.0553757462
11
297.5381150555
21
31.9912498743
12
297.0182339601
22
32.0424268856
13
297.0182339601
23
32.0424268856
0
SOLID
5
33A
100
AcDbEntity
8
0
100
AcDbTrace
62
2
6
CONTINUOUS
10
297.8780564852
20
32.0640459555
11
298.3495746521
21
32.0975380377
12
297.7130840983
22
32.0021320231
13
297.7130840983
23
32.0021320231
0
SOLID
5
33B
100
AcDbEntity
8
0
100
AcDbTrace
62
2
6
CONTINUOUS
10
297.5381150555
20
31.9912498743
11
297.7130840983
21
32.0021320231
12
298.1700662024
22
31.9194056997
13
298.1700662024
23
31.9194056997
0
SOLID
5
33C
100
AcDbEntity
8
0
100
AcDbTrace
62
2
6
CONTINUOUS
10
298.3495746521
20
32.0975380377
11
298.1700662024
21
31.9194056997
12
297.7130840983
22
32.0021320231
13
297.7130840983
23
32.0021320231
0
SOLID
5
33D
100
AcDbEntity
8
0
100
AcDbTrace
62
2
6
CONTINUOUS
10
298.1700662024
20
31.9194056997
11
297.2011546578
21
31.8680381978
12
297.5381150555
22
31.9912498743
13
297.5381150555
23
31.9912498743
0
SOLID
5
33E
100
AcDbEntity
8
0
100
AcDbTrace
62
2
6
CONTINUOUS
10
297.2011546578
20
31.8680381978
11
297.0182339601
21
32.0424268856
12
297.5381150555
22
31.9912498743
13
297.5381150555
23
31.9912498743
0
SOLID
5
33F
100
AcDbEntity
8
0
100
AcDbTrace
62
2
6
CONTINUOUS
10
298.1700662024
20
31.9194056997
11
297.9411728014
21
31.8084930508
12
297.2011546578
22
31.8680381978
13
297.2011546578
23
31.8680381978
0
SOLID
5
340
100
AcDbEntity
8
0
100
AcDbTrace
62
2
6
CONTINUOUS
10
297.4384485893
20
31.7783567431
11
297.2011546578
21
31.8680381978
12
297.9411728014
22
31.8084930508
13
297.9411728014
23
31.8084930508
0
SOLID
5
341
100
AcDbEntity
8
0
100
AcDbTrace
62
2
6
CONTINUOUS
10
297.9411728014
20
31.8084930508
11
297.6915522986
21
31.7645919043
12
297.4384485893
22
31.7783567431
13
297.4384485893
23
31.7783567431
0
SOLID
5
342
100
AcDbEntity
8
0
100
AcDbTrace
62
2
6
CONTINUOUS
10
299.9584278697
20
33.7351417776
11
300.2342212059
21
33.6729145968
12
299.6794777930
22
33.6924681167
13
299.6794777930
23
33.6924681167
0
SOLID
5
343
100
AcDbEntity
8
0
100
AcDbTrace
62
2
6
CONTINUOUS
10
299.4286394737
20
33.5635493336
11
299.6794777930
21
33.6924681167
12
300.2342212059
22
33.6729145968
13
300.2342212059
23
33.6729145968
0
SOLID
5
344
100
AcDbEntity
8
0
100
AcDbTrace
62
2
6
CONTINUOUS
10
299.4286394737
20
33.5635493336
11
300.2342212059
21
33.6729145968
12
299.9941249657
22
33.4999811745
13
299.9941249657
23
33.4999811745
0
SOLID
5
345
100
AcDbEntity
8
0
100
AcDbTrace
62
2
6
CONTINUOUS
10
300.2342212059
20
33.6729145968
11
300.4528958299
21
33.4951693090
12
299.9941249657
22
33.4999811745
13
299.9941249657
23
33.4999811745
0
SOLID
5
346
100
AcDbEntity
8
0
100
AcDbTrace
62
2
6
CONTINUOUS
10
299.6539381012
20
33.4207621539
11
299.2241105209
21
33.3699184761
12
299.9941249657
22
33.4999811745
13
299.9941249657
23
33.4999811745
0
SOLID
5
347
100
AcDbEntity
8
0
100
AcDbTrace
62
2
6
CONTINUOUS
10
299.2241105209
20
33.3699184761
11
299.4286394737
21
33.5635493336
12
299.9941249657
22
33.4999811745
13
299.9941249657
23
33.4999811745
0
SOLID
5
348
100
AcDbEntity
8
0
100
AcDbTrace
62
2
6
CONTINUOUS
10
300.2335102014
20
33.3033107940
11
299.9941249657
21
33.4999811745
12
300.4528958299
22
33.4951693090
13
300.4528958299
23
33.4951693090
0
SOLID
5
349
100
AcDbEntity
8
0
100
AcDbTrace
62
2
6
CONTINUOUS
10
300.4528958299
20
33.4951693090
11
300.5797249640
21
33.2424052965
12
300.2335102014
22
33.3033107940
13
300.2335102014
23
33.3033107940
0
SOLID
5
34A
100
AcDbEntity
8
0
100
AcDbTrace
62
2
6
CONTINUOUS
10
299.6539381012
20
33.4207621539
11
299.4230891294
21
33.1788279346
12
299.2241105209
22
33.3699184761
13
299.2241105209
23
33.3699184761
0
SOLID
5
34B
100
AcDbEntity
8
0
100
AcDbTrace
62
2
6
CONTINUOUS
10
299.0624334086
20
33.1384675244
11
299.2241105209
21
33.3699184761
12
299.4230891294
22
33.1788279346
13
299.4230891294
23
33.1788279346
0
SOLID
5
34C
100
AcDbEntity
8
0
100
AcDbTrace
62
2
6
CONTINUOUS
10
300.2550355593
20
32.9619383974
11
300.2335102014
21
33.3033107940
12
300.5797249640
22
33.2424052965
13
300.5797249640
23
33.2424052965
0
SOLID
5
34D
100
AcDbEntity
8
0
100
AcDbTrace
62
2
6
CONTINUOUS
10
300.5797249640
20
33.2424052965
11
300.5953535883
21
32.9619383974
12
300.2550355593
22
32.9619383974
13
300.2550355593
23
32.9619383974
0
SOLID
5
34E
100
AcDbEntity
8
0
100
AcDbTrace
62
2
6
CONTINUOUS
10
299.0624334086
20
33.1384675244
11
299.4230891294
21
33.1788279346
12
298.9462506491
22
32.8824450834
13
298.9462506491
23
32.8824450834
0
SOLID
5
34F
100
AcDbEntity
8
0
100
AcDbTrace
62
2
6
CONTINUOUS
10
299.4230891294
20
33.1788279346
11
299.2910753942
21
32.8715727827
12
298.9462506491
22
32.8824450834
13
298.9462506491
23
32.8824450834
0
SOLID
5
350
100
AcDbEntity
8
0
100
AcDbTrace
62
2
6
CONTINUOUS
10
298.8774922617
20
32.6082812806
11
298.9462506491
21
32.8824450834
12
299.2910753942
22
32.8715727827
13
299.2910753942
23
32.8715727827
0
SOLID
5
351
100
AcDbEntity
8
0
100
AcDbTrace
62
2
6
CONTINUOUS
10
299.2910753942
20
32.8715727827
11
299.1973383565
21
32.5534303351
12
298.8774922617
22
32.6082812806
13
298.8774922617
23
32.6082812806
0
SOLID
5
352
100
AcDbEntity
8
0
100
AcDbTrace
62
2
6
CONTINUOUS
10
298.8721347897
20
32.3268671395
11
298.8774922617
21
32.6082812806
12
299.1973383565
22
32.5534303351
13
299.1973383565
23
32.5534303351
0
SOLID
5
353
100
AcDbEntity
8
0
100
AcDbTrace
62
2
6
CONTINUOUS
10
299.1973383565
20
32.5534303351
11
299.1919558844
21
32.2111767816
12
298.8721347897
22
32.3268671395
13
298.8721347897
23
32.3268671395
0
SOLID
5
354
100
AcDbEntity
8
0
100
AcDbTrace
62
2
6
CONTINUOUS
10
300.3689737617
20
32.3083339539
11
300.1989765301
21
32.0835819934
12
300.0075915431
22
32.3059754826
13
300.0075915431
23
32.3059754826
0
SOLID
5
355
100
AcDbEntity
8
0
100
AcDbTrace
62
2
6
CONTINUOUS
10
299.7736307990
20
32.0686830460
11
300.0075915431
21
32.3059754826
12
300.1989765301
22
32.0835819934
13
300.1989765301
23
32.0835819934
0
SOLID
5
356
100
AcDbEntity
8
0
100
AcDbTrace
62
2
6
CONTINUOUS
10
298.9724722948
20
32.0642647538
11
298.8721347897
21
32.3268671395
12
299.1919558844
22
32.2111767816
13
299.1919558844
23
32.2111767816
0
SOLID
5
357
100
AcDbEntity
8
0
100
AcDbTrace
62
2
6
CONTINUOUS
10
299.1919558844
20
32.2111767816
11
299.4439697791
21
32.0106223238
12
298.9724722948
22
32.0642647538
13
298.9724722948
23
32.0642647538
0
SOLID
5
358
100
AcDbEntity
8
0
100
AcDbTrace
62
2
6
CONTINUOUS
10
299.7736307990
20
32.0686830460
11
300.1989765301
21
32.0835819934
12
299.4439697791
22
32.0106223238
13
299.4439697791
23
32.0106223238
0
SOLID
5
359
100
AcDbEntity
8
0
100
AcDbTrace
62
2
6
CONTINUOUS
10
300.1989765301
20
32.0835819934
11
299.9770167480
21
31.9098188681
12
299.4439697791
22
32.0106223238
13
299.4439697791
23
32.0106223238
0
SOLID
5
35A
100
AcDbEntity
8
0
100
AcDbTrace
62
2
6
CONTINUOUS
10
299.9770167480
20
31.9098188681
11
299.1734155201
21
31.8660664706
12
299.4439697791
22
32.0106223238
13
299.4439697791
23
32.0106223238
0
SOLID
5
35B
100
AcDbEntity
8
0
100
AcDbTrace
62
2
6
CONTINUOUS
10
299.1734155201
20
31.8660664706
11
298.9724722948
21
32.0642647538
12
299.4439697791
22
32.0106223238
13
299.4439697791
23
32.0106223238
0
SOLID
5
35C
100
AcDbEntity
8
0
100
AcDbTrace
62
2
6
CONTINUOUS
10
299.9770167480
20
31.9098188681
11
299.7208948220
21
31.7954608759
12
299.1734155201
22
31.8660664706
13
299.1734155201
23
31.8660664706
0
SOLID
5
35D
100
AcDbEntity
8
0
100
AcDbTrace
62
2
6
CONTINUOUS
10
299.4384851873
20
31.7753955844
11
299.1734155201
21
31.8660664706
12
299.7208948220
22
31.7954608759
13
299.7208948220
23
31.7954608759
0
SOLID
5
35E
100
AcDbEntity
8
0
100
AcDbTrace
62
2
6
CONTINUOUS
10
301.2567008762
20
33.9232961291
11
301.6619187196
21
34.0397418906
12
301.1588571197
22
33.6019365076
13
301.1588571197
23
33.6019365076
0
SOLID
5
35F
100
AcDbEntity
8
0
100
AcDbTrace
62
2
6
CONTINUOUS
10
301.6619187196
20
34.0397418906
11
301.5280695791
21
33.6019365076
12
301.1588571197
22
33.6019365076
13
301.1588571197
23
33.6019365076
0
SOLID
5
360
100
AcDbEntity
8
0
100
AcDbTrace
62
2
6
CONTINUOUS
10
301.8474789885
20
33.6019365076
11
300.7858283915
21
33.3648593491
12
301.5280695791
22
33.6019365076
13
301.5280695791
23
33.6019365076
0
SOLID
5
361
100
AcDbEntity
8
0
100
AcDbTrace
62
2
6
CONTINUOUS
10
301.5280695791
20
33.6019365076
11
300.7858283915
21
33.3648593491
12
301.1588571197
22
33.6019365076
13
301.1588571197
23
33.6019365076
0
SOLID
5
362
100
AcDbEntity
8
0
100
AcDbTrace
62
2
6
CONTINUOUS
10
300.7858283915
20
33.3648593491
11
300.8558306086
21
33.6019365076
12
301.1588571197
22
33.6019365076
13
301.1588571197
23
33.6019365076
0
SOLID
5
363
100
AcDbEntity
8
0
100
AcDbTrace
62
2
6
CONTINUOUS
10
300.7858283915
20
33.3648593491
11
301.8474789885
21
33.6019365076
12
301.0859716063
22
33.3648593491
13
301.0859716063
23
33.3648593491
0
SOLID
5
364
100
AcDbEntity
8
0
100
AcDbTrace
62
2
6
CONTINUOUS
10
301.8474789885
20
33.6019365076
11
301.7752932045
21
33.3648593491
12
301.0859716063
22
33.3648593491
13
301.0859716063
23
33.3648593491
0
SOLID
5
365
100
AcDbEntity
8
0
100
AcDbTrace
62
2
6
CONTINUOUS
10
301.7752932045
20
33.3648593491
11
301.4554075857
21
33.3642761854
12
301.0859716063
22
33.3648593491
13
301.0859716063
23
33.3648593491
0
SOLID
5
366
100
AcDbEntity
8
0
100
AcDbTrace
62
2
6
CONTINUOUS
10
300.7853392180
20
32.3791136853
11
301.0859716063
21
33.3648593491
12
301.4554075857
22
33.3642761854
13
301.4554075857
23
33.3642761854
0
SOLID
5
367
100
AcDbEntity
8
0
100
AcDbTrace
62
2
6
CONTINUOUS
10
300.7853392180
20
32.3791136853
11
301.4554075857
21
33.3642761854
12
300.7622924061
22
32.2915267028
13
300.7622924061
23
32.2915267028
0
SOLID
5
368
100
AcDbEntity
8
0
100
AcDbTrace
62
2
6
CONTINUOUS
10
301.4554075857
20
33.3642761854
11
301.1121349576
21
32.2414806865
12
300.7622924061
22
32.2915267028
13
300.7622924061
23
32.2915267028
0
SOLID
5
369
100
AcDbEntity
8
0
100
AcDbTrace
62
2
6
CONTINUOUS
10
300.7541959060
20
32.1459073150
11
300.7622924061
21
32.2915267028
12
301.1121349576
22
32.2414806865
13
301.1121349576
23
32.2414806865
0
SOLID
5
36A
100
AcDbEntity
8
0
100
AcDbTrace
62
2
6
CONTINUOUS
10
301.1121349576
20
32.2414806865
11
301.1255121982
21
32.1362064701
12
300.7541959060
22
32.1459073150
13
300.7541959060
23
32.1459073150
0
SOLID
5
36B
100
AcDbEntity
8
0
100
AcDbTrace
62
2
6
CONTINUOUS
10
301.3226662739
20
32.0602193769
11
300.7772674883
21
32.0002219542
12
301.2148811433
22
32.0741889244
13
301.2148811433
23
32.0741889244
0
SOLID
5
36C
100
AcDbEntity
8
0
100
AcDbTrace
62
2
6
CONTINUOUS
10
301.2148811433
20
32.0741889244
11
300.7772674883
21
32.0002219542
12
301.1255121982
22
32.1362064701
13
301.1255121982
23
32.1362064701
0
SOLID
5
36D
100
AcDbEntity
8
0
100
AcDbTrace
62
2
6
CONTINUOUS
10
300.7772674883
20
32.0002219542
11
300.7541959060
21
32.1459073150
12
301.1255121982
22
32.1362064701
13
301.1255121982
23
32.1362064701
0
SOLID
5
36E
100
AcDbEntity
8
0
100
AcDbTrace
62
2
6
CONTINUOUS
10
300.7772674883
20
32.0002219542
11
301.3226662739
21
32.0602193769
12
300.8692813203
22
31.8883325694
13
300.8692813203
23
31.8883325694
0
SOLID
5
36F
100
AcDbEntity
8
0
100
AcDbTrace
62
2
6
CONTINUOUS
10
301.3226662739
20
32.0602193769
11
301.4288499299
21
32.0826197907
12
300.8692813203
22
31.8883325694
13
300.8692813203
23
31.8883325694
0
SOLID
5
370
100
AcDbEntity
8
0
100
AcDbTrace
62
2
6
CONTINUOUS
10
300.8692813203
20
31.8883325694
11
301.4288499299
21
32.0826197907
12
301.4411175051
22
31.8485377792
13
301.4411175051
23
31.8485377792
0
SOLID
5
371
100
AcDbEntity
8
0
100
AcDbTrace
62
2
6
CONTINUOUS
10
301.5274734513
20
32.1301924255
11
301.4411175051
21
31.8485377792
12
301.4288499299
22
32.0826197907
13
301.4288499299
23
32.0826197907
0
SOLID
5
372
100
AcDbEntity
8
0
100
AcDbTrace
62
2
6
CONTINUOUS
10
301.0062673912
20
31.8369723076
11
300.8692813203
21
31.8883325694
12
301.4411175051
22
31.8485377792
13
301.4411175051
23
31.8485377792
0
SOLID
5
373
100
AcDbEntity
8
0
100
AcDbTrace
62
2
6
CONTINUOUS
10
301.4411175051
20
31.8485377792
11
301.2972223124
21
31.8222593170
12
301.0062673912
22
31.8369723076
13
301.0062673912
23
31.8369723076
0
SOLID
5
374
100
AcDbEntity
8
0
100
AcDbTrace
62
2
6
CONTINUOUS
10
301.1513509526
20
31.8163766593
11
301.0062673912
21
31.8369723076
12
301.2972223124
22
31.8222593170
13
301.2972223124
23
31.8222593170
0
SOLID
5
375
100
AcDbEntity
8
0
100
AcDbTrace
62
2
6
CONTINUOUS
10
302.9618696244
20
33.6334376187
11
303.1735686097
21
33.6683879978
12
302.7654050477
22
33.5486373809
13
302.7654050477
23
33.5486373809
0
SOLID
5
376
100
AcDbEntity
8
0
100
AcDbTrace
62
2
6
CONTINUOUS
10
302.7654050477
20
33.5486373809
11
303.1735686097
21
33.6683879978
12
302.5884039524
22
33.4280181480
13
302.5884039524
23
33.4280181480
0
SOLID
5
377
100
AcDbEntity
8
0
100
AcDbTrace
62
2
6
CONTINUOUS
10
303.1735686097
20
33.6683879978
11
303.0854503201
21
33.3789842484
12
302.5884039524
22
33.4280181480
13
302.5884039524
23
33.4280181480
0
SOLID
5
378
100
AcDbEntity
8
0
100
AcDbTrace
62
2
6
CONTINUOUS
10
302.6740227507
20
33.2889500242
11
302.4290759051
21
33.2851382588
12
302.8053899601
22
33.3431037822
13
302.8053899601
23
33.3431037822
0
SOLID
5
379
100
AcDbEntity
8
0
100
AcDbTrace
62
2
6
CONTINUOUS
10
302.8053899601
20
33.3431037822
11
302.4290759051
21
33.2851382588
12
302.9441795772
22
33.3716582378
13
302.9441795772
23
33.3716582378
0
SOLID
5
37A
100
AcDbEntity
8
0
100
AcDbTrace
62
2
6
CONTINUOUS
10
303.0854503201
20
33.3789842484
11
302.9441795772
21
33.3716582378
12
302.5884039524
22
33.4280181480
13
302.5884039524
23
33.4280181480
0
SOLID
5
37B
100
AcDbEntity
8
0
100
AcDbTrace
62
2
6
CONTINUOUS
10
302.4290759051
20
33.2851382588
11
302.5884039524
21
33.4280181480
12
302.9441795772
22
33.3716582378
13
302.9441795772
23
33.3716582378
0
SOLID
5
37C
100
AcDbEntity
8
0
100
AcDbTrace
62
2
6
CONTINUOUS
10
302.6740227507
20
33.2889500242
11
302.5551036737
21
33.2113865649
12
302.4290759051
22
33.2851382588
13
302.4290759051
23
33.2851382588
0
SOLID
5
37D
100
AcDbEntity
8
0
100
AcDbTrace
62
2
6
CONTINUOUS
10
302.2608480617
20
32.7329292963
11
301.6293894069
21
31.8153638350
12
302.3098944917
22
32.8664585760
13
302.3098944917
23
32.8664585760
0
SOLID
5
37E
100
AcDbEntity
8
0
100
AcDbTrace
62
2
6
CONTINUOUS
10
302.3098944917
20
32.8664585760
11
301.6293894069
21
31.8153638350
12
302.3759486217
22
32.9919055745
13
302.3759486217
23
32.9919055745
0
SOLID
5
37F
100
AcDbEntity
8
0
100
AcDbTrace
62
2
6
CONTINUOUS
10
302.5551036737
20
33.2113865649
11
302.4572646209
21
33.1085766896
12
302.4290759051
22
33.2851382588
13
302.4290759051
23
33.2851382588
0
SOLID
5
380
100
AcDbEntity
8
0
100
AcDbTrace
62
2
6
CONTINUOUS
10
302.4572646209
20
33.1085766896
11
302.3759486217
21
32.9919055745
12
302.4290759051
22
33.2851382588
13
302.4290759051
23
33.2851382588
0
SOLID
5
381
100
AcDbEntity
8
0
100
AcDbTrace
62
2
6
CONTINUOUS
10
302.3759486217
20
32.9919055745
11
301.6293894069
21
31.8153638350
12
302.4290759051
22
33.2851382588
13
302.4290759051
23
33.2851382588
0
SOLID
5
382
100
AcDbEntity
8
0
100
AcDbTrace
62
2
6
CONTINUOUS
10
302.4290759051
20
33.2851382588
11
301.6293894069
21
31.8153638350
12
302.5259315915
22
33.6019365076
13
302.5259315915
23
33.6019365076
0
SOLID
5
383
100
AcDbEntity
8
0
100
AcDbTrace
62
2
6
CONTINUOUS
10
301.6293894069
20
31.8153638350
11
302.1755997547
21
33.6019365076
12
302.5259315915
22
33.6019365076
13
302.5259315915
23
33.6019365076
0
SOLID
5
384
100
AcDbEntity
8
0
100
AcDbTrace
62
2
6
CONTINUOUS
10
302.2608480617
20
32.7329292963
11
301.9797180027
21
31.8153638350
12
301.6293894069
22
31.8153638350
13
301.6293894069
23
31.8153638350
0
SPLINE
5
385
100
AcDbEntity
8
0
100
AcDbSpline
62
2
6
CONTINUOUS
70
0
71
3
72
30
73
26
74
24
42
0.0000001000
43
0.0000001000
44
0.0000000001
12
-5.4944786818
22
-1.9685491115
32
0.0000000000
13
-5.7555532985
23
-2.4128894775
33
0.0000000000
40
0.0000000000
40
0.0000000000
40
0.0000000000
40
0.0000000000
40
0.0537041167
40
0.1087583789
40
0.1611291779
40
0.2136334296
40
0.2654830558
40
0.3039516715
40
0.3326516684
40
0.3665987310
40
0.3970039390
40
0.4438073057
40
0.4896931788
40
0.5400091700
40
0.5893122078
40
0.6388146691
40
0.6751464570
40
0.7223628885
40
0.7564206165
40
0.8043710111
40
0.8508621317
40
0.8864035523
40
0.9353967637
40
0.9540394046
40
1.0000000000
40
1.0000000000
40
1.0000000000
40
1.0000000000
10
303.7498170279
20
33.6908063832
30
0.0000000000
10
303.6514583198
20
33.6555666528
30
0.0000000000
10
303.4665383557
20
33.5542357998
30
0.0000000000
10
303.2406952829
20
33.3371792420
30
0.0000000000
10
303.0690456897
20
33.0792102054
30
0.0000000000
10
302.9622736668
20
32.7947760797
30
0.0000000000
10
302.9137757744
20
32.5237624018
30
0.0000000000
10
302.9138007969
20
32.2915204288
30
0.0000000000
10
302.9806631575
20
32.1060741912
30
0.0000000000
10
303.0849603739
20
31.9576630207
30
0.0000000000
10
303.2552533533
20
31.8233993099
30
0.0000000000
10
303.4867519591
20
31.7517704924
30
0.0000000000
10
303.7690009727
20
31.7580738349
30
0.0000000000
10
304.0223119772
20
31.8891551860
30
0.0000000000
10
304.2565035639
20
32.0581810856
30
0.0000000000
10
304.4095231719
20
32.2724645210
30
0.0000000000
10
304.5309215850
20
32.4979566128
30
0.0000000000
10
304.6014252060
20
32.7142075731
30
0.0000000000
10
304.6557879309
20
32.9566434330
30
0.0000000000
10
304.6541770056
20
33.2097179335
30
0.0000000000
10
304.5477117549
20
33.4430784408
30
0.0000000000
10
304.3704657185
20
33.6299748864
30
0.0000000000
10
304.1763941525
20
33.6960833156
30
0.0000000000
10
303.9612269173
20
33.7357933203
30
0.0000000000
10
303.8379932467
20
33.7277723289
30
0.0000000000
10
303.7498170279
20
33.6908063832
30
0.0000000000
11
303.7498170279
21
33.6908063832
31
0.0000000000
11
303.4767539317
21
33.5444781212
31
0.0000000000
11
303.2461981926
21
33.3260614180
31
0.0000000000
11
303.0794408731
21
33.0741467784
31
0.0000000000
11
302.9708544101
21
32.7914035897
31
0.0000000000
11
302.9193457348
21
32.4967710370
31
0.0000000000
11
302.9283665550
21
32.2750433880
31
0.0000000000
11
302.9832364122
21
32.1188407388
31
0.0000000000
11
303.0962934988
21
31.9589449244
31
0.0000000000
11
303.2343054757
21
31.8507018999
31
0.0000000000
11
303.4906762660
21
31.7660305681
31
0.0000000000
11
303.7551623969
21
31.7766307247
31
0.0000000000
11
304.0197440268
21
31.8959791169
31
0.0000000000
11
304.2454111599
21
32.0690798223
31
0.0000000000
11
304.4181585919
21
32.2964639243
31
0.0000000000
11
304.5160461025
21
32.4817844680
31
0.0000000000
11
304.6044089789
21
32.7394268077
31
0.0000000000
11
304.6438160019
21
32.9319004385
31
0.0000000000
11
304.6345231020
21
33.2083522097
31
0.0000000000
11
304.5246814065
21
33.4530165312
31
0.0000000000
11
304.3807699545
21
33.5990467293
31
0.0000000000
11
304.1188382660
21
33.7051968802
31
0.0000000000
11
304.0128987268
21
33.7236952278
31
0.0000000000
11
303.7498170279
21
33.6908063832
31
0.0000000000
0
SPLINE
5
386
100
AcDbEntity
8
0
100
AcDbSpline
62
2
6
CONTINUOUS
70
0
71
3
72
28
73
24
74
22
42
0.0000001000
43
0.0000001000
44
0.0000000001
12
-4.0414925152
22
0.5274684667
32
0.0000000000
13
-4.0497142461
23
0.5355118280
33
0.0000000000
40
0.0000000000
40
0.0000000000
40
0.0000000000
40
0.0000000000
40
0.0311764417
40
0.0796110694
40
0.1578671757
40
0.2140467874
40
0.2367979496
40
0.3037877423
40
0.3576426956
40
0.4106366564
40
0.4493108740
40
0.5127841048
40
0.5716952591
40
0.6090253734
40
0.6484527470
40
0.7020404168
40
0.7496260627
40
0.8180861007
40
0.8646982497
40
0.9094097407
40
0.9409112282
40
0.9696084783
40
1.0000000000
40
1.0000000000
40
1.0000000000
40
1.0000000000
10
304.0577418680
20
33.4862293680
30
0.0000000000
10
304.0157420828
20
33.4917108979
30
0.0000000000
10
303.9060021192
20
33.4936609050
30
0.0000000000
10
303.6932131725
20
33.4355529789
30
0.0000000000
10
303.5055472456
20
33.2512172894
30
0.0000000000
10
303.4134499901
20
33.0570398340
30
0.0000000000
10
303.3410191611
20
32.8715697171
30
0.0000000000
10
303.2802188411
20
32.6853582526
30
0.0000000000
10
303.2219053058
20
32.4543982116
30
0.0000000000
10
303.2208136932
20
32.2537384280
30
0.0000000000
10
303.2990650446
20
32.0453153196
30
0.0000000000
10
303.5367811410
20
31.9593519955
30
0.0000000000
10
303.7510836073
20
32.0204989859
30
0.0000000000
10
303.9116539763
20
32.1146034291
30
0.0000000000
10
304.0401879210
20
32.2410432046
30
0.0000000000
10
304.1308029517
20
32.4121809292
30
0.0000000000
10
304.2246158157
20
32.6233011055
30
0.0000000000
10
304.2907106080
20
32.8368791095
30
0.0000000000
10
304.3158799731
20
33.0538983338
30
0.0000000000
10
304.3144304965
20
33.2224819818
30
0.0000000000
10
304.2685100352
20
33.3623787001
30
0.0000000000
10
304.1769928791
20
33.4512665521
30
0.0000000000
10
304.0987675275
20
33.4808043615
30
0.0000000000
10
304.0577418680
20
33.4862293680
30
0.0000000000
11
304.0577418680
21
33.4862293680
31
0.0000000000
11
303.9301646987
21
33.4884452335
31
0.0000000000
11
303.7393659033
21
33.4346801797
31
0.0000000000
11
303.5029496933
21
33.2186088720
31
0.0000000000
11
303.3974442300
21
33.0143169564
31
0.0000000000
11
303.3633987812
21
32.9276500940
31
0.0000000000
11
303.2779240626
21
32.6671439043
31
0.0000000000
11
303.2305183764
21
32.4518890033
31
0.0000000000
11
303.2363885704
21
32.2350790737
31
0.0000000000
11
303.3007830060
21
32.0904873385
31
0.0000000000
11
303.5390975713
21
31.9870908981
31
0.0000000000
11
303.7743346014
21
32.0399683540
31
0.0000000000
11
303.9055871659
21
32.1181668260
31
0.0000000000
11
304.0205150590
21
32.2314377094
31
0.0000000000
11
304.1320754557
21
32.4202636056
31
0.0000000000
11
304.2102092186
21
32.5986578233
31
0.0000000000
11
304.2894540995
21
32.8674056424
31
0.0000000000
11
304.3121509909
21
33.0568210726
31
0.0000000000
11
304.3031026777
21
33.2395887944
31
0.0000000000
11
304.2578449069
21
33.3603109406
31
0.0000000000
11
304.1743333645
21
33.4428958808
31
0.0000000000
11
304.0577418680
21
33.4862293680
31
0.0000000000
0
SOLID
5
387
100
AcDbEntity
8
0
100
AcDbTrace
62
2
6
CONTINUOUS
10
303.9987604178
20
33.7251424042
11
304.2439429064
21
33.6687826827
12
303.7498170279
22
33.6908063832
13
303.7498170279
23
33.6908063832
0
SOLID
5
388
100
AcDbEntity
8
0
100
AcDbTrace
62
2
6
CONTINUOUS
10
303.5252457414
20
33.5781288234
11
303.7498170279
21
33.6908063832
12
304.2439429064
22
33.6687826827
13
304.2439429064
23
33.6687826827
0
SOLID
5
389
100
AcDbEntity
8
0
100
AcDbTrace
62
2
6
CONTINUOUS
10
304.2439429064
20
33.6687826827
11
304.4549731855
21
33.5364170575
12
303.5252457414
22
33.5781288234
13
303.5252457414
23
33.5781288234
0
SOLID
5
38A
100
AcDbEntity
8
0
100
AcDbTrace
62
2
6
CONTINUOUS
10
304.0577418680
20
33.4862293680
11
303.8632679887
21
33.4780594384
12
304.4549731855
22
33.5364170575
13
304.4549731855
23
33.5364170575
0
SOLID
5
38B
100
AcDbEntity
8
0
100
AcDbTrace
62
2
6
CONTINUOUS
10
304.4549731855
20
33.5364170575
11
303.8632679887
21
33.4780594384
12
303.5252457414
22
33.5781288234
13
303.5252457414
23
33.5781288234
0
SOLID
5
38C
100
AcDbEntity
8
0
100
AcDbTrace
62
2
6
CONTINUOUS
10
303.3311664689
20
33.4192998433
11
303.5252457414
21
33.5781288234
12
303.8632679887
22
33.4780594384
13
303.8632679887
23
33.4780594384
0
SOLID
5
38D
100
AcDbEntity
8
0
100
AcDbTrace
62
2
6
CONTINUOUS
10
303.8632679887
20
33.4780594384
11
303.6838363560
21
33.4024180367
12
303.3311664689
22
33.4192998433
13
303.3311664689
23
33.4192998433
0
SOLID
5
38E
100
AcDbEntity
8
0
100
AcDbTrace
62
2
6
CONTINUOUS
10
304.0577418680
20
33.4862293680
11
304.4549731855
21
33.5364170575
12
304.2289423246
22
33.3974218490
13
304.2289423246
23
33.3974218490
0
SOLID
5
38F
100
AcDbEntity
8
0
100
AcDbTrace
62
2
6
CONTINUOUS
10
304.4549731855
20
33.5364170575
11
304.5953945434
21
33.3277050218
12
304.2289423246
22
33.3974218490
13
304.2289423246
23
33.3974218490
0
SOLID
5
390
100
AcDbEntity
8
0
100
AcDbTrace
62
2
6
CONTINUOUS
10
303.5398009209
20
33.2686701947
11
303.1704350472
21
33.2262162018
12
303.6838363560
22
33.4024180367
13
303.6838363560
23
33.4024180367
0
SOLID
5
391
100
AcDbEntity
8
0
100
AcDbTrace
62
2
6
CONTINUOUS
10
303.1704350472
20
33.2262162018
11
303.3311664689
21
33.4192998433
12
303.6838363560
22
33.4024180367
13
303.6838363560
23
33.4024180367
0
SOLID
5
392
100
AcDbEntity
8
0
100
AcDbTrace
62
2
6
CONTINUOUS
10
304.3063974651
20
33.2207384399
11
304.2289423246
21
33.3974218490
12
304.5953945434
22
33.3277050218
13
304.5953945434
23
33.3277050218
0
SOLID
5
393
100
AcDbEntity
8
0
100
AcDbTrace
62
2
6
CONTINUOUS
10
303.5398009209
20
33.2686701947
11
303.4367582524
21
33.1024236660
12
303.1704350472
22
33.2262162018
13
303.1704350472
23
33.2262162018
0
SOLID
5
394
100
AcDbEntity
8
0
100
AcDbTrace
62
2
6
CONTINUOUS
10
304.5953945434
20
33.3277050218
11
304.6506429706
21
33.0835657779
12
304.3063974651
22
33.2207384399
13
304.3063974651
23
33.2207384399
0
SOLID
5
395
100
AcDbEntity
8
0
100
AcDbTrace
62
2
6
CONTINUOUS
10
304.3102190979
20
33.0258988570
11
304.3063974651
21
33.2207384399
12
304.6506429706
22
33.0835657779
13
304.6506429706
23
33.0835657779
0
SOLID
5
396
100
AcDbEntity
8
0
100
AcDbTrace
62
2
6
CONTINUOUS
10
303.0476004914
20
33.0075207309
11
303.1704350472
21
33.2262162018
12
303.4367582524
22
33.1024236660
13
303.4367582524
23
33.1024236660
0
SOLID
5
397
100
AcDbEntity
8
0
100
AcDbTrace
62
2
6
CONTINUOUS
10
303.4367582524
20
33.1024236660
11
303.3615430578
21
32.9226765539
12
303.0476004914
22
33.0075207309
13
303.0476004914
23
33.0075207309
0
SOLID
5
398
100
AcDbEntity
8
0
100
AcDbTrace
62
2
6
CONTINUOUS
10
304.6506429706
20
33.0835657779
11
304.6270572762
21
32.8334935337
12
304.3102190979
22
33.0258988570
13
304.3102190979
23
33.0258988570
0
SOLID
5
399
100
AcDbEntity
8
0
100
AcDbTrace
62
2
6
CONTINUOUS
10
304.2823515567
20
32.8330755263
11
304.3102190979
21
33.0258988570
12
304.6270572762
22
32.8334935337
13
304.6270572762
23
32.8334935337
0
SOLID
5
39A
100
AcDbEntity
8
0
100
AcDbTrace
62
2
6
CONTINUOUS
10
302.9652514374
20
32.7704410781
11
303.0476004914
21
33.0075207309
12
303.3615430578
22
32.9226765539
13
303.3615430578
23
32.9226765539
0
SOLID
5
39B
100
AcDbEntity
8
0
100
AcDbTrace
62
2
6
CONTINUOUS
10
303.3615430578
20
32.9226765539
11
303.2989584897
21
32.7381516460
12
302.9652514374
22
32.7704410781
13
302.9652514374
23
32.7704410781
0
SOLID
5
39C
100
AcDbEntity
8
0
100
AcDbTrace
62
2
6
CONTINUOUS
10
304.2823515567
20
32.8330755263
11
304.6270572762
21
32.8334935337
12
304.2277690101
22
32.6457988494
13
304.2277690101
23
32.6457988494
0
SOLID
5
39D
100
AcDbEntity
8
0
100
AcDbTrace
62
2
6
CONTINUOUS
10
304.6270572762
20
32.8334935337
11
304.5593617881
21
32.5918378693
12
304.2277690101
22
32.6457988494
13
304.2277690101
23
32.6457988494
0
SOLID
5
39E
100
AcDbEntity
8
0
100
AcDbTrace
62
2
6
CONTINUOUS
10
303.2477439947
20
32.5498500334
11
302.9215850987
21
32.5234228633
12
303.2989584897
22
32.7381516460
13
303.2989584897
23
32.7381516460
0
SOLID
5
39F
100
AcDbEntity
8
0
100
AcDbTrace
62
2
6
CONTINUOUS
10
302.9215850987
20
32.5234228633
11
302.9652514374
21
32.7704410781
12
303.2989584897
22
32.7381516460
13
303.2989584897
23
32.7381516460
0
SOLID
5
3A0
100
AcDbEntity
8
0
100
AcDbTrace
62
2
6
CONTINUOUS
10
304.1535512367
20
32.4656449239
11
304.2277690101
21
32.6457988494
12
304.5593617881
22
32.5918378693
13
304.5593617881
23
32.5918378693
0
SOLID
5
3A1
100
AcDbEntity
8
0
100
AcDbTrace
62
2
6
CONTINUOUS
10
304.5593617881
20
32.5918378693
11
304.4570075137
21
32.3632463159
12
304.1535512367
22
32.4656449239
13
304.1535512367
23
32.4656449239
0
SOLID
5
3A2
100
AcDbEntity
8
0
100
AcDbTrace
62
2
6
CONTINUOUS
10
303.2477439947
20
32.5498500334
11
303.2242237526
21
32.3566468865
12
302.9215850987
22
32.5234228633
13
302.9215850987
23
32.5234228633
0
SOLID
5
3A3
100
AcDbEntity
8
0
100
AcDbTrace
62
2
6
CONTINUOUS
10
304.0631420252
20
32.2925421093
11
304.1535512367
21
32.4656449239
12
304.4570075137
22
32.3632463159
13
304.4570075137
23
32.3632463159
0
SOLID
5
3A4
100
AcDbEntity
8
0
100
AcDbTrace
62
2
6
CONTINUOUS
10
302.9288213695
20
32.2728049981
11
302.9215850987
21
32.5234228633
12
303.2242237526
22
32.3566468865
13
303.2242237526
23
32.3566468865
0
SOLID
5
3A5
100
AcDbEntity
8
0
100
AcDbTrace
62
2
6
CONTINUOUS
10
303.2242237526
20
32.3566468865
11
303.2578814101
21
32.1634894568
12
302.9288213695
22
32.2728049981
13
302.9288213695
23
32.2728049981
0
SOLID
5
3A6
100
AcDbEntity
8
0
100
AcDbTrace
62
2
6
CONTINUOUS
10
304.4570075137
20
32.3632463159
11
304.3192984643
21
32.1527852813
12
304.0631420252
22
32.2925421093
13
304.0631420252
23
32.2925421093
0
SOLID
5
3A7
100
AcDbEntity
8
0
100
AcDbTrace
62
2
6
CONTINUOUS
10
303.9374822296
20
32.1441249053
11
304.0631420252
21
32.2925421093
12
304.3192984643
22
32.1527852813
13
304.3192984643
23
32.1527852813
0
SOLID
5
3A8
100
AcDbEntity
8
0
100
AcDbTrace
62
2
6
CONTINUOUS
10
303.0278939269
20
32.0431995493
11
302.9288213695
21
32.2728049981
12
303.2578814101
22
32.1634894568
13
303.2578814101
23
32.1634894568
0
SOLID
5
3A9
100
AcDbEntity
8
0
100
AcDbTrace
62
2
6
CONTINUOUS
10
303.2578814101
20
32.1634894568
11
303.3884899157
21
32.0239225547
12
303.0278939269
22
32.0431995493
13
303.0278939269
23
32.0431995493
0
SOLID
5
3AA
100
AcDbEntity
8
0
100
AcDbTrace
62
2
6
CONTINUOUS
10
303.9374822296
20
32.1441249053
11
304.3192984643
21
32.1527852813
12
303.7733382325
22
32.0395105379
13
303.7733382325
23
32.0395105379
0
SOLID
5
3AB
100
AcDbEntity
8
0
100
AcDbTrace
62
2
6
CONTINUOUS
10
303.7733382325
20
32.0395105379
11
304.3192984643
21
32.1527852813
12
303.5852028037
22
31.9877948916
13
303.5852028037
23
31.9877948916
0
SOLID
5
3AC
100
AcDbEntity
8
0
100
AcDbTrace
62
2
6
CONTINUOUS
10
304.3192984643
20
32.1527852813
11
304.1407432667
21
31.9781716593
12
303.5852028037
22
31.9877948916
13
303.5852028037
23
31.9877948916
0
SOLID
5
3AD
100
AcDbEntity
8
0
100
AcDbTrace
62
2
6
CONTINUOUS
10
304.1407432667
20
31.9781716593
11
303.2062136655
21
31.8679175734
12
303.5852028037
22
31.9877948916
13
303.5852028037
23
31.9877948916
0
SOLID
5
3AE
100
AcDbEntity
8
0
100
AcDbTrace
62
2
6
CONTINUOUS
10
303.5852028037
20
31.9877948916
11
303.2062136655
21
31.8679175734
12
303.3884899157
22
32.0239225547
13
303.3884899157
23
32.0239225547
0
SOLID
5
3AF
100
AcDbEntity
8
0
100
AcDbTrace
62
2
6
CONTINUOUS
10
303.2062136655
20
31.8679175734
11
303.0278939269
21
32.0431995493
12
303.3884899157
22
32.0239225547
13
303.3884899157
23
32.0239225547
0
SOLID
5
3B0
100
AcDbEntity
8
0
100
AcDbTrace
62
2
6
CONTINUOUS
10
304.1407432667
20
31.9781716593
11
303.9272436450
21
31.8432974449
12
303.2062136655
22
31.8679175734
13
303.2062136655
23
31.8679175734
0
SOLID
5
3B1
100
AcDbEntity
8
0
100
AcDbTrace
62
2
6
CONTINUOUS
10
303.4387876195
20
31.7748986233
11
303.2062136655
21
31.8679175734
12
303.9272436450
22
31.8432974449
13
303.9272436450
23
31.8432974449
0
SOLID
5
3B2
100
AcDbEntity
8
0
100
AcDbTrace
62
2
6
CONTINUOUS
10
303.9272436450
20
31.8432974449
11
303.6904414579
21
31.7645248529
12
303.4387876195
22
31.7748986233
13
303.4387876195
23
31.7748986233
0
SPLINE
5
3B3
100
AcDbEntity
8
0
100
AcDbSpline
62
2
6
CONTINUOUS
70
0
71
3
72
15
73
11
74
9
42
0.0000001000
43
0.0000001000
44
0.0000000001
12
0.1059762758
22
1.2344864155
32
0.0000000000
13
-1.2034152055
23
-1.2100670455
33
0.0000000000
40
0.0000000000
40
0.0000000000
40
0.0000000000
40
0.0000000000
40
0.1888404484
40
0.2308182889
40
0.2752130759
40
0.4124226401
40
0.6014525430
40
0.7384849276
40
0.8772465919
40
1.0000000000
40
1.0000000000
40
1.0000000000
40
1.0000000000
10
306.5467015535
20
33.0962152432
30
0.0000000000
10
306.5533724227
20
33.1739222326
30
0.0000000000
10
306.6170802743
20
33.3357036979
30
0.0000000000
10
306.5783352610
20
33.4892531490
30
0.0000000000
10
306.4987654241
20
33.5927962813
30
0.0000000000
10
306.2977890701
20
33.6920075522
30
0.0000000000
10
306.0231246247
20
33.6680573361
30
0.0000000000
10
305.7768438705
20
33.5650403981
30
0.0000000000
10
305.5877752082
20
33.4359907322
30
0.0000000000
10
305.4769082198
20
33.3346904359
30
0.0000000000
10
305.4276671139
20
33.2851771513
30
0.0000000000
11
306.5467015535
21
33.0962152432
31
0.0000000000
11
306.5932227711
21
33.4165511431
31
0.0000000000
11
306.5742870508
21
33.4859701965
31
0.0000000000
11
306.5297743839
21
33.5476918917
31
0.0000000000
11
306.3229669184
21
33.6597058104
31
0.0000000000
11
305.9992050717
21
33.6467472384
31
0.0000000000
11
305.7815349812
21
33.5584669527
31
0.0000000000
11
305.5838957473
21
33.4261275222
31
0.0000000000
11
305.4276671139
21
33.2851771513
31
0.0000000000
0
SPLINE
5
3B4
100
AcDbEntity
8
0
100
AcDbSpline
62
2
6
CONTINUOUS
70
0
71
3
72
15
73
11
74
9
42
0.0000001000
43
0.0000001000
44
0.0000000001
12
0.5375301969
22
1.2666002464
32
0.0000000000
13
-0.8751419614
23
-1.3341106970
33
0.0000000000
40
0.0000000000
40
0.0000000000
40
0.0000000000
40
0.0000000000
40
0.0975605808
40
0.1965407355
40
0.3535509536
40
0.5231065106
40
0.6571265334
40
0.7745243986
40
0.8806205064
40
1.0000000000
40
1.0000000000
40
1.0000000000
40
1.0000000000
10
305.2809695968
20
32.8094290248
30
0.0000000000
10
305.2984501829
20
32.8506191101
30
0.0000000000
10
305.3363063508
20
32.9324206521
30
0.0000000000
10
305.4181056961
20
33.0723287863
30
0.0000000000
10
305.5446128943
20
33.2246445085
30
0.0000000000
10
305.7366227191
20
33.3263888813
30
0.0000000000
10
305.9206455176
20
33.3716556042
30
0.0000000000
10
306.0927597975
20
33.4027456493
30
0.0000000000
10
306.2252844496
20
33.2862650995
30
0.0000000000
10
306.2344243605
20
33.1713203379
30
0.0000000000
10
306.1995996925
20
33.1182318515
30
0.0000000000
11
305.2809695968
21
32.8094290248
31
0.0000000000
11
305.3379096404
21
32.9308378244
31
0.0000000000
11
305.4072022933
21
33.0479186063
31
0.0000000000
11
305.5499118783
21
33.2098100072
31
0.0000000000
11
305.7533549766
21
33.3235021140
31
0.0000000000
11
305.9310752816
21
33.3719736554
31
0.0000000000
11
306.0923479791
21
33.3774162556
31
0.0000000000
11
306.2028781721
21
33.2822873730
31
0.0000000000
11
306.1995996925
21
33.1182318515
31
0.0000000000
0
SOLID
5
3B5
100
AcDbEntity
8
0
100
AcDbTrace
62
2
6
CONTINUOUS
10
305.9602268592
20
33.6352834173
11
306.1725735426
21
33.6738441084
12
306.3852500818
22
33.6405840936
13
306.3852500818
23
33.6405840936
0
SOLID
5
3B6
100
AcDbEntity
8
0
100
AcDbTrace
62
2
6
CONTINUOUS
10
305.9602268592
20
33.6352834173
11
306.3852500818
21
33.6405840936
12
305.7642631660
22
33.5489111251
13
305.7642631660
23
33.5489111251
0
SOLID
5
3B7
100
AcDbEntity
8
0
100
AcDbTrace
62
2
6
CONTINUOUS
10
306.3852500818
20
33.6405840936
11
306.5576536313
21
33.5142161421
12
305.7642631660
22
33.5489111251
13
305.7642631660
23
33.5489111251
0
SOLID
5
3B8
100
AcDbEntity
8
0
100
AcDbTrace
62
2
6
CONTINUOUS
10
305.5869155514
20
33.4285334701
11
305.7642631660
21
33.5489111251
12
306.5576536313
22
33.5142161421
13
306.5576536313
23
33.5142161421
0
SOLID
5
3B9
100
AcDbEntity
8
0
100
AcDbTrace
62
2
6
CONTINUOUS
10
305.5869155514
20
33.4285334701
11
306.5576536313
21
33.5142161421
12
306.0599055454
22
33.3842929170
13
306.0599055454
23
33.3842929170
0
SOLID
5
3BA
100
AcDbEntity
8
0
100
AcDbTrace
62
2
6
CONTINUOUS
10
306.5576536313
20
33.5142161421
11
306.5878342037
21
33.3001072519
12
306.0599055454
22
33.3842929170
13
306.0599055454
23
33.3842929170
0
SOLID
5
3BB
100
AcDbEntity
8
0
100
AcDbTrace
62
2
6
CONTINUOUS
10
306.1989624335
20
33.2892914757
11
306.0599055454
21
33.3842929170
12
306.5878342037
22
33.3001072519
13
306.5878342037
23
33.3001072519
0
SOLID
5
3BC
100
AcDbEntity
8
0
100
AcDbTrace
62
2
6
CONTINUOUS
10
305.5245130772
20
33.6019494718
11
305.4276671139
21
33.2851771513
12
305.1743335693
22
33.6013144515
13
305.1743335693
23
33.6013144515
0
SOLID
5
3BD
100
AcDbEntity
8
0
100
AcDbTrace
62
2
6
CONTINUOUS
10
305.7238013924
20
33.3119772123
11
305.4276671139
21
33.2851771513
12
305.8871874640
22
33.3623412740
13
305.8871874640
23
33.3623412740
0
SOLID
5
3BE
100
AcDbEntity
8
0
100
AcDbTrace
62
2
6
CONTINUOUS
10
306.0599055454
20
33.3842929170
11
305.8871874640
21
33.3623412740
12
305.5869155514
22
33.4285334701
13
305.5869155514
23
33.4285334701
0
SOLID
5
3BF
100
AcDbEntity
8
0
100
AcDbTrace
62
2
6
CONTINUOUS
10
305.4276671139
20
33.2851771513
11
305.5869155514
21
33.4285334701
12
305.8871874640
22
33.3623412740
13
305.8871874640
23
33.3623412740
0
SOLID
5
3C0
100
AcDbEntity
8
0
100
AcDbTrace
62
2
6
CONTINUOUS
10
305.7238013924
20
33.3119772123
11
305.5732292976
21
33.2280260265
12
305.4276671139
22
33.2851771513
13
305.4276671139
23
33.2851771513
0
SOLID
5
3C1
100
AcDbEntity
8
0
100
AcDbTrace
62
2
6
CONTINUOUS
10
306.1989624335
20
33.2892914757
11
306.5878342037
21
33.3001072519
12
306.1995996925
22
33.1182318515
13
306.1995996925
23
33.1182318515
0
SOLID
5
3C2
100
AcDbEntity
8
0
100
AcDbTrace
62
2
6
CONTINUOUS
10
306.5878342037
20
33.3001072519
11
306.5467015535
21
33.0962152432
12
306.1995996925
22
33.1182318515
13
306.1995996925
23
33.1182318515
0
SOLID
5
3C3
100
AcDbEntity
8
0
100
AcDbTrace
62
2
6
CONTINUOUS
10
305.2809695968
20
32.8094290248
11
304.6283110901
21
31.8153638350
12
305.3558066218
22
32.9640177403
13
305.3558066218
23
32.9640177403
0
SOLID
5
3C4
100
AcDbEntity
8
0
100
AcDbTrace
62
2
6
CONTINUOUS
10
305.5732292976
20
33.2280260265
11
305.4507092099
21
33.1075097862
12
305.4276671139
22
33.2851771513
13
305.4276671139
23
33.2851771513
0
SOLID
5
3C5
100
AcDbEntity
8
0
100
AcDbTrace
62
2
6
CONTINUOUS
10
305.4507092099
20
33.1075097862
11
305.3558066218
21
32.9640177403
12
305.4276671139
22
33.2851771513
13
305.4276671139
23
33.2851771513
0
SOLID
5
3C6
100
AcDbEntity
8
0
100
AcDbTrace
62
2
6
CONTINUOUS
10
305.3558066218
20
32.9640177403
11
304.6283110901
21
31.8153638350
12
305.4276671139
22
33.2851771513
13
305.4276671139
23
33.2851771513
0
SOLID
5
3C7
100
AcDbEntity
8
0
100
AcDbTrace
62
2
6
CONTINUOUS
10
304.6283110901
20
31.8153638350
11
305.1743335693
21
33.6013144515
12
305.4276671139
22
33.2851771513
13
305.4276671139
23
33.2851771513
0
SOLID
5
3C8
100
AcDbEntity
8
0
100
AcDbTrace
62
2
6
CONTINUOUS
10
305.2809695968
20
32.8094290248
11
304.9782994884
21
31.8153638350
12
304.6283110901
22
31.8153638350
13
304.6283110901
23
31.8153638350
0
SOLID
5
3C9
100
AcDbEntity
8
0
100
AcDbTrace
62
2
6
CONTINUOUS
10
305.8053091831
20
31.8153638350
11
306.1995996925
21
33.1182318515
12
306.5467015535
22
33.0962152432
13
306.5467015535
23
33.0962152432
0
SOLID
5
3CA
100
AcDbEntity
8
0
100
AcDbTrace
62
2
6
CONTINUOUS
10
306.5467015535
20
33.0962152432
11
306.1552942286
21
31.8153638350
12
305.8053091831
22
31.8153638350
13
305.8053091831
23
31.8153638350
0
SOLID
5
3CB
100
AcDbEntity
8
0
100
AcDbTrace
62
2
6
CONTINUOUS
10
306.5186915917
20
31.8153638350
11
307.0789781115
21
33.6555201748
12
307.4289649342
22
33.6555201748
13
307.4289649342
23
33.6555201748
0
SOLID
5
3CC
100
AcDbEntity
8
0
100
AcDbTrace
62
2
6
CONTINUOUS
10
307.4289649342
20
33.6555201748
11
306.8686799901
21
31.8153638350
12
306.5186915917
22
31.8153638350
13
306.5186915917
23
31.8153638350
0
SOLID
5
3CD
100
AcDbEntity
8
0
100
AcDbTrace
62
2
6
CONTINUOUS
10
307.1937910594
20
34.0326016561
11
307.2920786149
21
34.3554127045
12
307.6420670133
22
34.3554127045
13
307.6420670133
23
34.3554127045
0
SOLID
5
3CE
100
AcDbEntity
8
0
100
AcDbTrace
62
2
6
CONTINUOUS
10
307.6420670133
20
34.3554127045
11
307.5437762167
21
34.0326016561
12
307.1937910594
22
34.0326016561
13
307.1937910594
23
34.0326016561
0
SOLID
5
3CF
100
AcDbEntity
8
0
100
AcDbTrace
62
2
6
CONTINUOUS
10
308.5706599814
20
33.7317892262
11
308.8242886214
21
33.6504776445
12
308.3014484497
22
33.7172213469
13
308.3014484497
23
33.7172213469
0
SOLID
5
3D0
100
AcDbEntity
8
0
100
AcDbTrace
62
2
6
CONTINUOUS
10
308.0559723573
20
33.6129747215
11
308.3014484497
21
33.7172213469
12
308.8242886214
22
33.6504776445
13
308.8242886214
23
33.6504776445
0
SOLID
5
3D1
100
AcDbEntity
8
0
100
AcDbTrace
62
2
6
CONTINUOUS
10
308.0559723573
20
33.6129747215
11
308.8242886214
21
33.6504776445
12
308.4919558587
22
33.5025674976
13
308.4919558587
23
33.5025674976
0
SOLID
5
3D2
100
AcDbEntity
8
0
100
AcDbTrace
62
2
6
CONTINUOUS
10
308.8242886214
20
33.6504776445
11
309.0206003557
21
33.4686171061
12
308.4919558587
22
33.5025674976
13
308.4919558587
23
33.5025674976
0
SOLID
5
3D3
100
AcDbEntity
8
0
100
AcDbTrace
62
2
6
CONTINUOUS
10
307.8426880229
20
33.4522392165
11
308.0559723573
21
33.6129747215
12
308.4919558587
22
33.5025674976
13
308.4919558587
23
33.5025674976
0
SOLID
5
3D4
100
AcDbEntity
8
0
100
AcDbTrace
62
2
6
CONTINUOUS
10
308.4919558587
20
33.5025674976
11
308.2572984596
21
33.4479064041
12
307.8426880229
22
33.4522392165
13
307.8426880229
23
33.4522392165
0
SOLID
5
3D5
100
AcDbEntity
8
0
100
AcDbTrace
62
2
6
CONTINUOUS
10
308.7160309201
20
33.4211699024
11
308.4919558587
21
33.5025674976
12
309.0206003557
22
33.4686171061
13
309.0206003557
23
33.4686171061
0
SOLID
5
3D6
100
AcDbEntity
8
0
100
AcDbTrace
62
2
6
CONTINUOUS
10
308.0635569507
20
33.3029719366
11
307.6735277444
21
33.2464073140
12
308.2572984596
22
33.4479064041
13
308.2572984596
23
33.4479064041
0
SOLID
5
3D7
100
AcDbEntity
8
0
100
AcDbTrace
62
2
6
CONTINUOUS
10
307.6735277444
20
33.2464073140
11
307.8426880229
21
33.4522392165
12
308.2572984596
22
33.4479064041
13
308.2572984596
23
33.4479064041
0
SOLID
5
3D8
100
AcDbEntity
8
0
100
AcDbTrace
62
2
6
CONTINUOUS
10
309.0206003557
20
33.4686171061
11
309.1323195214
21
33.2278394728
12
308.7160309201
22
33.4211699024
13
308.7160309201
23
33.4211699024
0
SOLID
5
3D9
100
AcDbEntity
8
0
100
AcDbTrace
62
2
6
CONTINUOUS
10
308.8088831183
20
33.2007487093
11
308.7160309201
21
33.4211699024
12
309.1323195214
22
33.2278394728
13
309.1323195214
23
33.2278394728
0
SOLID
5
3DA
100
AcDbEntity
8
0
100
AcDbTrace
62
2
6
CONTINUOUS
10
308.0635569507
20
33.3029719366
11
307.9299168534
21
33.1023722045
12
307.6735277444
22
33.2464073140
13
307.6735277444
23
33.2464073140
0
SOLID
5
3DB
100
AcDbEntity
8
0
100
AcDbTrace
62
2
6
CONTINUOUS
10
307.5447983478
20
33.0126096459
11
307.6735277444
21
33.2464073140
12
307.9299168534
22
33.1023722045
13
307.9299168534
23
33.1023722045
0
SOLID
5
3DC
100
AcDbEntity
8
0
100
AcDbTrace
62
2
6
CONTINUOUS
10
308.8088831183
20
33.2007487093
11
309.1323195214
21
33.2278394728
12
308.8028507420
22
32.9619383974
13
308.8028507420
23
32.9619383974
0
SOLID
5
3DD
100
AcDbEntity
8
0
100
AcDbTrace
62
2
6
CONTINUOUS
10
309.1323195214
20
33.2278394728
11
309.1431655300
21
32.9619383974
12
308.8028507420
22
32.9619383974
13
308.8028507420
23
32.9619383974
0
SOLID
5
3DE
100
AcDbEntity
8
0
100
AcDbTrace
62
2
6
CONTINUOUS
10
307.9299168534
20
33.1023722045
11
307.8413831341
21
32.8782328253
12
307.5447983478
22
33.0126096459
13
307.5447983478
23
33.0126096459
0
SOLID
5
3DF
100
AcDbEntity
8
0
100
AcDbTrace
62
2
6
CONTINUOUS
10
307.4572814567
20
32.7607876857
11
307.5447983478
21
33.0126096459
12
307.8413831341
22
32.8782328253
13
307.8413831341
23
32.8782328253
0
SOLID
5
3E0
100
AcDbEntity
8
0
100
AcDbTrace
62
2
6
CONTINUOUS
10
307.8413831341
20
32.8782328253
11
307.7705594475
21
32.6481901812
12
307.4572814567
22
32.7607876857
13
307.4572814567
23
32.7607876857
0
SOLID
5
3E1
100
AcDbEntity
8
0
100
AcDbTrace
62
2
6
CONTINUOUS
10
307.4119728695
20
32.4977233752
11
307.4572814567
21
32.7607876857
12
307.7705594475
22
32.6481901812
13
307.7705594475
23
32.6481901812
0
SOLID
5
3E2
100
AcDbEntity
8
0
100
AcDbTrace
62
2
6
CONTINUOUS
10
307.7705594475
20
32.6481901812
11
307.7265538764
21
32.4107008535
12
307.4119728695
22
32.4977233752
13
307.4119728695
23
32.4977233752
0
SOLID
5
3E3
100
AcDbEntity
8
0
100
AcDbTrace
62
2
6
CONTINUOUS
10
307.4419943542
20
32.2317771305
11
307.4119728695
21
32.4977233752
12
307.7265538764
22
32.4107008535
13
307.7265538764
23
32.4107008535
0
SOLID
5
3E4
100
AcDbEntity
8
0
100
AcDbTrace
62
2
6
CONTINUOUS
10
307.7265538764
20
32.4107008535
11
307.7641817632
21
32.1710728968
12
307.4419943542
22
32.2317771305
13
307.4419943542
23
32.2317771305
0
SOLID
5
3E5
100
AcDbEntity
8
0
100
AcDbTrace
62
2
6
CONTINUOUS
10
308.5554067258
20
32.3059754826
11
308.9167889444
21
32.3083339539
12
308.3987727014
22
32.1205286737
13
308.3987727014
23
32.1205286737
0
SOLID
5
3E6
100
AcDbEntity
8
0
100
AcDbTrace
62
2
6
CONTINUOUS
10
308.9167889444
20
32.3083339539
11
308.7518933857
21
32.0985059570
12
308.3987727014
22
32.1205286737
13
308.3987727014
23
32.1205286737
0
SOLID
5
3E7
100
AcDbEntity
8
0
100
AcDbTrace
62
2
6
CONTINUOUS
10
308.1833677482
20
32.0162308318
11
308.3987727014
21
32.1205286737
12
308.7518933857
22
32.0985059570
13
308.7518933857
23
32.0985059570
0
SOLID
5
3E8
100
AcDbEntity
8
0
100
AcDbTrace
62
2
6
CONTINUOUS
10
307.9376557418
20
32.0143232715
11
307.5709907586
21
31.9985066172
12
307.7641817632
22
32.1710728968
13
307.7641817632
23
32.1710728968
0
SOLID
5
3E9
100
AcDbEntity
8
0
100
AcDbTrace
62
2
6
CONTINUOUS
10
307.5709907586
20
31.9985066172
11
307.4419943542
21
32.2317771305
12
307.7641817632
22
32.1710728968
13
307.7641817632
23
32.1710728968
0
SOLID
5
3EA
100
AcDbEntity
8
0
100
AcDbTrace
62
2
6
CONTINUOUS
10
307.9376557418
20
32.0143232715
11
308.1833677482
21
32.0162308318
12
307.5709907586
22
31.9985066172
13
307.5709907586
23
31.9985066172
0
SOLID
5
3EB
100
AcDbEntity
8
0
100
AcDbTrace
62
2
6
CONTINUOUS
10
307.5709907586
20
31.9985066172
11
308.1833677482
21
32.0162308318
12
308.5489995711
22
31.9248593083
13
308.5489995711
23
31.9248593083
0
SOLID
5
3EC
100
AcDbEntity
8
0
100
AcDbTrace
62
2
6
CONTINUOUS
10
308.7518933857
20
32.0985059570
11
308.5489995711
21
31.9248593083
12
308.1833677482
22
32.0162308318
13
308.1833677482
23
32.0162308318
0
SOLID
5
3ED
100
AcDbEntity
8
0
100
AcDbTrace
62
2
6
CONTINUOUS
10
307.7858070759
20
31.8406456650
11
307.5709907586
21
31.9985066172
12
308.5489995711
22
31.9248593083
13
308.5489995711
23
31.9248593083
0
SOLID
5
3EE
100
AcDbEntity
8
0
100
AcDbTrace
62
2
6
CONTINUOUS
10
308.5489995711
20
31.9248593083
11
308.3090306682
21
31.8070276504
12
307.7858070759
22
31.8406456650
13
307.7858070759
23
31.8406456650
0
SOLID
5
3EF
100
AcDbEntity
8
0
100
AcDbTrace
62
2
6
CONTINUOUS
10
308.0451523344
20
31.7745151008
11
307.7858070759
21
31.8406456650
12
308.3090306682
22
31.8070276504
13
308.3090306682
23
31.8070276504
0
SOLID
5
3F0
100
AcDbEntity
8
0
100
AcDbTrace
62
2
6
CONTINUOUS
10
310.2686927605
20
33.7234798276
11
310.4682056179
21
33.6857983369
12
310.0655563005
22
33.7198275594
13
310.0655563005
23
33.7198275594
0
SOLID
5
3F1
100
AcDbEntity
8
0
100
AcDbTrace
62
2
6
CONTINUOUS
10
309.8668598602
20
33.6778206821
11
310.0655563005
21
33.7198275594
12
310.4682056179
22
33.6857983369
13
310.4682056179
23
33.6857983369
0
SOLID
5
3F2
100
AcDbEntity
8
0
100
AcDbTrace
62
2
6
CONTINUOUS
10
309.8668598602
20
33.6778206821
11
310.4682056179
21
33.6857983369
12
309.6799610445
22
33.5967842164
13
309.6799610445
23
33.5967842164
0
SOLID
5
3F3
100
AcDbEntity
8
0
100
AcDbTrace
62
2
6
CONTINUOUS
10
310.4682056179
20
33.6857983369
11
310.6416412663
21
33.5782974665
12
309.6799610445
22
33.5967842164
13
309.6799610445
23
33.5967842164
0
SOLID
5
3F4
100
AcDbEntity
8
0
100
AcDbTrace
62
2
6
CONTINUOUS
10
310.1054554205
20
33.4925809233
11
309.5249395011
21
33.4652694163
12
310.6416412663
22
33.5782974665
13
310.6416412663
23
33.5782974665
0
SOLID
5
3F5
100
AcDbEntity
8
0
100
AcDbTrace
62
2
6
CONTINUOUS
10
309.5249395011
20
33.4652694163
11
309.6799610445
21
33.5967842164
12
310.6416412663
22
33.5782974665
13
310.6416412663
23
33.5782974665
0
SOLID
5
3F6
100
AcDbEntity
8
0
100
AcDbTrace
62
2
6
CONTINUOUS
10
310.1054554205
20
33.4925809233
11
309.9327713414
21
33.4632079342
12
309.5249395011
22
33.4652694163
13
309.5249395011
23
33.4652694163
0
SOLID
5
3F7
100
AcDbEntity
8
0
100
AcDbTrace
62
2
6
CONTINUOUS
10
310.1054554205
20
33.4925809233
11
310.6416412663
21
33.5782974665
12
310.2803770130
22
33.4810985822
13
310.2803770130
23
33.4810985822
0
SOLID
5
3F8
100
AcDbEntity
8
0
100
AcDbTrace
62
2
6
CONTINUOUS
10
310.6416412663
20
33.5782974665
11
310.7454311528
21
33.4050033478
12
310.2803770130
22
33.4810985822
13
310.2803770130
23
33.4810985822
0
SOLID
5
3F9
100
AcDbEntity
8
0
100
AcDbTrace
62
2
6
CONTINUOUS
10
310.4152859765
20
33.3763422194
11
310.2803770130
21
33.4810985822
12
310.7454311528
22
33.4050033478
13
310.7454311528
23
33.4050033478
0
SOLID
5
3FA
100
AcDbEntity
8
0
100
AcDbTrace
62
2
6
CONTINUOUS
10
309.7897260300
20
33.3640027834
11
309.4419661942
21
33.2798738494
12
309.9327713414
22
33.4632079342
13
309.9327713414
23
33.4632079342
0
SOLID
5
3FB
100
AcDbEntity
8
0
100
AcDbTrace
62
2
6
CONTINUOUS
10
309.4419661942
20
33.2798738494
11
309.5249395011
21
33.4652694163
12
309.9327713414
22
33.4632079342
13
309.9327713414
23
33.4632079342
0
SOLID
5
3FC
100
AcDbEntity
8
0
100
AcDbTrace
62
2
6
CONTINUOUS
10
310.7454311528
20
33.4050033478
11
310.7652420115
21
33.2039527773
12
310.4152859765
22
33.3763422194
13
310.4152859765
23
33.3763422194
0
SOLID
5
3FD
100
AcDbEntity
8
0
100
AcDbTrace
62
2
6
CONTINUOUS
10
310.4313707463
20
33.2030715497
11
310.4152859765
21
33.3763422194
12
310.7652420115
22
33.2039527773
13
310.7652420115
23
33.2039527773
0
SOLID
5
3FE
100
AcDbEntity
8
0
100
AcDbTrace
62
2
6
CONTINUOUS
10
309.7897260300
20
33.3640027834
11
309.7467797301
21
33.1966021943
12
309.4419661942
22
33.2798738494
13
309.4419661942
23
33.2798738494
0
SOLID
5
3FF
100
AcDbEntity
8
0
100
AcDbTrace
62
2
6
CONTINUOUS
10
309.4529424524
20
33.0764197223
11
309.4419661942
21
33.2798738494
12
309.7467797301
22
33.1966021943
13
309.7467797301
23
33.1966021943
0
SOLID
5
400
100
AcDbEntity
8
0
100
AcDbTrace
62
2
6
CONTINUOUS
10
309.7467797301
20
33.1966021943
11
309.8260893175
21
33.0492506256
12
309.4529424524
22
33.0764197223
13
309.4529424524
23
33.0764197223
0
SOLID
5
401
100
AcDbEntity
8
0
100
AcDbTrace
62
2
6
CONTINUOUS
10
310.1470709416
20
32.8994339243
11
309.5339650134
21
32.8920660762
12
309.9889923007
22
32.9717618635
13
309.9889923007
23
32.9717618635
0
SOLID
5
402
100
AcDbEntity
8
0
100
AcDbTrace
62
2
6
CONTINUOUS
10
309.9889923007
20
32.9717618635
11
309.5339650134
21
32.8920660762
12
309.8260893175
22
33.0492506256
13
309.8260893175
23
33.0492506256
0
SOLID
5
403
100
AcDbEntity
8
0
100
AcDbTrace
62
2
6
CONTINUOUS
10
309.5339650134
20
32.8920660762
11
309.4529424524
21
33.0764197223
12
309.8260893175
22
33.0492506256
13
309.8260893175
23
33.0492506256
0
SOLID
5
404
100
AcDbEntity
8
0
100
AcDbTrace
62
2
6
CONTINUOUS
10
310.1470709416
20
32.8994339243
11
310.3011610208
21
32.8163631435
12
309.5339650134
22
32.8920660762
13
309.5339650134
23
32.8920660762
0
SOLID
5
405
100
AcDbEntity
8
0
100
AcDbTrace
62
2
6
CONTINUOUS
10
309.6974307566
20
32.7697126210
11
309.5339650134
21
32.8920660762
12
310.3011610208
22
32.8163631435
13
310.3011610208
23
32.8163631435
0
SOLID
5
406
100
AcDbEntity
8
0
100
AcDbTrace
62
2
6
CONTINUOUS
10
310.3011610208
20
32.8163631435
11
310.4329200872
21
32.7039702059
12
309.6974307566
22
32.7697126210
13
309.6974307566
23
32.7697126210
0
SOLID
5
407
100
AcDbEntity
8
0
100
AcDbTrace
62
2
6
CONTINUOUS
10
309.8775697008
20
32.6753345765
11
309.6974307566
21
32.7697126210
12
310.4329200872
22
32.7039702059
13
310.4329200872
23
32.7039702059
0
SOLID
5
408
100
AcDbEntity
8
0
100
AcDbTrace
62
2
6
CONTINUOUS
10
309.8775697008
20
32.6753345765
11
310.4329200872
21
32.7039702059
12
310.0615448903
22
32.5874475012
13
310.0615448903
23
32.5874475012
0
SOLID
5
409
100
AcDbEntity
8
0
100
AcDbTrace
62
2
6
CONTINUOUS
10
310.4329200872
20
32.7039702059
11
310.5367653105
21
32.5593440166
12
310.0615448903
22
32.5874475012
13
310.0615448903
23
32.5874475012
0
SOLID
5
40A
100
AcDbEntity
8
0
100
AcDbTrace
62
2
6
CONTINUOUS
10
310.1982259192
20
32.4371988006
11
310.0615448903
21
32.5874475012
12
310.5367653105
22
32.5593440166
13
310.5367653105
23
32.5593440166
0
SOLID
5
40B
100
AcDbEntity
8
0
100
AcDbTrace
62
2
6
CONTINUOUS
10
310.5367653105
20
32.5593440166
11
310.5778146888
21
32.3935628692
12
310.1982259192
22
32.4371988006
13
310.1982259192
23
32.4371988006
0
SOLID
5
40C
100
AcDbEntity
8
0
100
AcDbTrace
62
2
6
CONTINUOUS
10
310.2115644640
20
32.2324858856
11
310.1982259192
21
32.4371988006
12
310.5778146888
22
32.3935628692
13
310.5778146888
23
32.3935628692
0
SOLID
5
40D
100
AcDbEntity
8
0
100
AcDbTrace
62
2
6
CONTINUOUS
10
310.5778146888
20
32.3935628692
11
310.5341687178
21
32.2217985637
12
310.2115644640
22
32.2324858856
13
310.2115644640
23
32.2324858856
0
SOLID
5
40E
100
AcDbEntity
8
0
100
AcDbTrace
62
2
6
CONTINUOUS
10
309.1441124296
20
32.1538789637
11
309.1290827641
21
32.3262556758
12
309.4528267852
22
32.3262556758
13
309.4528267852
23
32.3262556758
0
SOLID
5
40F
100
AcDbEntity
8
0
100
AcDbTrace
62
2
6
CONTINUOUS
10
309.4528267852
20
32.3262556758
11
309.5089388520
21
32.1330763134
12
309.1441124296
22
32.1538789637
13
309.1441124296
23
32.1538789637
0
SOLID
5
410
100
AcDbEntity
8
0
100
AcDbTrace
62
2
6
CONTINUOUS
10
310.0828755903
20
32.0782546719
11
310.2115644640
21
32.2324858856
12
310.5341687178
22
32.2217985637
13
310.5341687178
23
32.2217985637
0
SOLID
5
411
100
AcDbEntity
8
0
100
AcDbTrace
62
2
6
CONTINUOUS
10
310.5341687178
20
32.2217985637
11
310.4518531311
21
32.0672440235
12
310.0828755903
22
32.0782546719
13
310.0828755903
23
32.0782546719
0
SOLID
5
412
100
AcDbEntity
8
0
100
AcDbTrace
62
2
6
CONTINUOUS
10
309.8859205609
20
32.0227733061
11
310.0828755903
21
32.0782546719
12
310.4518531311
22
32.0672440235
13
310.4518531311
23
32.0672440235
0
SOLID
5
413
100
AcDbEntity
8
0
100
AcDbTrace
62
2
6
CONTINUOUS
10
309.8859205609
20
32.0227733061
11
309.2043332432
21
31.9892697701
12
309.6816689566
22
32.0328223521
13
309.6816689566
23
32.0328223521
0
SOLID
5
414
100
AcDbEntity
8
0
100
AcDbTrace
62
2
6
CONTINUOUS
10
309.6816689566
20
32.0328223521
11
309.2043332432
21
31.9892697701
12
309.5089388520
22
32.1330763134
13
309.5089388520
23
32.1330763134
0
SOLID
5
415
100
AcDbEntity
8
0
100
AcDbTrace
62
2
6
CONTINUOUS
10
309.2043332432
20
31.9892697701
11
309.1441124296
21
32.1538789637
12
309.5089388520
22
32.1330763134
13
309.5089388520
23
32.1330763134
0
SOLID
5
416
100
AcDbEntity
8
0
100
AcDbTrace
62
2
6
CONTINUOUS
10
309.2043332432
20
31.9892697701
11
309.8859205609
21
32.0227733061
12
310.3279531132
22
31.9460045872
13
310.3279531132
23
31.9460045872
0
SOLID
5
417
100
AcDbEntity
8
0
100
AcDbTrace
62
2
6
CONTINUOUS
10
310.4518531311
20
32.0672440235
11
310.3279531132
21
31.9460045872
12
309.8859205609
22
32.0227733061
13
309.8859205609
23
32.0227733061
0
SOLID
5
418
100
AcDbEntity
8
0
100
AcDbTrace
62
2
6
CONTINUOUS
10
309.3297669021
20
31.8696865378
11
309.2043332432
21
31.9892697701
12
310.3279531132
22
31.9460045872
13
310.3279531132
23
31.9460045872
0
SOLID
5
419
100
AcDbEntity
8
0
100
AcDbTrace
62
2
6
CONTINUOUS
10
310.3279531132
20
31.9460045872
11
310.1746104309
21
31.8595690669
12
309.3297669021
22
31.8696865378
13
309.3297669021
23
31.8696865378
0
SOLID
5
41A
100
AcDbEntity
8
0
100
AcDbTrace
62
2
6
CONTINUOUS
10
310.0088728896
20
31.8041574768
11
309.4896861410
21
31.7957661664
12
310.1746104309
22
31.8595690669
13
310.1746104309
23
31.8595690669
0
SOLID
5
41B
100
AcDbEntity
8
0
100
AcDbTrace
62
2
6
CONTINUOUS
10
309.4896861410
20
31.7957661664
11
309.3297669021
21
31.8696865378
12
310.1746104309
22
31.8595690669
13
310.1746104309
23
31.8595690669
0
SOLID
5
41C
100
AcDbEntity
8
0
100
AcDbTrace
62
2
6
CONTINUOUS
10
310.0088728896
20
31.8041574768
11
309.8369096797
21
31.7778196442
12
309.4896861410
22
31.7957661664
13
309.4896861410
23
31.7957661664
0
SOLID
5
41D
100
AcDbEntity
8
0
100
AcDbTrace
62
2
6
CONTINUOUS
10
309.6611750214
20
31.7711895981
11
309.4896861410
21
31.7957661664
12
309.8369096797
22
31.7778196442
13
309.8369096797
23
31.7778196442
0
ENDBLK
5
41E
100
AcDbEntity
8
0
6
BYBLOCK
62
0
100
AcDbBlockEnd
0
ENDSEC
0
SECTION
2
ENTITIES
0
TEXT
5
41F
100
AcDbEntity
8
0
100
AcDbText
62
2
6
CONTINUOUS
10
273.9447944556
20
16.2331743479
7
STANDARD
40
1.5200002147
1
SIZE
41
0.9500000000
72
0
100
AcDbText
0
TEXT
5
420
100
AcDbEntity
8
0
100
AcDbText
62
2
6
CONTINUOUS
10
287.5144966041
20
16.2331819773
7
STANDARD
40
1.5200002147
1
DRAWING NO
41
0.9500000000
72
0
100
AcDbText
0
TEXT
5
421
100
AcDbEntity
8
0
100
AcDbText
62
2
6
CONTINUOUS
10
354.2964949762
20
16.2330905319
7
STANDARD
40
1.5200000000
1
VERSION
41
0.9500000000
72
0
100
AcDbText
0
TEXT
5
422
100
AcDbEntity
8
0
100
AcDbText
62
2
6
CONTINUOUS
10
274.4447944556
20
25.5657549143
7
STANDARD
40
1.5200002147
1
NAME
41
0.9500000000
72
0
100
AcDbText
0
TEXT
5
423
100
AcDbEntity
8
0
100
AcDbText
62
2
6
CONTINUOUS
10
276.2800492314
20
10.3485471083
7
STANDARD
40
4.9999998868
1
A3
41
0.9500000000
72
0
100
AcDbText
0
TEXT
5
424
100
AcDbEntity
8
0
100
AcDbText
62
2
6
CONTINUOUS
10
297.3906714731
20
21.1920805906
7
STANDARD
40
3.9680000000
1
CUSTOMER VIEW MODEL DRAWING
41
0.8000000000
72
1
11
340.2450714731
21
21.1920805906
100
AcDbText
0
TEXT
5
425
100
AcDbEntity
8
0
100
AcDbText
62
2
6
CONTINUOUS
10
323.6680851064
20
37.0478723404
7
STANDARD
40
3.1750000000
1
Tyco Electronics
41
0.8000000000
72
0
100
AcDbText
0
TEXT
5
426
100
AcDbEntity
8
0
100
AcDbText
62
2
6
CONTINUOUS
10
323.6680851064
20
32.2853723404
7
STANDARD
40
3.1750000000
1
Harrisburg, PA  17105-3608
41
0.8000000000
72
0
100
AcDbText
0
TEXT
5
427
100
AcDbEntity
8
0
100
AcDbText
62
2
6
CONTINUOUS
10
369.5635822821
20
16.2739597356
7
STANDARD
40
1.5200000000
1
DATE
41
0.9500000000
72
0
100
AcDbText
0
TEXT
5
428
100
AcDbEntity
8
0
100
AcDbText
62
2
6
CONTINUOUS
10
174.6476862981
20
23.8368677885
7
STANDARD
40
2.2860000000
1
THIS IS NOT A CONTROLLED DRAWING.
41
0.8000000000
72
0
100
AcDbText
0
TEXT
5
429
100
AcDbEntity
8
0
100
AcDbText
62
2
6
CONTINUOUS
10
174.6476862981
20
20.4078677885
7
STANDARD
40
2.2860000000
1
THIS IS A REPRESENTATION OF THE CUSTOMER VIEW MODEL.
41
0.8000000000
72
0
100
AcDbText
0
TEXT
5
42A
100
AcDbEntity
8
0
100
AcDbText
62
2
6
CONTINUOUS
10
174.6476862981
20
16.9788677885
7
STANDARD
40
2.2860000000
1
    THIS IS NOT THE DOCUMENT OF SALE.
41
0.8000000000
72
0
100
AcDbText
0
TEXT
5
42B
100
AcDbEntity
8
0
100
AcDbText
62
2
6
CONTINUOUS
10
174.6476862981
20
13.5498677885
7
STANDARD
40
2.2860000000
1
SEE THE CUSTOMER DRAWING FOR DESIGN PURPOSES.
41
0.8000000000
72
0
100
AcDbText
0
TEXT
5
42C
100
AcDbEntity
8
0
100
AcDbText
62
2
6
CONTINUOUS
10
22.7512107444
20
282.4829655254
7
STANDARD
40
2.5000000000
1
c
41
0.8000000000
72
0
100
AcDbText
0
INSERT
5
42D
100
AcDbEntity
8
0
100
AcDbBlockReference
62
2
6
CONTINUOUS
2
TYCO_ELECT_LOGO_BL0
10
303.1415755774
20
36.3453026123
0
LINE
5
42E
100
AcDbEntity
8
0
100
AcDbLine
62
2
6
CONTINUOUS
10
287.2090159416
20
18.7593422635
11
409.2090159416
21
18.7593422635
0
LINE
5
42F
100
AcDbEntity
8
0
100
AcDbLine
62
2
6
CONTINUOUS
10
287.2090159416
20
18.7593422635
11
287.2090159416
21
9.2342522635
0
LINE
5
430
100
AcDbEntity
8
0
100
AcDbLine
62
2
6
CONTINUOUS
10
287.2090159416
20
9.2342522635
11
409.2090159416
21
9.2342522635
0
LINE
5
431
100
AcDbEntity
8
0
100
AcDbLine
62
2
6
CONTINUOUS
10
353.3340159416
20
18.7593422635
11
353.3340159416
21
9.2342522635
0
LINE
5
432
100
AcDbEntity
8
0
100
AcDbLine
62
2
6
CONTINUOUS
10
367.9590159416
20
18.7593422635
11
367.9590159416
21
9.2342522635
0
LINE
5
433
100
AcDbEntity
8
0
100
AcDbLine
62
2
6
CONTINUOUS
10
409.2090159416
20
18.7593422635
11
409.2090159416
21
9.2342522635
0
TEXT
5
434
100
AcDbEntity
8
0
100
AcDbText
62
2
6
CONTINUOUS
10
302.4635159416
20
12.4067972635
7
STANDARD
40
3.1800000000
1
C-0350780-01-3
41
0.8000000000
72
1
11
320.2715159416
21
12.4067972635
100
AcDbText
0
TEXT
5
435
100
AcDbEntity
8
0
100
AcDbText
62
2
6
CONTINUOUS
10
358.1025159416
20
12.4067972635
7
STANDARD
40
3.1800000000
1
V1
41
0.8000000000
72
1
11
360.6465159416
21
12.4067972635
100
AcDbText
0
TEXT
5
436
100
AcDbEntity
8
0
100
AcDbText
62
2
6
CONTINUOUS
10
377.1360159416
20
12.4067972635
7
STANDARD
40
3.1800000000
1
04-Sep-07
41
0.8000000000
72
1
11
388.5840159416
21
12.4067972635
100
AcDbText
0
LINE
5
437
100
AcDbEntity
8
0
100
AcDbLine
62
2
6
CONTINUOUS
10
17.7838797455
20
287.0843544705
11
132.7838797455
21
287.0843544705
0
LINE
5
438
100
AcDbEntity
8
0
100
AcDbLine
62
2
6
CONTINUOUS
10
17.7838797455
20
287.0843544705
11
17.7838797455
21
272.0843544705
0
LINE
5
439
100
AcDbEntity
8
0
100
AcDbLine
62
2
6
CONTINUOUS
10
17.7838797455
20
272.0843544705
11
132.7838797455
21
272.0843544705
0
LINE
5
43A
100
AcDbEntity
8
0
100
AcDbLine
62
2
6
CONTINUOUS
10
132.7838797455
20
287.0843544705
11
132.7838797455
21
272.0843544705
0
LWPOLYLINE
5
43B
100
AcDbEntity
8
0
100
AcDbPolyline
62
2
6
CONTINUOUS
90
29
70
0
10
21.8463798523
20
283.3343554688
10
21.9505467224
20
282.8135339355
10
22.0547135925
20
282.5010205078
10
22.2630457306
20
282.1885327148
10
22.5755463409
20
281.8760192871
10
22.8880469513
20
281.6676855469
10
23.2005459595
20
281.5635314941
10
23.7213803101
20
281.4593518066
10
24.2422130585
20
281.5635314941
10
24.5547136688
20
281.6676855469
10
24.8672126770
20
281.8760192871
10
25.1797132874
20
282.1885327148
10
25.3880470276
20
282.5010205078
10
25.4922122955
20
282.8135339355
10
25.5963791656
20
283.3343554688
10
25.4922122955
20
283.8551770020
10
25.3880470276
20
284.1676904297
10
25.1797132874
20
284.4801782227
10
24.8672126770
20
284.7926916504
10
24.5547136688
20
285.0010253906
10
24.2422130585
20
285.1051794434
10
23.7213803101
20
285.2093591309
10
23.2005459595
20
285.1051794434
10
22.8880469513
20
285.0010253906
10
22.5755463409
20
284.7926916504
10
22.2630457306
20
284.4801782227
10
22.0547135925
20
284.1676904297
10
21.9505467224
20
283.8551770020
10
21.8463798523
20
283.3343554688
0
TEXT
5
43C
100
AcDbEntity
8
0
100
AcDbText
62
2
6
CONTINUOUS
10
17.8463797455
20
282.0843544705
7
STANDARD
40
2.5000000000
1
  
41
0.8000000000
72
0
100
AcDbText
0
TEXT
5
43D
100
AcDbEntity
8
0
100
AcDbText
62
2
6
CONTINUOUS
10
26.4297130788
20
282.0843544705
7
STANDARD
40
2.5000000000
1
Copyright 04-Sep-07 Tyco Electronics Corporation
41
0.8000000000
72
0
100
AcDbText
0
TEXT
5
43E
100
AcDbEntity
8
0
100
AcDbText
62
2
6
CONTINUOUS
10
17.8463797455
20
278.3343544705
7
STANDARD
40
2.5000000000
1
  Harrisburg, PA
41
0.8000000000
72
0
100
AcDbText
0
TEXT
5
43F
100
AcDbEntity
8
0
100
AcDbText
62
2
6
CONTINUOUS
10
17.8463797455
20
274.5843544705
7
STANDARD
40
2.5000000000
1
  All International Rights Reserved
41
0.8000000000
72
0
100
AcDbText
0
LINE
5
440
100
AcDbEntity
8
0
100
AcDbLine
62
7
6
CONTINUOUS
10
0.0000000000
20
0.0000000000
11
0.0000000000
21
297.0000000000
0
LINE
5
441
100
AcDbEntity
8
0
100
AcDbLine
62
7
6
CONTINUOUS
10
17.7838797455
20
9.2342568143
11
17.7838797455
21
287.0843544705
0
LINE
5
442
100
AcDbEntity
8
0
100
AcDbLine
62
7
6
CONTINUOUS
10
0.0000000000
20
0.0000000000
11
420.0000000000
21
0.0000000000
0
LINE
5
443
100
AcDbEntity
8
0
100
AcDbLine
62
7
6
CONTINUOUS
10
409.2090201263
20
9.2342568143
11
17.7838797455
21
9.2342568143
0
LINE
5
444
100
AcDbEntity
8
0
100
AcDbLine
62
7
6
CONTINUOUS
10
30.4841666107
20
9.2343483670
11
17.7844900970
21
9.2343483670
0
LINE
5
445
100
AcDbEntity
8
0
100
AcDbLine
62
7
6
CONTINUOUS
10
409.2090159416
20
18.7593422635
11
273.4388174896
21
18.7593422635
0
LINE
5
446
100
AcDbEntity
8
DRAFT_ENTITY
100
AcDbLine
62
7
6
CONTINUOUS
10
409.2091421966
20
28.2845192655
11
273.4386343841
21
28.2845192655
0
LINE
5
447
100
AcDbEntity
8
0
100
AcDbLine
62
7
6
CONTINUOUS
10
409.2091421966
20
44.1593056424
11
273.4386343841
21
44.1593056424
0
LINE
5
448
100
AcDbEntity
8
0
100
AcDbLine
62
7
6
CONTINUOUS
10
273.4386343841
20
44.1593056424
11
273.4386343841
21
9.2342568143
0
LINE
5
449
100
AcDbEntity
8
0
100
AcDbLine
62
7
6
CONTINUOUS
10
287.2079097655
20
18.7593422635
11
287.2079097655
21
9.2342568143
0
LINE
5
44A
100
AcDbEntity
8
0
100
AcDbLine
62
7
6
CONTINUOUS
10
353.3344447689
20
18.7593808926
11
353.3344447689
21
9.2342954434
0
LINE
5
44B
100
AcDbEntity
8
0
100
AcDbLine
62
7
6
CONTINUOUS
10
17.7838797455
20
287.0843544705
11
409.2088980560
21
287.0843544705
0
LINE
5
44C
100
AcDbEntity
8
0
100
AcDbLine
62
7
6
CONTINUOUS
10
0.0000000000
20
297.0000000000
11
420.0000000000
21
297.0000000000
0
LINE
5
44D
100
AcDbEntity
8
0
100
AcDbLine
62
7
6
CONTINUOUS
10
367.9586057154
20
9.2337890544
11
367.9586057154
21
18.7587829509
0
LINE
5
44E
100
AcDbEntity
8
0
100
AcDbLine
62
7
6
CONTINUOUS
10
409.2088980560
20
287.0843544705
11
409.2090201263
21
9.2342568143
0
LINE
5
44F
100
AcDbEntity
8
0
100
AcDbLine
62
7
6
CONTINUOUS
10
420.0000000000
20
0.0000000000
11
420.0000000000
21
297.0000000000
0
LINE
5
450
100
AcDbEntity
8
0
100
AcDbLine
62
7
6
CONTINUOUS
10
296.8705482270
20
199.9785058895
11
294.5310530631
21
199.9785058895
0
LINE
5
451
100
AcDbEntity
8
0
100
AcDbLine
62
7
6
CONTINUOUS
10
300.2759866803
20
200.1900369187
11
296.7667439345
21
200.1900369187
0
LINE
5
452
100
AcDbEntity
8
0
100
AcDbLine
62
7
6
CONTINUOUS
10
294.4272487706
20
200.1900369187
11
290.9180060248
21
200.1900369187
0
LINE
5
453
100
AcDbEntity
8
0
100
AcDbLine
62
7
6
CONTINUOUS
10
298.2108775748
20
200.6439675340
11
295.3742396886
21
200.6439675340
0
LINE
5
454
100
AcDbEntity
8
0
100
AcDbLine
62
7
6
CONTINUOUS
10
299.9660643653
20
200.8215925574
11
298.7963167834
21
200.8215925574
0
LINE
5
455
100
AcDbEntity
8
0
100
AcDbLine
62
7
6
CONTINUOUS
10
291.7778312917
20
200.8215925574
11
290.6080837098
21
200.8215925574
0
LINE
5
456
100
AcDbEntity
8
0
100
AcDbLine
62
7
6
CONTINUOUS
10
297.7109869671
20
201.3576754380
11
295.3422481137
21
201.3576754380
0
LINE
5
457
100
AcDbEntity
8
0
100
AcDbLine
62
7
6
CONTINUOUS
10
295.4613441544
20
201.7430707249
11
297.5218625382
21
201.7430707249
0
LINE
5
458
100
AcDbEntity
8
0
100
AcDbLine
62
7
6
CONTINUOUS
10
293.4953356540
20
204.4727735937
11
296.3319735402
21
204.4727735937
0
LINE
5
459
100
AcDbEntity
8
0
100
AcDbLine
62
7
6
CONTINUOUS
10
283.2218553491
20
226.5176595081
11
282.9144313927
21
225.5228342965
0
LINE
5
45A
100
AcDbEntity
8
0
100
AcDbLine
62
7
6
CONTINUOUS
10
282.4421527036
20
222.6182614201
11
283.0108870230
21
224.4586880614
0
LINE
5
45B
100
AcDbEntity
8
0
100
AcDbLine
62
7
6
CONTINUOUS
10
283.4113064401
20
223.8617929345
11
283.0270264945
21
222.6182614201
0
LINE
5
45C
100
AcDbEntity
8
0
100
AcDbLine
62
7
6
CONTINUOUS
10
284.0841789746
20
225.5228342965
11
282.0178168525
21
218.8360778082
0
LINE
5
45D
100
AcDbEntity
8
0
100
AcDbLine
62
7
6
CONTINUOUS
10
282.7825452564
20
216.7683724349
11
283.0924675714
21
216.1368167962
0
LINE
5
45E
100
AcDbEntity
8
0
100
AcDbLine
62
7
6
CONTINUOUS
10
290.9180060248
20
200.1900369187
11
290.6080837098
21
200.8215925574
0
LINE
5
45F
100
AcDbEntity
8
0
100
AcDbLine
62
7
6
CONTINUOUS
10
287.3371463369
20
208.8529142877
11
285.7875347620
21
212.0106924813
0
LINE
5
460
100
AcDbEntity
8
0
100
AcDbLine
62
7
6
CONTINUOUS
10
282.0178168525
20
218.8360778082
11
282.7825452564
21
216.7683724349
0
LINE
5
461
100
AcDbEntity
8
0
100
AcDbLine
62
7
6
CONTINUOUS
10
305.5547621771
20
208.9444987803
11
305.1294607938
21
208.9444987803
0
LINE
5
462
100
AcDbEntity
8
0
100
AcDbLine
62
7
6
CONTINUOUS
10
301.5426495595
20
210.2076100577
11
303.5609239110
21
210.2076100577
0
LINE
5
463
100
AcDbEntity
8
0
100
AcDbLine
62
7
6
CONTINUOUS
10
287.6684002833
20
208.9331496162
11
286.1187887084
21
212.0909278097
0
LINE
5
464
100
AcDbEntity
8
0
100
AcDbLine
62
7
6
CONTINUOUS
10
284.2622151533
20
216.1368167962
11
291.7778312917
21
200.8215925574
0
LINE
5
465
100
AcDbEntity
8
0
100
AcDbLine
62
7
6
CONTINUOUS
10
282.8752856752
20
221.6108505126
11
282.4495597765
21
222.4783891791
0
LINE
5
466
100
AcDbEntity
8
0
100
AcDbLine
62
7
6
CONTINUOUS
10
285.7803707990
20
212.0306344961
11
285.7880572961
21
212.0101350142
0
LINE
5
467
100
AcDbEntity
8
0
100
AcDbLine
62
7
6
CONTINUOUS
10
290.6080837098
20
200.8215925574
11
289.8433553058
21
202.8892979306
0
LINE
5
468
100
AcDbEntity
8
0
100
AcDbLine
62
7
6
CONTINUOUS
10
285.3075644518
20
214.0066176723
11
285.7803707990
21
212.0306344961
0
LINE
5
469
100
AcDbEntity
8
0
100
AcDbLine
62
7
6
CONTINUOUS
10
286.1879837097
20
216.9799034641
11
286.4392540840
21
221.3317371663
0
LINE
5
46A
100
AcDbEntity
8
0
100
AcDbLine
62
7
6
CONTINUOUS
10
286.4392540840
20
221.3317371663
11
286.7466780405
21
222.3265623779
0
LINE
5
46B
100
AcDbEntity
8
0
100
AcDbLine
62
7
6
CONTINUOUS
10
291.6239481296
20
237.0131548547
11
289.3643544341
21
229.7011001850
0
LINE
5
46C
100
AcDbEntity
8
0
100
AcDbLine
62
7
6
CONTINUOUS
10
283.1249403044
20
222.4187339393
11
283.0270264945
21
222.6182614200
0
LINE
5
46D
100
AcDbEntity
8
0
100
AcDbLine
62
7
6
CONTINUOUS
10
294.5310530631
20
199.9785058895
11
294.4272487706
21
200.1900369187
0
LINE
5
46E
100
AcDbEntity
8
0
100
AcDbLine
62
7
6
CONTINUOUS
10
286.2917880022
20
216.7683724349
11
286.1879837097
21
216.9799034641
0
LINE
5
46F
100
AcDbEntity
8
0
100
AcDbLine
62
7
6
CONTINUOUS
10
283.5092202500
20
223.6622654537
11
283.4113064401
21
223.8617929345
0
LINE
5
470
100
AcDbEntity
8
0
100
AcDbLine
62
7
6
CONTINUOUS
10
287.3780375244
20
222.3265623779
11
287.5029896819
21
222.7309080834
0
LINE
5
471
100
AcDbEntity
8
0
100
AcDbLine
62
7
6
CONTINUOUS
10
292.3998341689
20
212.4856357599
11
289.5631962827
21
212.4856357599
0
LINE
5
472
100
AcDbEntity
8
0
100
AcDbLine
62
7
6
CONTINUOUS
10
291.8999435612
20
213.1993436639
11
289.5312047077
21
213.1993436639
0
LINE
5
473
100
AcDbEntity
8
0
100
AcDbLine
62
7
6
CONTINUOUS
10
297.7109869671
20
201.3576754380
11
298.2108775748
21
200.6439675340
0
LINE
5
474
100
AcDbEntity
8
0
100
AcDbLine
62
7
6
CONTINUOUS
10
282.9144313927
20
225.5228342965
11
283.2243537077
21
224.8912786578
0
LINE
5
475
100
AcDbEntity
8
0
100
AcDbLine
62
7
6
CONTINUOUS
10
296.8705482270
20
199.9785058895
11
296.7667439345
21
200.1900369187
0
LINE
5
476
100
AcDbEntity
8
0
100
AcDbLine
62
7
6
CONTINUOUS
10
288.6312831661
20
216.7683724349
11
288.5274788736
21
216.9799034641
0
LINE
5
477
100
AcDbEntity
8
0
100
AcDbLine
62
7
6
CONTINUOUS
10
289.5631962827
20
212.4856357599
11
289.5312048059
21
213.1993436639
0
LINE
5
478
100
AcDbEntity
8
0
100
AcDbLine
62
7
6
CONTINUOUS
10
288.5274788736
20
216.9799034641
11
288.7787492479
21
221.3317371663
0
LINE
5
479
100
AcDbEntity
8
0
100
AcDbLine
62
7
6
CONTINUOUS
10
288.7787492479
20
221.3317371663
11
289.0861732043
21
222.3265623779
0
LINE
5
47A
100
AcDbEntity
8
0
100
AcDbLine
62
7
6
CONTINUOUS
10
286.1187887084
20
212.0909278097
11
286.1685797752
21
212.2520519109
0
LINE
5
47B
100
AcDbEntity
8
0
100
AcDbLine
62
7
6
CONTINUOUS
10
289.3912020972
20
221.2705552174
11
289.8424848458
21
222.7309080834
0
LINE
5
47C
100
AcDbEntity
8
0
100
AcDbLine
62
7
6
CONTINUOUS
10
288.6312831661
20
216.7683724349
11
290.2298877395
21
221.9414635350
0
LINE
5
47D
100
AcDbEntity
8
0
100
AcDbLine
62
7
6
CONTINUOUS
10
300.4423075428
20
216.4249751275
11
298.9878757372
21
216.0140717544
0
LINE
5
47E
100
AcDbEntity
8
0
100
AcDbLine
62
7
6
CONTINUOUS
10
301.9437338455
20
213.3653882513
11
302.9174069395
21
213.3653882513
0
LINE
5
47F
100
AcDbEntity
8
0
100
AcDbLine
62
7
6
CONTINUOUS
10
289.6503007485
20
213.5847389508
11
291.7108191322
21
213.5847389508
0
LINE
5
480
100
AcDbEntity
8
0
100
AcDbLine
62
7
6
CONTINUOUS
10
292.5203899049
20
213.6105942413
11
292.9882889377
21
213.6105942413
0
LINE
5
481
100
AcDbEntity
8
0
100
AcDbLine
62
7
6
CONTINUOUS
10
303.6005027417
20
214.0617658994
11
301.6020015268
21
214.0617658994
0
LINE
5
482
100
AcDbEntity
8
0
100
AcDbLine
62
7
6
CONTINUOUS
10
292.6783666227
20
214.2421498801
11
292.2104675899
21
214.2421498801
0
LINE
5
483
100
AcDbEntity
8
0
100
AcDbLine
62
7
6
CONTINUOUS
10
291.8999435612
20
213.1993436639
11
292.3998341689
21
212.4856357599
0
LINE
5
484
100
AcDbEntity
8
0
100
AcDbLine
62
7
6
CONTINUOUS
10
290.3712762947
20
216.3144418196
11
291.8999435612
21
213.1993436639
0
LINE
5
485
100
AcDbEntity
8
0
100
AcDbLine
62
7
6
CONTINUOUS
10
296.1823197007
20
204.4727735937
11
297.7109869671
21
201.3576754380
0
LINE
5
486
100
AcDbEntity
8
0
100
AcDbLine
62
7
6
CONTINUOUS
10
290.5209301343
20
216.3144418196
11
292.3998341689
21
212.4856357599
0
LINE
5
487
100
AcDbEntity
8
0
100
AcDbLine
62
7
6
CONTINUOUS
10
296.3319735402
20
204.4727735937
11
298.2108775748
21
200.6439675340
0
LINE
5
488
100
AcDbEntity
8
0
100
AcDbLine
62
7
6
CONTINUOUS
10
287.6684002833
20
208.9331496162
11
287.7181913502
21
209.0942737173
0
LINE
5
489
100
AcDbEntity
8
0
100
AcDbLine
62
7
6
CONTINUOUS
10
283.0924675714
20
216.1368167962
11
284.2622151533
21
216.1368167962
0
LINE
5
48A
100
AcDbEntity
8
0
100
AcDbLine
62
7
6
CONTINUOUS
10
291.2807006450
20
216.1368167962
11
292.4504482269
21
216.1368167962
0
LINE
5
48B
100
AcDbEntity
8
0
100
AcDbLine
62
7
6
CONTINUOUS
10
298.7963167834
20
200.8215925574
11
292.5203899049
21
213.6105942413
0
LINE
5
48C
100
AcDbEntity
8
0
100
AcDbLine
62
7
6
CONTINUOUS
10
292.2104675899
20
214.2421498801
11
291.2807006450
21
216.1368167962
0
LINE
5
48D
100
AcDbEntity
8
0
100
AcDbLine
62
7
6
CONTINUOUS
10
289.0861732043
20
222.3265623779
11
289.3912020972
21
221.2705552174
0
LINE
5
48E
100
AcDbEntity
8
0
100
AcDbLine
62
7
6
CONTINUOUS
10
289.5312047077
20
213.1993436639
11
289.6503007485
21
213.5847389508
0
LINE
5
48F
100
AcDbEntity
8
0
100
AcDbLine
62
7
6
CONTINUOUS
10
287.6842922481
20
216.3144418196
11
290.5209301343
21
216.3144418196
0
LINE
5
490
100
AcDbEntity
8
0
100
AcDbLine
62
7
6
CONTINUOUS
10
282.7825452564
20
216.7683724349
11
286.2917880022
21
216.7683724349
0
LINE
5
491
100
AcDbEntity
8
0
100
AcDbLine
62
7
6
CONTINUOUS
10
288.6312831661
20
216.7683724349
11
292.1405259119
21
216.7683724349
0
LINE
5
492
100
AcDbEntity
8
0
100
AcDbLine
62
7
6
CONTINUOUS
10
288.5274788736
20
216.9799034641
11
286.1879837097
21
216.9799034641
0
LINE
5
493
100
AcDbEntity
8
0
100
AcDbLine
62
7
6
CONTINUOUS
10
292.1405259119
20
216.7683724349
11
292.4504482269
21
216.1368167962
0
LINE
5
494
100
AcDbEntity
8
0
100
AcDbLine
62
7
6
CONTINUOUS
10
300.2759866803
20
200.1900369187
11
299.9660643653
21
200.8215925574
0
LINE
5
495
100
AcDbEntity
8
0
100
AcDbLine
62
7
6
CONTINUOUS
10
289.8424848458
20
222.7309080834
11
290.2298877395
21
221.9414635350
0
LINE
5
496
100
AcDbEntity
8
0
100
AcDbLine
62
7
6
CONTINUOUS
10
296.7216375301
20
229.2489311020
11
298.7733444700
21
235.8882633592
0
LINE
5
497
100
AcDbEntity
8
0
100
AcDbLine
62
7
6
CONTINUOUS
10
292.2104675899
20
214.2421498801
11
292.9532433376
21
216.6457753130
0
LINE
5
498
100
AcDbEntity
8
0
100
AcDbLine
62
7
6
CONTINUOUS
10
292.6783666227
20
214.2421498801
11
293.6341319352
21
217.3350104374
0
LINE
5
499
100
AcDbEntity
8
0
100
AcDbLine
62
7
6
CONTINUOUS
10
298.2003774620
20
208.8529142877
11
296.6507658870
21
212.0106924813
0
LINE
5
49A
100
AcDbEntity
8
0
100
AcDbLine
62
7
6
CONTINUOUS
10
298.4972823785
20
208.8728563025
11
296.9476708036
21
212.0306344961
0
LINE
5
49B
100
AcDbEntity
8
0
100
AcDbLine
62
7
6
CONTINUOUS
10
294.1831917047
20
218.8360778082
11
294.4931140196
21
218.2045221695
0
LINE
5
49C
100
AcDbEntity
8
0
100
AcDbLine
62
7
6
CONTINUOUS
10
302.3186524730
20
202.2577422919
11
302.0087301580
21
202.8892979306
0
LINE
5
49D
100
AcDbEntity
8
0
100
AcDbLine
62
7
6
CONTINUOUS
10
295.3742396886
20
200.6439675340
11
295.3422482119
21
201.3576754380
0
LINE
5
49E
100
AcDbEntity
8
0
100
AcDbLine
62
7
6
CONTINUOUS
10
294.1831917047
20
218.8360778082
11
296.2495538268
21
225.5228342965
0
LINE
5
49F
100
AcDbEntity
8
0
100
AcDbLine
62
7
6
CONTINUOUS
10
294.4931140196
20
218.2045221695
11
296.5594761418
21
224.8912786578
0
LINE
5
4A0
100
AcDbEntity
8
0
100
AcDbLine
62
7
6
CONTINUOUS
10
289.8433553058
20
202.8892979306
11
290.1987627240
21
204.0393978255
0
LINE
5
4A1
100
AcDbEntity
8
0
100
AcDbLine
62
7
6
CONTINUOUS
10
296.0240124094
20
222.5308483896
11
293.3186815928
21
213.7763865280
0
LINE
5
4A2
100
AcDbEntity
8
0
100
AcDbLine
62
7
6
CONTINUOUS
10
297.4193014088
20
225.5228342965
11
297.7267253652
21
226.5176595081
0
LINE
5
4A3
100
AcDbEntity
8
0
100
AcDbLine
62
7
6
CONTINUOUS
10
292.1405259119
20
216.7683724349
11
294.1831917047
21
218.8360778082
0
LINE
5
4A4
100
AcDbEntity
8
0
100
AcDbLine
62
7
6
CONTINUOUS
10
292.4504482269
20
216.1368167962
11
294.4931140196
21
218.2045221695
0
LINE
5
4A5
100
AcDbEntity
8
0
100
AcDbLine
62
7
6
CONTINUOUS
10
297.7292237238
20
224.8912786578
11
298.0366476802
21
225.8861038694
0
LINE
5
4A6
100
AcDbEntity
8
0
100
AcDbLine
62
7
6
CONTINUOUS
10
297.5318965106
20
222.6182614201
11
297.9161764562
21
223.8617929345
0
LINE
5
4A7
100
AcDbEntity
8
0
100
AcDbLine
62
7
6
CONTINUOUS
10
298.6855046210
20
224.4586880614
11
298.1167703016
21
222.6182614201
0
LINE
5
4A8
100
AcDbEntity
8
0
100
AcDbLine
62
7
6
CONTINUOUS
10
296.1964896260
20
221.1019448255
11
298.2147639775
21
221.1019448255
0
LINE
5
4A9
100
AcDbEntity
8
0
100
AcDbLine
62
7
6
CONTINUOUS
10
288.7787492479
20
221.3317371663
11
286.4392540840
21
221.3317371663
0
LINE
5
4AA
100
AcDbEntity
8
0
100
AcDbLine
62
7
6
CONTINUOUS
10
301.0994980980
20
209.9091624943
11
300.4756388381
21
211.1804547321
0
LINE
5
4AB
100
AcDbEntity
8
0
100
AcDbLine
62
7
6
CONTINUOUS
10
295.7533381645
20
220.8034972621
11
295.5918891956
21
221.1324958586
0
LINE
5
4AC
100
AcDbEntity
8
0
100
AcDbLine
62
7
6
CONTINUOUS
10
301.5426495595
20
210.2076100577
11
300.8506130854
21
211.6178329306
0
LINE
5
4AD
100
AcDbEntity
8
0
100
AcDbLine
62
7
6
CONTINUOUS
10
296.1964896260
20
221.1019448255
11
295.8197131252
21
221.8697350496
0
LINE
5
4AE
100
AcDbEntity
8
0
100
AcDbLine
62
7
6
CONTINUOUS
10
298.6496455603
20
220.2157488256
11
297.8879532330
21
216.1082208384
0
LINE
5
4AF
100
AcDbEntity
8
0
100
AcDbLine
62
7
6
CONTINUOUS
10
297.8879532330
20
216.1082208384
11
296.6465169458
21
212.0909278097
0
LINE
5
4B0
100
AcDbEntity
8
0
100
AcDbLine
62
7
6
CONTINUOUS
10
289.0861732043
20
222.3265623779
11
286.7466780405
21
222.3265623779
0
LINE
5
4B1
100
AcDbEntity
8
0
100
AcDbLine
62
7
6
CONTINUOUS
10
299.8918661506
20
222.5928914391
11
299.7235685197
21
222.5928914391
0
LINE
5
4B2
100
AcDbEntity
8
0
100
AcDbLine
62
7
6
CONTINUOUS
10
289.8424848458
20
222.7309080834
11
287.5029896819
21
222.7309080834
0
LINE
5
4B3
100
AcDbEntity
8
0
100
AcDbLine
62
7
6
CONTINUOUS
10
301.8382071396
20
212.7697843281
11
300.2885955646
21
215.9275625217
0
LINE
5
4B4
100
AcDbEntity
8
0
100
AcDbLine
62
7
6
CONTINUOUS
10
298.5235656761
20
219.5358461476
11
297.7550365109
21
221.1019448255
0
LINE
5
4B5
100
AcDbEntity
8
0
100
AcDbLine
62
7
6
CONTINUOUS
10
301.9919191178
20
213.2671969339
11
300.4423075428
21
216.4249751275
0
LINE
5
4B6
100
AcDbEntity
8
0
100
AcDbLine
62
7
6
CONTINUOUS
10
304.4350750920
20
208.4262762178
11
302.8854635171
21
211.5840544113
0
LINE
5
4B7
100
AcDbEntity
8
0
100
AcDbLine
62
7
6
CONTINUOUS
10
299.0889151585
20
219.3206109856
11
297.5393035835
21
222.4783891791
0
LINE
5
4B8
100
AcDbEntity
8
0
100
AcDbLine
62
7
6
CONTINUOUS
10
298.9878757372
20
216.0140717544
11
299.6082239138
21
219.3593824604
0
LINE
5
4B9
100
AcDbEntity
8
0
100
AcDbLine
62
7
6
CONTINUOUS
10
300.0750287851
20
221.8766903084
11
300.1582812045
21
222.3256401408
0
LINE
5
4BA
100
AcDbEntity
8
0
100
AcDbLine
62
7
6
CONTINUOUS
10
299.6663818765
20
219.4604832265
11
300.2351161959
21
221.3009098678
0
LINE
5
4BB
100
AcDbEntity
8
0
100
AcDbLine
62
7
6
CONTINUOUS
10
297.5712470060
20
224.2597230191
11
296.3643108697
21
224.2597230191
0
LINE
5
4BC
100
AcDbEntity
8
0
100
AcDbLine
62
7
6
CONTINUOUS
10
283.2243537077
20
224.8912786578
11
283.8890137025
21
224.8912786578
0
LINE
5
4BD
100
AcDbEntity
8
0
100
AcDbLine
62
7
6
CONTINUOUS
10
296.5594761418
20
224.8912786578
11
297.7292237238
21
224.8912786578
0
LINE
5
4BE
100
AcDbEntity
8
0
100
AcDbLine
62
7
6
CONTINUOUS
10
297.7492552211
20
224.9561006672
11
298.2543428082
21
224.9561006672
0
LINE
5
4BF
100
AcDbEntity
8
0
100
AcDbLine
62
7
6
CONTINUOUS
10
296.2495538268
20
225.5228342965
11
296.5594761418
21
224.8912786578
0
LINE
5
4C0
100
AcDbEntity
8
0
100
AcDbLine
62
7
6
CONTINUOUS
10
305.0125418100
20
208.5661484587
11
303.4629302351
21
211.7239266522
0
LINE
5
4C1
100
AcDbEntity
8
0
100
AcDbLine
62
7
6
CONTINUOUS
10
299.6663818765
20
219.4604832265
11
298.1167703016
21
222.6182614201
0
LINE
5
4C2
100
AcDbEntity
8
0
100
AcDbLine
62
7
6
CONTINUOUS
10
303.2045103154
20
212.7803327480
11
302.9174069395
21
213.3653882513
0
LINE
5
4C3
100
AcDbEntity
8
0
100
AcDbLine
62
7
6
CONTINUOUS
10
297.8583503819
20
223.6746675158
11
297.5712470060
21
224.2597230191
0
LINE
5
4C4
100
AcDbEntity
8
0
100
AcDbLine
62
7
6
CONTINUOUS
10
302.6419559205
20
214.0617658994
11
301.9405418507
21
215.4910983140
0
LINE
5
4C5
100
AcDbEntity
8
0
100
AcDbLine
62
7
6
CONTINUOUS
10
297.4193014088
20
225.5228342965
11
297.7292237238
21
224.8912786578
0
LINE
5
4C6
100
AcDbEntity
8
0
100
AcDbLine
62
7
6
CONTINUOUS
10
305.5547621771
20
208.9444987803
11
305.2937967671
21
209.4762906786
0
LINE
5
4C7
100
AcDbEntity
8
0
100
AcDbLine
62
7
6
CONTINUOUS
10
300.9916642005
20
215.3055033179
11
301.7078927794
21
219.1678619472
0
LINE
5
4C8
100
AcDbEntity
8
0
100
AcDbLine
62
7
6
CONTINUOUS
10
295.3422481137
20
201.3576754380
11
295.4613441544
21
201.7430707249
0
LINE
5
4C9
100
AcDbEntity
8
0
100
AcDbLine
62
7
6
CONTINUOUS
10
300.2885955646
20
215.9275625217
11
300.4423075428
21
216.4249751275
0
LINE
5
4CA
100
AcDbEntity
8
0
100
AcDbLine
62
7
6
CONTINUOUS
10
296.9476708036
20
212.0306344961
11
300.2885955646
21
215.9275625217
0
LINE
5
4CB
100
AcDbEntity
8
0
100
AcDbLine
62
7
6
CONTINUOUS
10
282.9144313927
20
225.5228342965
11
284.0841789746
21
225.5228342965
0
LINE
5
4CC
100
AcDbEntity
8
0
100
AcDbLine
62
7
6
CONTINUOUS
10
296.2495538268
20
225.5228342965
11
297.4193014088
21
225.5228342965
0
LINE
5
4CD
100
AcDbEntity
8
0
100
AcDbLine
62
7
6
CONTINUOUS
10
304.3664681274
20
221.7928863628
11
304.9848508558
21
221.4793785282
0
LINE
5
4CE
100
AcDbEntity
8
0
100
AcDbLine
62
7
6
CONTINUOUS
10
305.5812761294
20
210.4065751000
11
304.0316645545
21
213.5643532936
0
LINE
5
4CF
100
AcDbEntity
8
0
100
AcDbLine
62
7
6
CONTINUOUS
10
300.2351161959
20
221.3009098678
11
298.6855046210
21
224.4586880614
0
LINE
5
4D0
100
AcDbEntity
8
0
100
AcDbLine
62
7
6
CONTINUOUS
10
297.7267253652
20
226.5176595081
11
298.0366476802
21
225.8861038694
0
LINE
5
4D1
100
AcDbEntity
8
0
100
AcDbLine
62
7
6
CONTINUOUS
10
305.8621861336
20
209.9393239918
11
305.5916066798
21
210.4907072626
0
LINE
5
4D2
100
AcDbEntity
8
0
100
AcDbLine
62
7
6
CONTINUOUS
10
305.5664619836
20
210.6863195819
11
304.0168504087
21
213.8440977754
0
LINE
5
4D3
100
AcDbEntity
8
0
100
AcDbLine
62
7
6
CONTINUOUS
10
300.2203020501
20
221.5806543497
11
298.6706904752
21
224.7384325432
0
LINE
5
4D4
100
AcDbEntity
8
0
100
AcDbLine
62
7
6
CONTINUOUS
10
301.7078927794
20
219.1678619472
11
300.1582812045
21
222.3256401408
0
LINE
5
4D5
100
AcDbEntity
8
0
100
AcDbLine
62
7
6
CONTINUOUS
10
301.6912863257
20
219.3045123711
11
300.1416747508
21
222.4622905647
0
LINE
5
4D6
100
AcDbEntity
8
0
100
AcDbLine
62
7
6
CONTINUOUS
10
305.4574532852
20
212.3612443143
11
305.7673756002
21
211.7296886756
0
LINE
5
4D7
100
AcDbEntity
8
0
100
AcDbLine
62
7
6
CONTINUOUS
10
297.9418371468
20
227.6764685531
11
297.6319148319
21
228.3080241918
0
LINE
5
4D8
100
AcDbEntity
8
0
100
AcDbLine
62
7
6
CONTINUOUS
10
301.9405418507
20
215.4910983140
11
304.5843878760
21
224.0465951333
0
LINE
5
4D9
100
AcDbEntity
8
0
100
AcDbLine
62
7
6
CONTINUOUS
10
304.7152987247
20
222.9217036377
11
302.2341673507
21
214.8927521118
0
LINE
5
4DA
100
AcDbEntity
8
0
100
AcDbLine
62
7
6
CONTINUOUS
10
301.8382071396
20
212.7697843281
11
301.9919191178
21
213.2671969339
0
LINE
5
4DB
100
AcDbEntity
8
0
100
AcDbLine
62
7
6
CONTINUOUS
10
304.9848508558
20
221.4793785282
11
302.6926373140
21
214.0617658994
0
LINE
5
4DC
100
AcDbEntity
8
0
100
AcDbLine
62
7
6
CONTINUOUS
10
298.7963167834
20
200.8215925574
11
301.6968128721
21
210.2076100577
0
LINE
5
4DD
100
AcDbEntity
8
0
100
AcDbLine
62
7
6
CONTINUOUS
10
303.0720609688
20
214.0617658994
11
305.2489241747
21
221.1061043580
0
LINE
5
4DE
100
AcDbEntity
8
0
100
AcDbLine
62
7
6
CONTINUOUS
10
303.2623363897
20
212.9674581667
11
302.8780564441
21
211.7239266522
0
LINE
5
4DF
100
AcDbEntity
8
0
100
AcDbLine
62
7
6
CONTINUOUS
10
298.4972823785
20
208.8728563025
11
301.8382071396
21
212.7697843281
0
LINE
5
4E0
100
AcDbEntity
8
0
100
AcDbLine
62
7
6
CONTINUOUS
10
294.9672897635
20
229.7011001850
11
287.9488042719
21
229.7011001850
0
LINE
5
4E1
100
AcDbEntity
8
0
100
AcDbLine
62
7
6
CONTINUOUS
10
303.4629302351
20
211.7239266522
11
304.0316645545
21
213.5643532936
0
LINE
5
4E2
100
AcDbEntity
8
0
100
AcDbLine
62
7
6
CONTINUOUS
10
304.5843878760
20
224.0465951333
11
298.7733444700
21
235.8882633592
0
LINE
5
4E3
100
AcDbEntity
8
0
100
AcDbLine
62
7
6
CONTINUOUS
10
303.9961718360
20
209.3206675306
11
302.0087301580
21
202.8892979306
0
LINE
5
4E4
100
AcDbEntity
8
0
100
AcDbLine
62
7
6
CONTINUOUS
10
304.3060941509
20
208.6891118919
11
302.3186524730
21
202.2577422919
0
LINE
5
4E5
100
AcDbEntity
8
0
100
AcDbLine
62
7
6
CONTINUOUS
10
305.0125418100
20
208.5661484587
11
305.5812761294
21
210.4065751000
0
LINE
5
4E6
100
AcDbEntity
8
0
100
AcDbLine
62
7
6
CONTINUOUS
10
305.8621861336
20
209.9393239918
11
305.5547621771
21
208.9444987803
0
LINE
5
4E7
100
AcDbEntity
8
0
100
AcDbLine
62
7
6
CONTINUOUS
10
297.0789602568
20
200.1900369187
11
296.8705482270
21
199.9785058895
0
LINE
5
4E8
100
AcDbEntity
8
0
100
AcDbLine
62
7
6
CONTINUOUS
10
302.0087301580
20
202.8892979306
11
299.9660643653
21
200.8215925574
0
LINE
5
4E9
100
AcDbEntity
8
0
100
AcDbLine
62
7
6
CONTINUOUS
10
302.3186524730
20
202.2577422919
11
300.2759866803
21
200.1900369187
0
LINE
5
4EA
100
AcDbEntity
8
0
100
AcDbLine
62
7
6
CONTINUOUS
10
116.7700000000
20
81.4375000000
11
114.2300000000
21
81.4375000000
0
LINE
5
4EB
100
AcDbEntity
8
0
100
AcDbLine
62
7
6
CONTINUOUS
10
116.7700000000
20
83.6372045256
11
114.2300000000
21
83.6372045256
0
LINE
5
4EC
100
AcDbEntity
8
0
100
AcDbLine
62
7
6
CONTINUOUS
10
123.3740000000
20
83.9775000000
11
116.7700000000
21
83.9775000000
0
LINE
5
4ED
100
AcDbEntity
8
0
100
AcDbLine
62
7
6
CONTINUOUS
10
114.2300000000
20
83.9775000000
11
107.6260000000
21
83.9775000000
0
LINE
5
4EE
100
AcDbEntity
8
0
100
AcDbLine
62
7
6
CONTINUOUS
10
118.5797500000
20
84.7077500000
11
115.5000000000
21
84.7077500000
0
LINE
5
4EF
100
AcDbEntity
8
0
100
AcDbLine
62
7
6
CONTINUOUS
10
123.3740000000
20
84.9935000000
11
119.3100000000
21
84.9935000000
0
LINE
5
4F0
100
AcDbEntity
8
0
100
AcDbLine
62
7
6
CONTINUOUS
10
111.6900000000
20
84.9935000000
11
107.6260000000
21
84.9935000000
0
LINE
5
4F1
100
AcDbEntity
8
0
100
AcDbLine
62
7
6
CONTINUOUS
10
118.0717500000
20
85.2157500000
11
115.5000000000
21
85.2157500000
0
LINE
5
4F2
100
AcDbEntity
8
0
100
AcDbLine
62
7
6
CONTINUOUS
10
106.9910000000
20
86.0095000000
11
111.6900000000
21
86.0095000000
0
LINE
5
4F3
100
AcDbEntity
8
0
100
AcDbLine
62
7
6
CONTINUOUS
10
119.3100000000
20
86.0095000000
11
124.0090000000
21
86.0095000000
0
LINE
5
4F4
100
AcDbEntity
8
0
100
AcDbLine
62
7
6
CONTINUOUS
10
106.9910000000
20
86.0095000000
11
106.9910000000
21
91.0895000000
0
LINE
5
4F5
100
AcDbEntity
8
0
100
AcDbLine
62
7
6
CONTINUOUS
10
106.9910000000
20
103.5355000000
11
106.9910000000
21
108.6155000000
0
LINE
5
4F6
100
AcDbEntity
8
0
100
AcDbLine
62
7
6
CONTINUOUS
10
107.1180000000
20
94.7725000000
11
107.1180000000
21
99.8525000000
0
LINE
5
4F7
100
AcDbEntity
8
0
100
AcDbLine
62
7
6
CONTINUOUS
10
107.6260000000
20
110.6475000000
11
107.6260000000
21
109.6315000000
0
LINE
5
4F8
100
AcDbEntity
8
0
100
AcDbLine
62
7
6
CONTINUOUS
10
107.6260000000
20
83.9775000000
11
107.6260000000
21
84.9935000000
0
LINE
5
4F9
100
AcDbEntity
8
0
100
AcDbLine
62
7
6
CONTINUOUS
10
107.6260000000
20
86.0095000000
11
107.6260000000
21
91.0895000000
0
LINE
5
4FA
100
AcDbEntity
8
0
100
AcDbLine
62
7
6
CONTINUOUS
10
107.6260000000
20
103.5355000000
11
107.6260000000
21
108.6155000000
0
LINE
5
4FB
100
AcDbEntity
8
0
100
AcDbLine
62
7
6
CONTINUOUS
10
108.1340000000
20
86.0095000000
11
108.1340000000
21
91.0895000000
0
LINE
5
4FC
100
AcDbEntity
8
0
100
AcDbLine
62
7
6
CONTINUOUS
10
108.1340000000
20
103.5355000000
11
108.1340000000
21
108.6155000000
0
LINE
5
4FD
100
AcDbEntity
8
0
100
AcDbLine
62
7
6
CONTINUOUS
10
108.8960000000
20
110.6475000000
11
108.8960000000
21
109.6315000000
0
LINE
5
4FE
100
AcDbEntity
8
0
100
AcDbLine
62
7
6
CONTINUOUS
10
108.8960000000
20
83.9775000000
11
108.8960000000
21
84.9935000000
0
LINE
5
4FF
100
AcDbEntity
8
0
100
AcDbLine
62
7
6
CONTINUOUS
10
109.4378070856
20
94.7725000000
11
109.4378070856
21
99.8525000000
0
LINE
5
500
100
AcDbEntity
8
0
100
AcDbLine
62
7
6
CONTINUOUS
10
118.0717500000
20
109.4092500000
11
118.5797500000
21
109.9172500000
0
LINE
5
501
100
AcDbEntity
8
0
100
AcDbLine
62
7
6
CONTINUOUS
10
115.5000000000
20
90.3592500000
11
118.0717500000
21
90.3592500000
0
LINE
5
502
100
AcDbEntity
8
0
100
AcDbLine
62
7
6
CONTINUOUS
10
115.5000000000
20
90.8672500000
11
118.5797500000
21
90.8672500000
0
LINE
5
503
100
AcDbEntity
8
0
100
AcDbLine
62
7
6
CONTINUOUS
10
106.9910000000
20
91.0895000000
11
111.6900000000
21
91.0895000000
0
LINE
5
504
100
AcDbEntity
8
0
100
AcDbLine
62
7
6
CONTINUOUS
10
119.3100000000
20
91.0895000000
11
124.0090000000
21
91.0895000000
0
LINE
5
505
100
AcDbEntity
8
0
100
AcDbLine
62
7
6
CONTINUOUS
10
118.0717500000
20
85.2157500000
11
118.5797500000
21
84.7077500000
0
LINE
5
506
100
AcDbEntity
8
0
100
AcDbLine
62
7
6
CONTINUOUS
10
109.7850000000
20
94.7725000000
11
109.7850000000
21
99.8525000000
0
LINE
5
507
100
AcDbEntity
8
0
100
AcDbLine
62
7
6
CONTINUOUS
10
110.4200000000
20
110.6475000000
11
110.4200000000
21
109.6315000000
0
LINE
5
508
100
AcDbEntity
8
0
100
AcDbLine
62
7
6
CONTINUOUS
10
110.4200000000
20
83.9775000000
11
110.4200000000
21
84.9935000000
0
LINE
5
509
100
AcDbEntity
8
0
100
AcDbLine
62
7
6
CONTINUOUS
10
110.4737975513
20
94.7725000000
11
110.4737975513
21
99.8525000000
0
LINE
5
50A
100
AcDbEntity
8
0
100
AcDbLine
62
7
6
CONTINUOUS
10
110.9790146741
20
94.7725000000
11
110.9790146741
21
99.8525000000
0
LINE
5
50B
100
AcDbEntity
8
0
100
AcDbLine
62
7
6
CONTINUOUS
10
111.1820000000
20
94.7725000000
11
111.1820000000
21
99.8525000000
0
LINE
5
50C
100
AcDbEntity
8
0
100
AcDbLine
62
7
6
CONTINUOUS
10
111.3090000000
20
86.0095000000
11
111.3090000000
21
91.0895000000
0
LINE
5
50D
100
AcDbEntity
8
0
100
AcDbLine
62
7
6
CONTINUOUS
10
111.3090000000
20
103.5355000000
11
111.3090000000
21
108.6155000000
0
LINE
5
50E
100
AcDbEntity
8
0
100
AcDbLine
62
7
6
CONTINUOUS
10
111.6900000000
20
109.6315000000
11
111.6900000000
21
84.9935000000
0
LINE
5
50F
100
AcDbEntity
8
0
100
AcDbLine
62
7
6
CONTINUOUS
10
107.1180000000
20
94.7725000000
11
111.6900000000
21
94.7725000000
0
LINE
5
510
100
AcDbEntity
8
0
100
AcDbLine
62
7
6
CONTINUOUS
10
119.3100000000
20
94.7725000000
11
123.8820000000
21
94.7725000000
0
LINE
5
511
100
AcDbEntity
8
0
100
AcDbLine
62
7
6
CONTINUOUS
10
114.2300000000
20
81.4375000000
11
114.2300000000
21
83.9775000000
0
LINE
5
512
100
AcDbEntity
8
0
100
AcDbLine
62
7
6
CONTINUOUS
10
114.2300000000
20
110.6475000000
11
114.2300000000
21
113.1875000000
0
LINE
5
513
100
AcDbEntity
8
0
100
AcDbLine
62
7
6
CONTINUOUS
10
115.5000000000
20
103.7577500000
11
115.5000001066
21
104.2657500000
0
LINE
5
514
100
AcDbEntity
8
0
100
AcDbLine
62
7
6
CONTINUOUS
10
115.5000000000
20
109.9172500000
11
115.5000000000
21
109.4092500000
0
LINE
5
515
100
AcDbEntity
8
0
100
AcDbLine
62
7
6
CONTINUOUS
10
115.5000000000
20
90.8672500000
11
115.5000000000
21
90.3592500000
0
LINE
5
516
100
AcDbEntity
8
0
100
AcDbLine
62
7
6
CONTINUOUS
10
115.5000000000
20
84.7077500000
11
115.5000001066
21
85.2157500000
0
LINE
5
517
100
AcDbEntity
8
0
100
AcDbLine
62
7
6
CONTINUOUS
10
116.7700000000
20
81.4375000000
11
116.7700000000
21
83.9775000000
0
LINE
5
518
100
AcDbEntity
8
0
100
AcDbLine
62
7
6
CONTINUOUS
10
116.7700000000
20
110.6475000000
11
116.7700000000
21
113.1875000000
0
LINE
5
519
100
AcDbEntity
8
0
100
AcDbLine
62
7
6
CONTINUOUS
10
107.1180000000
20
99.8525000000
11
111.6900000000
21
99.8525000000
0
LINE
5
51A
100
AcDbEntity
8
0
100
AcDbLine
62
7
6
CONTINUOUS
10
119.3100000000
20
99.8525000000
11
123.8820000000
21
99.8525000000
0
LINE
5
51B
100
AcDbEntity
8
0
100
AcDbLine
62
7
6
CONTINUOUS
10
118.0717500000
20
109.4092500000
11
118.0717500000
21
104.2657500000
0
LINE
5
51C
100
AcDbEntity
8
0
100
AcDbLine
62
7
6
CONTINUOUS
10
118.0717500000
20
90.3592500000
11
118.0717500000
21
85.2157500000
0
LINE
5
51D
100
AcDbEntity
8
0
100
AcDbLine
62
7
6
CONTINUOUS
10
118.5797500000
20
109.9172500000
11
118.5797500000
21
103.7577500000
0
LINE
5
51E
100
AcDbEntity
8
0
100
AcDbLine
62
7
6
CONTINUOUS
10
118.5797500000
20
90.8672500000
11
118.5797500000
21
84.7077500000
0
LINE
5
51F
100
AcDbEntity
8
0
100
AcDbLine
62
7
6
CONTINUOUS
10
119.3100000000
20
84.9935000000
11
119.3100000000
21
105.5675000000
0
LINE
5
520
100
AcDbEntity
8
0
100
AcDbLine
62
7
6
CONTINUOUS
10
119.3100000000
20
106.5835000000
11
119.3100000000
21
109.6315000000
0
LINE
5
521
100
AcDbEntity
8
0
100
AcDbLine
62
7
6
CONTINUOUS
10
119.6910000000
20
86.0095000000
11
119.6910000000
21
91.0895000000
0
LINE
5
522
100
AcDbEntity
8
0
100
AcDbLine
62
7
6
CONTINUOUS
10
119.6910000000
20
103.5355000000
11
119.6910000000
21
105.5675000000
0
LINE
5
523
100
AcDbEntity
8
0
100
AcDbLine
62
7
6
CONTINUOUS
10
119.6910000000
20
106.5835000000
11
119.6910000000
21
108.6155000000
0
LINE
5
524
100
AcDbEntity
8
0
100
AcDbLine
62
7
6
CONTINUOUS
10
119.8180000000
20
94.7725000000
11
119.8180000000
21
99.8525000000
0
LINE
5
525
100
AcDbEntity
8
0
100
AcDbLine
62
7
6
CONTINUOUS
10
120.0209853259
20
94.7725000000
11
120.0209853259
21
99.8525000000
0
LINE
5
526
100
AcDbEntity
8
0
100
AcDbLine
62
7
6
CONTINUOUS
10
120.5262024487
20
94.7725000000
11
120.5262024487
21
99.8525000000
0
LINE
5
527
100
AcDbEntity
8
0
100
AcDbLine
62
7
6
CONTINUOUS
10
120.5800000000
20
110.6475000000
11
120.5800000000
21
109.6315000000
0
LINE
5
528
100
AcDbEntity
8
0
100
AcDbLine
62
7
6
CONTINUOUS
10
120.5800000000
20
83.9775000000
11
120.5800000000
21
84.9935000000
0
LINE
5
529
100
AcDbEntity
8
0
100
AcDbLine
62
7
6
CONTINUOUS
10
121.2150000000
20
94.7725000000
11
121.2150000000
21
99.8525000000
0
LINE
5
52A
100
AcDbEntity
8
0
100
AcDbLine
62
7
6
CONTINUOUS
10
121.5621929144
20
94.7725000000
11
121.5621929144
21
99.8525000000
0
LINE
5
52B
100
AcDbEntity
8
0
100
AcDbLine
62
7
6
CONTINUOUS
10
122.1040000000
20
110.6475000000
11
122.1040000000
21
109.6315000000
0
LINE
5
52C
100
AcDbEntity
8
0
100
AcDbLine
62
7
6
CONTINUOUS
10
122.1040000000
20
83.9775000000
11
122.1040000000
21
84.9935000000
0
LINE
5
52D
100
AcDbEntity
8
0
100
AcDbLine
62
7
6
CONTINUOUS
10
118.0717500000
20
90.3592500000
11
118.5797500000
21
90.8672500000
0
LINE
5
52E
100
AcDbEntity
8
0
100
AcDbLine
62
7
6
CONTINUOUS
10
111.6900000000
20
103.5355000000
11
106.9910000000
21
103.5355000000
0
LINE
5
52F
100
AcDbEntity
8
0
100
AcDbLine
62
7
6
CONTINUOUS
10
119.3100000000
20
103.5355000000
11
124.0090000000
21
103.5355000000
0
LINE
5
530
100
AcDbEntity
8
0
100
AcDbLine
62
7
6
CONTINUOUS
10
118.5797500000
20
103.7577500000
11
115.5000000000
21
103.7577500000
0
LINE
5
531
100
AcDbEntity
8
0
100
AcDbLine
62
7
6
CONTINUOUS
10
118.0717500000
20
104.2657500000
11
115.5000000000
21
104.2657500000
0
LINE
5
532
100
AcDbEntity
8
0
100
AcDbLine
62
7
6
CONTINUOUS
10
118.0717500000
20
104.2657500000
11
118.5797500000
21
103.7577500000
0
LINE
5
533
100
AcDbEntity
8
0
100
AcDbLine
62
7
6
CONTINUOUS
10
122.8660000000
20
86.0095000000
11
122.8660000000
21
91.0895000000
0
LINE
5
534
100
AcDbEntity
8
0
100
AcDbLine
62
7
6
CONTINUOUS
10
122.8660000000
20
103.5355000000
11
122.8660000000
21
108.6155000000
0
LINE
5
535
100
AcDbEntity
8
0
100
AcDbLine
62
7
6
CONTINUOUS
10
123.3740000000
20
110.6475000000
11
123.3740000000
21
109.6315000000
0
LINE
5
536
100
AcDbEntity
8
0
100
AcDbLine
62
7
6
CONTINUOUS
10
123.3740000000
20
83.9775000000
11
123.3740000000
21
84.9935000000
0
LINE
5
537
100
AcDbEntity
8
0
100
AcDbLine
62
7
6
CONTINUOUS
10
123.3740000000
20
86.0095000000
11
123.3740000000
21
91.0895000000
0
LINE
5
538
100
AcDbEntity
8
0
100
AcDbLine
62
7
6
CONTINUOUS
10
123.3740000000
20
103.5355000000
11
123.3740000000
21
108.6155000000
0
LINE
5
539
100
AcDbEntity
8
0
100
AcDbLine
62
7
6
CONTINUOUS
10
123.8820000000
20
94.7725000000
11
123.8820000000
21
99.8525000000
0
LINE
5
53A
100
AcDbEntity
8
0
100
AcDbLine
62
7
6
CONTINUOUS
10
124.0090000000
20
86.0095000000
11
124.0090000000
21
91.0895000000
0
LINE
5
53B
100
AcDbEntity
8
0
100
AcDbLine
62
7
6
CONTINUOUS
10
124.0090000000
20
103.5355000000
11
124.0090000000
21
108.6155000000
0
LINE
5
53C
100
AcDbEntity
8
0
100
AcDbLine
62
7
6
CONTINUOUS
10
119.3100000000
20
105.5675000000
11
119.8180000000
21
105.5675000000
0
LINE
5
53D
100
AcDbEntity
8
0
100
AcDbLine
62
7
6
CONTINUOUS
10
119.8180000000
20
106.5835000000
11
119.3100000000
21
106.5835000000
0
LINE
5
53E
100
AcDbEntity
8
0
100
AcDbLine
62
7
6
CONTINUOUS
10
111.6900000000
20
108.6155000000
11
106.9910000000
21
108.6155000000
0
LINE
5
53F
100
AcDbEntity
8
0
100
AcDbLine
62
7
6
CONTINUOUS
10
119.3100000000
20
108.6155000000
11
124.0090000000
21
108.6155000000
0
LINE
5
540
100
AcDbEntity
8
0
100
AcDbLine
62
7
6
CONTINUOUS
10
115.5000000000
20
109.4092500000
11
118.0717500000
21
109.4092500000
0
LINE
5
541
100
AcDbEntity
8
0
100
AcDbLine
62
7
6
CONTINUOUS
10
107.6260000000
20
109.6315000000
11
111.6900000000
21
109.6315000000
0
LINE
5
542
100
AcDbEntity
8
0
100
AcDbLine
62
7
6
CONTINUOUS
10
119.3100000000
20
109.6315000000
11
123.3740000000
21
109.6315000000
0
LINE
5
543
100
AcDbEntity
8
0
100
AcDbLine
62
7
6
CONTINUOUS
10
115.5000000000
20
109.9172500000
11
118.5797500000
21
109.9172500000
0
LINE
5
544
100
AcDbEntity
8
0
100
AcDbLine
62
7
6
CONTINUOUS
10
107.6260000000
20
110.6475000000
11
114.2300000000
21
110.6475000000
0
LINE
5
545
100
AcDbEntity
8
0
100
AcDbLine
62
7
6
CONTINUOUS
10
116.7700000000
20
110.6475000000
11
123.3740000000
21
110.6475000000
0
LINE
5
546
100
AcDbEntity
8
0
100
AcDbLine
62
7
6
CONTINUOUS
10
116.7700000000
20
110.9877954744
11
114.2300000000
21
110.9877954744
0
LINE
5
547
100
AcDbEntity
8
0
100
AcDbLine
62
7
6
CONTINUOUS
10
116.7700000000
20
113.1875000000
11
114.2300000000
21
113.1875000000
0
LINE
5
548
100
AcDbEntity
8
0
100
AcDbLine
62
7
6
CONTINUOUS
10
110.4200000000
20
184.3520656922
11
120.5800000000
21
184.3520656922
0
LINE
5
549
100
AcDbEntity
8
0
100
AcDbLine
62
7
6
CONTINUOUS
10
108.8960000000
20
186.9917111229
11
110.4200000000
21
184.3520656922
0
LINE
5
54A
100
AcDbEntity
8
0
100
AcDbLine
62
7
6
CONTINUOUS
10
116.7700000000
20
188.1620656922
11
114.2300000000
21
188.1620656922
0
LINE
5
54B
100
AcDbEntity
8
0
100
AcDbLine
62
7
6
CONTINUOUS
10
107.1180000000
20
191.8450656922
11
108.8960000000
21
188.0321323875
0
LINE
5
54C
100
AcDbEntity
8
0
100
AcDbLine
62
7
6
CONTINUOUS
10
106.9910000000
20
193.4325656922
11
106.9910000000
21
195.7820656922
0
LINE
5
54D
100
AcDbEntity
8
0
100
AcDbLine
62
7
6
CONTINUOUS
10
116.7700000000
20
189.4320656922
11
114.2300000000
21
189.4320656922
0
LINE
5
54E
100
AcDbEntity
8
0
100
AcDbLine
62
7
6
CONTINUOUS
10
107.1180000000
20
192.4800656922
11
107.1180000000
21
191.8450656922
0
LINE
5
54F
100
AcDbEntity
8
0
100
AcDbLine
62
7
6
CONTINUOUS
10
107.6260000000
20
196.7980656922
11
107.6260000000
21
195.5280656922
0
LINE
5
550
100
AcDbEntity
8
0
100
AcDbLine
62
7
6
CONTINUOUS
10
107.6260000000
20
195.0200656922
11
107.6260000000
21
193.4325656922
0
LINE
5
551
100
AcDbEntity
8
0
100
AcDbLine
62
7
6
CONTINUOUS
10
108.5592216459
20
191.9555039121
11
107.1180000000
21
192.4800656922
0
LINE
5
552
100
AcDbEntity
8
0
100
AcDbLine
62
7
6
CONTINUOUS
10
108.8960000000
20
195.5280656922
11
108.8960000000
21
186.9917111229
0
LINE
5
553
100
AcDbEntity
8
0
100
AcDbLine
62
7
6
CONTINUOUS
10
116.7700000000
20
190.9560656922
11
114.2300000000
21
190.9560656922
0
LINE
5
554
100
AcDbEntity
8
0
100
AcDbLine
62
7
6
CONTINUOUS
10
108.8960000000
20
195.1597359134
11
108.5592216459
21
191.9555039121
0
LINE
5
555
100
AcDbEntity
8
0
100
AcDbLine
62
7
6
CONTINUOUS
10
111.6900000000
20
200.8620656922
11
111.6900000000
21
211.7840656922
0
LINE
5
556
100
AcDbEntity
8
0
100
AcDbLine
62
7
6
CONTINUOUS
10
112.1133333535
20
211.7840656922
11
112.1133333535
21
211.8729656922
0
LINE
5
557
100
AcDbEntity
8
0
100
AcDbLine
62
7
6
CONTINUOUS
10
112.3250000000
20
211.7840656922
11
112.3250000000
21
211.8729656922
0
LINE
5
558
100
AcDbEntity
8
0
100
AcDbLine
62
7
6
CONTINUOUS
10
112.4520000000
20
211.7840656922
11
112.4520000000
21
211.8729656922
0
LINE
5
559
100
AcDbEntity
8
0
100
AcDbLine
62
7
6
CONTINUOUS
10
112.9600000000
20
211.7840656922
11
112.9600000000
21
211.8729656922
0
LINE
5
55A
100
AcDbEntity
8
0
100
AcDbLine
62
7
6
CONTINUOUS
10
107.6260000000
20
195.5280656922
11
108.8960000000
21
195.5280656922
0
LINE
5
55B
100
AcDbEntity
8
0
100
AcDbLine
62
7
6
CONTINUOUS
10
122.1040000000
20
195.5280656922
11
123.3740000000
21
195.5280656922
0
LINE
5
55C
100
AcDbEntity
8
0
100
AcDbLine
62
7
6
CONTINUOUS
10
114.2300000000
20
184.3520656922
11
114.2300000000
21
190.9560656922
0
LINE
5
55D
100
AcDbEntity
8
0
100
AcDbLine
62
7
6
CONTINUOUS
10
116.7700000000
20
184.3520656922
11
116.7700000000
21
190.9560656922
0
LINE
5
55E
100
AcDbEntity
8
0
100
AcDbLine
62
7
6
CONTINUOUS
10
119.3100000000
20
200.8620656922
11
111.6900000000
21
200.8620656922
0
LINE
5
55F
100
AcDbEntity
8
0
100
AcDbLine
62
7
6
CONTINUOUS
10
119.3100000000
20
211.7840656922
11
119.3100000000
21
200.8620656922
0
LINE
5
560
100
AcDbEntity
8
0
100
AcDbLine
62
7
6
CONTINUOUS
10
122.4407783541
20
191.9555039121
11
122.1040000000
21
195.1597359134
0
LINE
5
561
100
AcDbEntity
8
0
100
AcDbLine
62
7
6
CONTINUOUS
10
122.1040000000
20
186.9917111229
11
122.1040000000
21
195.5280656922
0
LINE
5
562
100
AcDbEntity
8
0
100
AcDbLine
62
7
6
CONTINUOUS
10
123.3740000000
20
193.4325656922
11
123.3740000000
21
195.0200656922
0
LINE
5
563
100
AcDbEntity
8
0
100
AcDbLine
62
7
6
CONTINUOUS
10
123.3740000000
20
195.5280656922
11
123.3740000000
21
196.7980656922
0
LINE
5
564
100
AcDbEntity
8
0
100
AcDbLine
62
7
6
CONTINUOUS
10
123.8820000000
20
191.8450656922
11
123.8820000000
21
192.4800656922
0
LINE
5
565
100
AcDbEntity
8
0
100
AcDbLine
62
7
6
CONTINUOUS
10
124.0090000000
20
195.7820656922
11
124.0090000000
21
193.4325656922
0
LINE
5
566
100
AcDbEntity
8
0
100
AcDbLine
62
7
6
CONTINUOUS
10
123.8820000000
20
192.4800656922
11
122.4407783541
21
191.9555039121
0
LINE
5
567
100
AcDbEntity
8
0
100
AcDbLine
62
7
6
CONTINUOUS
10
122.1040000000
20
188.0321323875
11
123.8820000000
21
191.8450656922
0
LINE
5
568
100
AcDbEntity
8
0
100
AcDbLine
62
7
6
CONTINUOUS
10
120.5800000000
20
184.3520656922
11
122.1040000000
21
186.9917111229
0
LINE
5
569
100
AcDbEntity
8
0
100
AcDbLine
62
7
6
CONTINUOUS
10
119.3100000000
20
211.7840656922
11
111.6900000000
21
211.7840656922
0
LINE
5
56A
100
AcDbEntity
8
0
100
AcDbLine
62
7
6
CONTINUOUS
10
112.1133333535
20
211.8729656922
11
112.9600000000
21
211.8729656922
0
LINE
5
56B
100
AcDbEntity
8
0
100
AcDbLine
62
7
6
CONTINUOUS
10
238.2395656922
20
110.9877954744
11
242.0495656922
21
113.1875000000
0
LINE
5
56C
100
AcDbEntity
8
0
100
AcDbLine
62
7
6
CONTINUOUS
10
242.0495656922
20
81.4375000000
11
238.2395656922
21
83.6372045256
0
LINE
5
56D
100
AcDbEntity
8
0
100
AcDbLine
62
7
6
CONTINUOUS
10
243.3195656922
20
81.4375000000
11
242.0495656922
21
81.4375000000
0
LINE
5
56E
100
AcDbEntity
8
0
100
AcDbLine
62
7
6
CONTINUOUS
10
244.8435656922
20
82.7075000000
11
242.9792702178
21
82.7075000000
0
LINE
5
56F
100
AcDbEntity
8
0
100
AcDbLine
62
7
6
CONTINUOUS
10
238.2395656922
20
83.6372045256
11
238.2395656922
21
110.9877954744
0
LINE
5
570
100
AcDbEntity
8
0
100
AcDbLine
62
7
6
CONTINUOUS
10
243.3195656922
20
113.1875000000
11
242.9792702178
21
111.9175000000
0
LINE
5
571
100
AcDbEntity
8
0
100
AcDbLine
62
7
6
CONTINUOUS
10
265.6715656922
20
83.9775000000
11
238.2395656922
21
83.9775000000
0
LINE
5
572
100
AcDbEntity
8
0
100
AcDbLine
62
7
6
CONTINUOUS
10
254.7495656922
20
84.0706625354
11
264.6555656922
21
84.0706625354
0
LINE
5
573
100
AcDbEntity
8
0
100
AcDbLine
62
7
6
CONTINUOUS
10
242.9792702178
20
82.7075000000
11
243.3195656922
21
81.4375000000
0
LINE
5
574
100
AcDbEntity
8
0
100
AcDbLine
62
7
6
CONTINUOUS
10
240.6525656922
20
94.7725000000
11
240.6525656922
21
99.8525000000
0
LINE
5
575
100
AcDbEntity
8
0
100
AcDbLine
62
7
6
CONTINUOUS
10
240.7577233429
20
94.7725000000
11
240.7577233429
21
99.8525000000
0
LINE
5
576
100
AcDbEntity
8
0
100
AcDbLine
62
7
6
CONTINUOUS
10
240.8792111229
20
110.6475000000
11
240.8792111229
21
109.6315000000
0
LINE
5
577
100
AcDbEntity
8
0
100
AcDbLine
62
7
6
CONTINUOUS
10
240.8792111229
20
83.9775000000
11
240.8792111229
21
84.9935000000
0
LINE
5
578
100
AcDbEntity
8
0
100
AcDbLine
62
7
6
CONTINUOUS
10
264.6555656922
20
84.9378727803
11
254.7495656922
21
84.9378727803
0
LINE
5
579
100
AcDbEntity
8
0
100
AcDbLine
62
7
6
CONTINUOUS
10
254.7495656922
20
84.9935000000
11
238.2395656922
21
84.9935000000
0
LINE
5
57A
100
AcDbEntity
8
0
100
AcDbLine
62
7
6
CONTINUOUS
10
264.6555656922
20
85.4766881476
11
254.7495656922
21
85.4766881476
0
LINE
5
57B
100
AcDbEntity
8
0
100
AcDbLine
62
7
6
CONTINUOUS
10
247.0025656922
20
86.0095000000
11
251.0665656922
21
86.0095000000
0
LINE
5
57C
100
AcDbEntity
8
0
100
AcDbLine
62
7
6
CONTINUOUS
10
254.7495656922
20
87.7875000000
11
265.6715656922
21
87.7875000000
0
LINE
5
57D
100
AcDbEntity
8
0
100
AcDbLine
62
7
6
CONTINUOUS
10
244.8435656922
20
111.9175000000
11
244.8435656922
21
110.6475000000
0
LINE
5
57E
100
AcDbEntity
8
0
100
AcDbLine
62
7
6
CONTINUOUS
10
244.8435656922
20
83.9775000000
11
244.8435656922
21
82.7075000000
0
LINE
5
57F
100
AcDbEntity
8
0
100
AcDbLine
62
7
6
CONTINUOUS
10
265.6715656922
20
89.6925000000
11
265.7604656922
21
89.6925000000
0
LINE
5
580
100
AcDbEntity
8
0
100
AcDbLine
62
7
6
CONTINUOUS
10
265.6715656922
20
90.3842446589
11
265.7604656922
21
90.3842446589
0
LINE
5
581
100
AcDbEntity
8
0
100
AcDbLine
62
7
6
CONTINUOUS
10
245.7325656922
20
94.7725000000
11
245.7325656922
21
99.8525000000
0
LINE
5
582
100
AcDbEntity
8
0
100
AcDbLine
62
7
6
CONTINUOUS
10
246.3675656922
20
94.7725000000
11
246.3675656922
21
99.8525000000
0
LINE
5
583
100
AcDbEntity
8
0
100
AcDbLine
62
7
6
CONTINUOUS
10
265.6715656922
20
90.5571808691
11
265.7604656922
21
90.5571808691
0
LINE
5
584
100
AcDbEntity
8
0
100
AcDbLine
62
7
6
CONTINUOUS
10
265.6715656922
20
90.7085000000
11
265.7604656922
21
90.7085000000
0
LINE
5
585
100
AcDbEntity
8
0
100
AcDbLine
62
7
6
CONTINUOUS
10
247.0025656922
20
91.0895000000
11
251.0665656922
21
91.0895000000
0
LINE
5
586
100
AcDbEntity
8
0
100
AcDbLine
62
7
6
CONTINUOUS
10
247.0025656922
20
86.0095000000
11
247.0025656922
21
91.0895000000
0
LINE
5
587
100
AcDbEntity
8
0
100
AcDbLine
62
7
6
CONTINUOUS
10
247.0025656922
20
103.5355000000
11
247.0025656922
21
108.6155000000
0
LINE
5
588
100
AcDbEntity
8
0
100
AcDbLine
62
7
6
CONTINUOUS
10
247.3200656922
20
86.0095000000
11
247.3200656922
21
91.0895000000
0
LINE
5
589
100
AcDbEntity
8
0
100
AcDbLine
62
7
6
CONTINUOUS
10
247.3200656922
20
103.5355000000
11
247.3200656922
21
108.6155000000
0
LINE
5
58A
100
AcDbEntity
8
0
100
AcDbLine
62
7
6
CONTINUOUS
10
249.4155656922
20
110.6475000000
11
249.4155656922
21
109.6315000000
0
LINE
5
58B
100
AcDbEntity
8
0
100
AcDbLine
62
7
6
CONTINUOUS
10
249.4155656922
20
83.9775000000
11
249.4155656922
21
84.9935000000
0
LINE
5
58C
100
AcDbEntity
8
0
100
AcDbLine
62
7
6
CONTINUOUS
10
249.6695656922
20
86.0095000000
11
249.6695656922
21
91.0895000000
0
LINE
5
58D
100
AcDbEntity
8
0
100
AcDbLine
62
7
6
CONTINUOUS
10
249.6695656922
20
103.5355000000
11
249.6695656922
21
108.6155000000
0
LINE
5
58E
100
AcDbEntity
8
0
100
AcDbLine
62
7
6
CONTINUOUS
10
250.3045656922
20
86.0095000000
11
250.3045656922
21
91.0895000000
0
LINE
5
58F
100
AcDbEntity
8
0
100
AcDbLine
62
7
6
CONTINUOUS
10
250.3045656922
20
103.5355000000
11
250.3045656922
21
108.6155000000
0
LINE
5
590
100
AcDbEntity
8
0
100
AcDbLine
62
7
6
CONTINUOUS
10
250.5585656922
20
103.5355000000
11
250.5585656922
21
108.6155000000
0
LINE
5
591
100
AcDbEntity
8
0
100
AcDbLine
62
7
6
CONTINUOUS
10
250.6855656922
20
110.6475000000
11
250.6855656922
21
109.6315000000
0
LINE
5
592
100
AcDbEntity
8
0
100
AcDbLine
62
7
6
CONTINUOUS
10
250.6855656922
20
83.9775000000
11
250.6855656922
21
84.9935000000
0
LINE
5
593
100
AcDbEntity
8
0
100
AcDbLine
62
7
6
CONTINUOUS
10
240.6527387746
20
94.7725000000
11
254.6225656922
21
94.7725000000
0
LINE
5
594
100
AcDbEntity
8
0
100
AcDbLine
62
7
6
CONTINUOUS
10
250.9395656922
20
103.5355000000
11
250.9395656922
21
108.6155000000
0
LINE
5
595
100
AcDbEntity
8
0
100
AcDbLine
62
7
6
CONTINUOUS
10
251.0665656922
20
86.0095000000
11
251.0665656922
21
91.0895000000
0
LINE
5
596
100
AcDbEntity
8
0
100
AcDbLine
62
7
6
CONTINUOUS
10
253.9003910367
20
94.7725000000
11
253.9003910367
21
99.8525000000
0
LINE
5
597
100
AcDbEntity
8
0
100
AcDbLine
62
7
6
CONTINUOUS
10
254.2415656922
20
94.7725000000
11
254.2415656922
21
99.8525000000
0
LINE
5
598
100
AcDbEntity
8
0
100
AcDbLine
62
7
6
CONTINUOUS
10
254.6225656922
20
94.7725000000
11
254.6225656922
21
99.8525000000
0
LINE
5
599
100
AcDbEntity
8
0
100
AcDbLine
62
7
6
CONTINUOUS
10
254.7495656922
20
83.9775000000
11
254.7495656922
21
87.7875000000
0
LINE
5
59A
100
AcDbEntity
8
0
100
AcDbLine
62
7
6
CONTINUOUS
10
254.7495656922
20
106.8375000000
11
254.7495656922
21
110.6475000000
0
LINE
5
59B
100
AcDbEntity
8
0
100
AcDbLine
62
7
6
CONTINUOUS
10
240.6527387746
20
99.8525000000
11
254.6225656922
21
99.8525000000
0
LINE
5
59C
100
AcDbEntity
8
0
100
AcDbLine
62
7
6
CONTINUOUS
10
247.0025656922
20
103.5355000000
11
250.9395656922
21
103.5355000000
0
LINE
5
59D
100
AcDbEntity
8
0
100
AcDbLine
62
7
6
CONTINUOUS
10
265.6715656922
20
104.4245000000
11
265.7604656922
21
104.4245000000
0
LINE
5
59E
100
AcDbEntity
8
0
100
AcDbLine
62
7
6
CONTINUOUS
10
265.6715656922
20
104.7271382921
11
265.7604656922
21
104.7271382921
0
LINE
5
59F
100
AcDbEntity
8
0
100
AcDbLine
62
7
6
CONTINUOUS
10
265.6715656922
20
104.8568404346
11
265.7604656922
21
104.8568404346
0
LINE
5
5A0
100
AcDbEntity
8
0
100
AcDbLine
62
7
6
CONTINUOUS
10
265.6715656922
20
105.4405000000
11
265.7604656922
21
105.4405000000
0
LINE
5
5A1
100
AcDbEntity
8
0
100
AcDbLine
62
7
6
CONTINUOUS
10
247.0025656922
20
105.5675000000
11
238.2395656922
21
105.5675000000
0
LINE
5
5A2
100
AcDbEntity
8
0
100
AcDbLine
62
7
6
CONTINUOUS
10
238.2395656922
20
106.5835000000
11
247.0025656922
21
106.5835000000
0
LINE
5
5A3
100
AcDbEntity
8
0
100
AcDbLine
62
7
6
CONTINUOUS
10
254.7495656922
20
106.8375000000
11
265.6715656922
21
106.8375000000
0
LINE
5
5A4
100
AcDbEntity
8
0
100
AcDbLine
62
7
6
CONTINUOUS
10
250.9395656922
20
108.6155000000
11
247.0025656922
21
108.6155000000
0
LINE
5
5A5
100
AcDbEntity
8
0
100
AcDbLine
62
7
6
CONTINUOUS
10
264.6555656922
20
85.4766881476
11
264.6555656922
21
84.0707608246
0
LINE
5
5A6
100
AcDbEntity
8
0
100
AcDbLine
62
7
6
CONTINUOUS
10
238.2395656922
20
109.6315000000
11
254.7495656922
21
109.6315000000
0
LINE
5
5A7
100
AcDbEntity
8
0
100
AcDbLine
62
7
6
CONTINUOUS
10
265.6715656922
20
83.9776038494
11
265.6715656922
21
110.6473961506
0
LINE
5
5A8
100
AcDbEntity
8
0
100
AcDbLine
62
7
6
CONTINUOUS
10
265.7604656922
20
105.4405000000
11
265.7604656922
21
104.4245000000
0
LINE
5
5A9
100
AcDbEntity
8
0
100
AcDbLine
62
7
6
CONTINUOUS
10
265.7604656922
20
90.7085000000
11
265.7604656922
21
89.6925000000
0
LINE
5
5AA
100
AcDbEntity
8
0
100
AcDbLine
62
7
6
CONTINUOUS
10
238.2395656922
20
110.6475000000
11
265.6715656922
21
110.6475000000
0
LINE
5
5AB
100
AcDbEntity
8
0
100
AcDbLine
62
7
6
CONTINUOUS
10
242.9792702178
20
111.9175000000
11
244.8435656922
21
111.9175000000
0
LINE
5
5AC
100
AcDbEntity
8
0
100
AcDbLine
62
7
6
CONTINUOUS
10
242.0495656922
20
113.1875000000
11
243.3195656922
21
113.1875000000
0
ARC
5
5AD
100
AcDbEntity
8
0
100
AcDbCircle
62
7
6
CONTINUOUS
10
119.8180000000
20
106.0755000000
40
0.5080000000
100
AcDbArc
50
270.0000000000
51
90.0000000000
0
ARC
5
5AE
100
AcDbEntity
8
0
100
AcDbCircle
62
7
6
CONTINUOUS
10
115.5000000000
20
106.8375000000
40
2.5717500000
100
AcDbArc
50
90.0000000000
51
270.0000000000
0
ARC
5
5AF
100
AcDbEntity
8
0
100
AcDbCircle
62
7
6
CONTINUOUS
10
115.5000000000
20
87.7875000000
40
2.5717500000
100
AcDbArc
50
90.0000000000
51
270.0000000000
0
CIRCLE
5
5B0
100
AcDbEntity
8
0
100
AcDbCircle
62
7
6
CONTINUOUS
10
115.5000000000
20
100.4875000000
40
2.5717500000
0
CIRCLE
5
5B1
100
AcDbEntity
8
0
100
AcDbCircle
62
7
6
CONTINUOUS
10
115.5000000000
20
94.1375000000
40
2.5717500000
0
ARC
5
5B2
100
AcDbEntity
8
0
100
AcDbCircle
62
7
6
CONTINUOUS
10
115.5000000000
20
106.8375000000
40
3.0797202163
100
AcDbArc
50
90.0000000000
51
270.0000000000
0
CIRCLE
5
5B3
100
AcDbEntity
8
0
100
AcDbCircle
62
7
6
CONTINUOUS
10
115.5000000000
20
100.4875000000
40
3.0797202163
0
ARC
5
5B4
100
AcDbEntity
8
0
100
AcDbCircle
62
7
6
CONTINUOUS
10
115.5000000000
20
87.7875000000
40
3.0797202163
100
AcDbArc
50
90.0000000000
51
270.0000000000
0
CIRCLE
5
5B5
100
AcDbEntity
8
0
100
AcDbCircle
62
7
6
CONTINUOUS
10
115.5000000000
20
94.1375000000
40
3.0797202163
0
ARC
5
5B6
100
AcDbEntity
8
0
100
AcDbCircle
62
7
6
CONTINUOUS
10
121.2150000000
20
199.9730656922
40
0.3810000000
100
AcDbArc
50
39.3863508689
51
84.7033766875
0
ARC
5
5B7
100
AcDbEntity
8
0
100
AcDbCircle
62
7
6
CONTINUOUS
10
111.6900000000
20
196.7980656922
40
4.0640000000
100
AcDbArc
50
90.0000000000
51
180.0000000000
0
ARC
5
5B8
100
AcDbEntity
8
0
100
AcDbCircle
62
7
6
CONTINUOUS
10
119.3100000000
20
196.7980656922
40
4.0640000000
100
AcDbArc
50
0.0000000000
51
90.0000000000
0
ARC
5
5B9
100
AcDbEntity
8
0
100
AcDbCircle
62
7
6
CONTINUOUS
10
109.7850000000
20
199.9730656922
40
0.3810000000
100
AcDbArc
50
95.2966233125
51
140.6136491311
0
ARC
5
5BA
100
AcDbEntity
8
0
100
AcDbCircle
62
7
6
CONTINUOUS
10
107.6260000000
20
195.7820656922
40
0.6350000000
100
AcDbArc
50
90.0000000000
51
180.0000000000
0
ARC
5
5BB
100
AcDbEntity
8
0
100
AcDbCircle
62
7
6
CONTINUOUS
10
107.3085000000
20
193.4325656922
40
0.3175000000
100
AcDbArc
50
180.0000000000
51
360.0000000000
0
ARC
5
5BC
100
AcDbEntity
8
0
100
AcDbCircle
62
7
6
CONTINUOUS
10
108.1340000000
20
195.0200656922
40
0.5080000000
100
AcDbArc
50
90.0000000000
51
180.0000000000
0
ARC
5
5BD
100
AcDbEntity
8
0
100
AcDbCircle
62
7
6
CONTINUOUS
10
122.8660000000
20
195.0200656922
40
0.5080000000
100
AcDbArc
50
0.0000000000
51
90.0000000000
0
ARC
5
5BE
100
AcDbEntity
8
0
100
AcDbCircle
62
7
6
CONTINUOUS
10
123.6915000000
20
193.4325656922
40
0.3175000000
100
AcDbArc
50
180.0000000000
51
360.0000000000
0
ARC
5
5BF
100
AcDbEntity
8
0
100
AcDbCircle
62
7
6
CONTINUOUS
10
123.3740000000
20
195.7820656922
40
0.6350000000
100
AcDbArc
50
0.0000000000
51
90.0000000000
0
SPLINE
5
5C0
100
AcDbEntity
8
0
100
AcDbSpline
62
7
6
CONTINUOUS
70
0
71
3
72
11
73
7
74
5
42
0.0000001000
43
0.0000001000
44
0.0000000001
12
0.3915429124
22
0.0000000000
32
0.0000000000
13
0.1141373279
23
0.3765364019
33
0.0000000000
40
0.0000000000
40
0.0000000000
40
0.0000000000
40
0.0000000000
40
0.3879120271
40
0.7105842963
40
0.9791234638
40
1.0000000000
40
1.0000000000
40
1.0000000000
40
1.0000000000
10
292.9882889377
20
213.6105942413
30
0.0000000000
10
293.0389170060
20
213.6105942413
30
0.0000000000
10
293.1322334561
20
213.6205779260
30
0.0000000000
10
293.2523705629
20
213.6719870954
30
0.0000000000
10
293.3058614388
20
213.7376399132
30
0.0000000000
10
293.3178146677
20
213.7736527467
30
0.0000000000
10
293.3186089317
20
213.7762730053
30
0.0000000000
11
292.9882889377
21
213.6105942413
31
0.0000000000
11
293.1389745307
21
213.6296379740
31
0.0000000000
11
293.2527946146
21
213.6844722169
31
0.0000000000
11
293.3160208077
21
213.7684831510
31
0.0000000000
11
293.3186089317
21
213.7762730053
31
0.0000000000
0
SPLINE
5
5C1
100
AcDbEntity
8
0
100
AcDbSpline
62
7
6
CONTINUOUS
70
0
71
3
72
9
73
5
74
3
42
0.0000001000
43
0.0000001000
44
0.0000000001
12
0.7872741332
22
0.1848507935
32
0.0000000000
13
0.8078411968
23
-0.0000000271
33
0.0000000000
40
0.0000000000
40
0.0000000000
40
0.0000000000
40
0.0000000000
40
0.3547016514
40
1.0000000000
40
1.0000000000
40
1.0000000000
40
1.0000000000
10
292.6931892229
20
204.3859316685
30
0.0000000000
10
292.7862717013
20
204.4077872957
30
0.0000000000
10
293.0518419509
20
204.4561547317
30
0.0000000000
10
293.3215694573
20
204.4727735995
30
0.0000000000
10
293.4953356540
20
204.4727735937
30
0.0000000000
11
292.6931892229
21
204.3859316685
31
0.0000000000
11
292.9751911516
21
204.4381049237
31
0.0000000000
11
293.4953356540
21
204.4727735937
31
0.0000000000
0
SPLINE
5
5C2
100
AcDbEntity
8
0
100
AcDbSpline
62
7
6
CONTINUOUS
70
0
71
3
72
16
73
12
74
10
42
0.0000001000
43
0.0000001000
44
0.0000000001
12
4.4675136882
22
1.0512841817
32
0.0000000000
13
3.0937442622
23
-3.3896029342
33
0.0000000000
40
0.0000000000
40
0.0000000000
40
0.0000000000
40
0.0000000000
40
0.0590208119
40
0.1766311799
40
0.3021666007
40
0.4324516531
40
0.5640931534
40
0.6944974992
40
0.8209583368
40
0.9393895501
40
1.0000000000
40
1.0000000000
40
1.0000000000
40
1.0000000000
10
290.7549645592
20
208.3328822400
30
0.0000000000
10
290.8428566543
20
208.3535647887
30
0.0000000000
10
291.1088792551
20
208.4029093923
30
0.0000000000
10
291.5712185051
20
208.4321995802
30
0.0000000000
10
292.1420011517
20
208.3933339456
30
0.0000000000
10
292.7251162673
20
208.2834356588
30
0.0000000000
10
293.2993368391
20
208.1068432026
30
0.0000000000
10
293.8449238217
20
207.8694856213
30
0.0000000000
10
294.3413388410
20
207.5794082581
30
0.0000000000
10
294.7112624146
20
207.2919980074
30
0.0000000000
10
294.9058063598
20
207.0988041023
30
0.0000000000
10
294.9683107703
20
207.0303223160
30
0.0000000000
11
290.7549645592
21
208.3328822400
31
0.0000000000
11
291.0211111791
21
208.3829436658
31
0.0000000000
11
291.5590016443
21
208.4199961545
31
0.0000000000
11
292.1332924114
21
208.3827670105
31
0.0000000000
11
292.7203953043
21
208.2730319759
31
0.0000000000
11
293.2972263014
21
208.0956499204
31
0.0000000000
11
293.8450602290
21
207.8563527352
31
0.0000000000
11
294.3446550686
21
207.5622407143
31
0.0000000000
11
294.7715394730
21
207.2267698622
31
0.0000000000
11
294.9683107703
21
207.0303223160
31
0.0000000000
0
SPLINE
5
5C3
100
AcDbEntity
8
0
100
AcDbSpline
62
7
6
CONTINUOUS
70
0
71
3
72
8
73
4
74
2
42
0.0000001000
43
0.0000001000
44
0.0000000001
12
0.1340681727
22
-0.1760159659
32
0.0000000000
13
0.1119744773
23
-0.1905495500
33
0.0000000000
40
0.0000000000
40
0.0000000000
40
0.0000000000
40
0.0000000000
40
1.0000000000
40
1.0000000000
40
1.0000000000
40
1.0000000000
10
294.8096682680
20
207.1911164121
30
0.0000000000
10
294.8543576589
20
207.1324444234
30
0.0000000000
10
294.8959477242
20
207.0713107399
30
0.0000000000
10
294.9332725500
20
207.0077942232
30
0.0000000000
11
294.8096682680
21
207.1911164121
31
0.0000000000
11
294.9332725500
21
207.0077942232
31
0.0000000000
0
SPLINE
5
5C4
100
AcDbEntity
8
0
100
AcDbSpline
62
7
6
CONTINUOUS
70
0
71
3
72
8
73
4
74
2
42
0.0000001000
43
0.0000001000
44
0.0000000001
12
0.0600718254
22
-0.1022256106
32
0.0000000000
13
0.0521663314
23
-0.1063038786
33
0.0000000000
40
0.0000000000
40
0.0000000000
40
0.0000000000
40
0.0000000000
40
1.0000000000
40
1.0000000000
40
1.0000000000
40
1.0000000000
10
294.9332725500
20
207.0077942232
30
0.0000000000
10
294.9532964918
20
206.9737190197
30
0.0000000000
10
294.9720928615
20
206.9389580166
30
0.0000000000
10
294.9894816387
20
206.9035233904
30
0.0000000000
11
294.9332725500
21
207.0077942232
31
0.0000000000
11
294.9894816387
21
206.9035233904
31
0.0000000000
0
SPLINE
5
5C5
100
AcDbEntity
8
0
100
AcDbSpline
62
7
6
CONTINUOUS
70
0
71
3
72
16
73
12
74
10
42
0.0000001000
43
0.0000001000
44
0.0000000001
12
4.4675136882
22
1.0512841817
32
0.0000000000
13
3.0937442622
23
-3.3896029342
33
0.0000000000
40
0.0000000000
40
0.0000000000
40
0.0000000000
40
0.0000000000
40
0.0590208119
40
0.1766311799
40
0.3021666007
40
0.4324516531
40
0.5640931534
40
0.6944974992
40
0.8209583368
40
0.9393895501
40
1.0000000000
40
1.0000000000
40
1.0000000000
40
1.0000000000
10
288.8179500905
20
212.2801049820
30
0.0000000000
10
288.9058421856
20
212.3007875306
30
0.0000000000
10
289.1718647864
20
212.3501321343
30
0.0000000000
10
289.6342040364
20
212.3794223221
30
0.0000000000
10
290.2049866831
20
212.3405566876
30
0.0000000000
10
290.7881017986
20
212.2306584008
30
0.0000000000
10
291.3623223704
20
212.0540659446
30
0.0000000000
10
291.9079093530
20
211.8167083633
30
0.0000000000
10
292.4043243723
20
211.5266310001
30
0.0000000000
10
292.7742479460
20
211.2392207493
30
0.0000000000
10
292.9687918911
20
211.0460268442
30
0.0000000000
10
293.0312963016
20
210.9775450580
30
0.0000000000
11
288.8179500905
21
212.2801049820
31
0.0000000000
11
289.0840967105
21
212.3301664077
31
0.0000000000
11
289.6219871756
21
212.3672188964
31
0.0000000000
11
290.1962779427
21
212.3299897524
31
0.0000000000
11
290.7833808356
21
212.2202547178
31
0.0000000000
11
291.3602118327
21
212.0428726624
31
0.0000000000
11
291.9080457604
21
211.8035754772
31
0.0000000000
11
292.4076406000
21
211.5094634563
31
0.0000000000
11
292.8345250044
21
211.1739926042
31
0.0000000000
11
293.0312963016
21
210.9775450580
31
0.0000000000
0
SPLINE
5
5C6
100
AcDbEntity
8
0
100
AcDbSpline
62
7
6
CONTINUOUS
70
0
71
3
72
8
73
4
74
2
42
0.0000001000
43
0.0000001000
44
0.0000000001
12
0.1340681727
22
-0.1760159659
32
0.0000000000
13
0.1119744773
23
-0.1905495500
33
0.0000000000
40
0.0000000000
40
0.0000000000
40
0.0000000000
40
0.0000000000
40
1.0000000000
40
1.0000000000
40
1.0000000000
40
1.0000000000
10
292.8726537993
20
211.1383391540
30
0.0000000000
10
292.9173431902
20
211.0796671654
30
0.0000000000
10
292.9589332556
20
211.0185334819
30
0.0000000000
10
292.9962580813
20
210.9550169652
30
0.0000000000
11
292.8726537993
21
211.1383391540
31
0.0000000000
11
292.9962580813
21
210.9550169652
31
0.0000000000
0
SPLINE
5
5C7
100
AcDbEntity
8
0
100
AcDbSpline
62
7
6
CONTINUOUS
70
0
71
3
72
8
73
4
74
2
42
0.0000001000
43
0.0000001000
44
0.0000000001
12
0.0600718254
22
-0.1022256106
32
0.0000000000
13
0.0521663314
23
-0.1063038786
33
0.0000000000
40
0.0000000000
40
0.0000000000
40
0.0000000000
40
0.0000000000
40
1.0000000000
40
1.0000000000
40
1.0000000000
40
1.0000000000
10
292.9962580813
20
210.9550169652
30
0.0000000000
10
293.0162820232
20
210.9209417617
30
0.0000000000
10
293.0350783929
20
210.8861807586
30
0.0000000000
10
293.0524671700
20
210.8507461324
30
0.0000000000
11
292.9962580813
21
210.9550169652
31
0.0000000000
11
293.0524671700
21
210.8507461324
31
0.0000000000
0
SPLINE
5
5C8
100
AcDbEntity
8
0
100
AcDbSpline
62
7
6
CONTINUOUS
70
0
71
3
72
9
73
5
74
3
42
0.0000001000
43
0.0000001000
44
0.0000000001
12
0.7872741332
22
0.1848507935
32
0.0000000000
13
0.8078411968
23
-0.0000000271
33
0.0000000000
40
0.0000000000
40
0.0000000000
40
0.0000000000
40
0.0000000000
40
0.3547016514
40
1.0000000000
40
1.0000000000
40
1.0000000000
40
1.0000000000
10
286.8821458169
20
216.2275998944
30
0.0000000000
10
286.9752282953
20
216.2494555216
30
0.0000000000
10
287.2407985449
20
216.2978229576
30
0.0000000000
10
287.5105260513
20
216.3144418254
30
0.0000000000
10
287.6842922481
20
216.3144418196
30
0.0000000000
11
286.8821458169
21
216.2275998944
31
0.0000000000
11
287.1641477456
21
216.2797731495
31
0.0000000000
11
287.6842922481
21
216.3144418196
31
0.0000000000
0
SPLINE
5
5C9
100
AcDbEntity
8
0
100
AcDbSpline
62
7
6
CONTINUOUS
70
0
71
3
72
10
73
6
74
4
42
0.0000001000
43
0.0000001000
44
0.0000000001
12
0.2294955398
22
0.7429106006
32
0.0000000000
13
0.6730855962
23
0.3853141554
33
0.0000000000
40
0.0000000000
40
0.0000000000
40
0.0000000000
40
0.0000000000
40
0.1818275261
40
0.5700160209
40
1.0000000000
40
1.0000000000
40
1.0000000000
40
1.0000000000
10
286.2897464501
20
215.5572190193
30
0.0000000000
10
286.3036559855
20
215.6022462182
30
0.0000000000
10
286.3588639472
20
215.7398123338
30
0.0000000000
10
286.5161320756
20
215.9498833595
30
0.0000000000
10
286.6885220855
20
216.0757250160
30
0.0000000000
10
286.7849940932
20
216.1309513206
30
0.0000000000
11
286.2897464501
21
215.5572190193
31
0.0000000000
11
286.3423812869
21
215.6881962788
31
0.0000000000
11
286.5194002553
21
215.9307409048
31
0.0000000000
11
286.7849940932
21
216.1309513206
31
0.0000000000
0
SPLINE
5
5CA
100
AcDbEntity
8
0
100
AcDbSpline
62
7
6
CONTINUOUS
70
0
71
3
72
8
73
4
74
2
42
0.0000001000
43
0.0000001000
44
0.0000000001
12
0.1107568388
22
0.0634037900
32
0.0000000000
13
0.1154099335
23
0.0541948592
33
0.0000000000
40
0.0000000000
40
0.0000000000
40
0.0000000000
40
0.0000000000
40
1.0000000000
40
1.0000000000
40
1.0000000000
40
1.0000000000
10
286.7849940932
20
216.1309513206
30
0.0000000000
10
286.8219130394
20
216.1520859173
30
0.0000000000
10
286.8596922199
20
216.1716229006
30
0.0000000000
10
286.8981621977
20
216.1896878537
30
0.0000000000
11
286.7849940932
21
216.1309513206
31
0.0000000000
11
286.8981621977
21
216.1896878537
31
0.0000000000
0
SPLINE
5
5CB
100
AcDbEntity
8
0
100
AcDbSpline
62
7
6
CONTINUOUS
70
0
71
3
72
8
73
4
74
2
42
0.0000001000
43
0.0000001000
44
0.0000000001
12
0.1996860324
22
0.0937697135
32
0.0000000000
13
0.2094613462
23
0.0692802554
33
0.0000000000
40
0.0000000000
40
0.0000000000
40
0.0000000000
40
0.0000000000
40
1.0000000000
40
1.0000000000
40
1.0000000000
40
1.0000000000
10
286.8981621977
20
216.1896878537
30
0.0000000000
10
286.9647242085
20
216.2209444248
30
0.0000000000
10
287.0333542630
20
216.2477941717
30
0.0000000000
10
287.1031747117
20
216.2708875902
30
0.0000000000
11
286.8981621977
21
216.1896878537
31
0.0000000000
11
287.1031747117
21
216.2708875902
31
0.0000000000
0
SPLINE
5
5CC
100
AcDbEntity
8
0
100
AcDbSpline
62
7
6
CONTINUOUS
70
0
71
3
72
10
73
6
74
4
42
0.0000001000
43
0.0000001000
44
0.0000000001
12
0.2294955398
22
0.7429106006
32
0.0000000000
13
0.6730855962
23
0.3853141554
33
0.0000000000
40
0.0000000000
40
0.0000000000
40
0.0000000000
40
0.0000000000
40
0.1818275261
40
0.5700160209
40
1.0000000000
40
1.0000000000
40
1.0000000000
40
1.0000000000
10
292.1007898561
20
203.7155507934
30
0.0000000000
10
292.1146993915
20
203.7605779923
30
0.0000000000
10
292.1699073532
20
203.8981441079
30
0.0000000000
10
292.3271754816
20
204.1082151336
30
0.0000000000
10
292.4995654915
20
204.2340567901
30
0.0000000000
10
292.5960374991
20
204.2892830947
30
0.0000000000
11
292.1007898561
21
203.7155507934
31
0.0000000000
11
292.1534246929
21
203.8465280529
31
0.0000000000
11
292.3304436612
21
204.0890726789
31
0.0000000000
11
292.5960374991
21
204.2892830947
31
0.0000000000
0
SPLINE
5
5CD
100
AcDbEntity
8
0
100
AcDbSpline
62
7
6
CONTINUOUS
70
0
71
3
72
8
73
4
74
2
42
0.0000001000
43
0.0000001000
44
0.0000000001
12
0.1107568388
22
0.0634037900
32
0.0000000000
13
0.1154099335
23
0.0541948592
33
0.0000000000
40
0.0000000000
40
0.0000000000
40
0.0000000000
40
0.0000000000
40
1.0000000000
40
1.0000000000
40
1.0000000000
40
1.0000000000
10
292.5960374991
20
204.2892830947
30
0.0000000000
10
292.6329564454
20
204.3104176914
30
0.0000000000
10
292.6707356258
20
204.3299546747
30
0.0000000000
10
292.7092056037
20
204.3480196278
30
0.0000000000
11
292.5960374991
21
204.2892830947
31
0.0000000000
11
292.7092056037
21
204.3480196278
31
0.0000000000
0
SPLINE
5
5CE
100
AcDbEntity
8
0
100
AcDbSpline
62
7
6
CONTINUOUS
70
0
71
3
72
8
73
4
74
2
42
0.0000001000
43
0.0000001000
44
0.0000000001
12
0.1996860324
22
0.0937697135
32
0.0000000000
13
0.2094613462
23
0.0692802554
33
0.0000000000
40
0.0000000000
40
0.0000000000
40
0.0000000000
40
0.0000000000
40
1.0000000000
40
1.0000000000
40
1.0000000000
40
1.0000000000
10
292.7092056037
20
204.3480196278
30
0.0000000000
10
292.7757676145
20
204.3792761990
30
0.0000000000
10
292.8443976690
20
204.4061259458
30
0.0000000000
10
292.9142181177
20
204.4292193643
30
0.0000000000
11
292.7092056037
21
204.3480196278
31
0.0000000000
11
292.9142181177
21
204.4292193643
31
0.0000000000
0
SPLINE
5
5CF
100
AcDbEntity
8
0
100
AcDbSpline
62
7
6
CONTINUOUS
70
0
71
3
72
10
73
6
74
4
42
0.0000001000
43
0.0000001000
44
0.0000000001
12
0.2264090362
22
0.7342480684
32
0.0000000000
13
0.6625590962
23
0.3849174788
33
0.0000000000
40
0.0000000000
40
0.0000000000
40
0.0000000000
40
0.0000000000
40
0.1742094687
40
0.5696057296
40
1.0000000000
40
1.0000000000
40
1.0000000000
40
1.0000000000
10
288.2267169067
20
211.6097995640
30
0.0000000000
10
288.2398644394
20
211.6524372193
30
0.0000000000
10
288.2936884441
20
211.7884871201
30
0.0000000000
10
288.4476620033
20
211.9972351716
30
0.0000000000
10
288.6187684250
20
212.1237893493
30
0.0000000000
10
288.7138223046
20
212.1790114418
30
0.0000000000
11
288.2267169067
21
211.6097995640
31
0.0000000000
11
288.2759568801
21
211.7340530108
31
0.0000000000
11
288.4523506368
21
211.9794229529
31
0.0000000000
11
288.7138223046
21
212.1790114418
31
0.0000000000
0
SPLINE
5
5D0
100
AcDbEntity
8
0
100
AcDbSpline
62
7
6
CONTINUOUS
70
0
71
3
72
8
73
4
74
2
42
0.0000001000
43
0.0000001000
44
0.0000000001
12
0.1177715284
22
0.0684200399
32
0.0000000000
13
0.1231506723
23
0.0578954809
33
0.0000000000
40
0.0000000000
40
0.0000000000
40
0.0000000000
40
0.0000000000
40
1.0000000000
40
1.0000000000
40
1.0000000000
40
1.0000000000
10
288.7138223046
20
212.1790114418
30
0.0000000000
10
288.7530794807
20
212.2018181217
30
0.0000000000
10
288.7933387150
20
212.2227934510
30
0.0000000000
10
288.8343889391
20
212.2420919446
30
0.0000000000
11
288.7138223046
21
212.1790114418
31
0.0000000000
11
288.8343889391
21
212.2420919446
31
0.0000000000
0
SPLINE
5
5D1
100
AcDbEntity
8
0
100
AcDbSpline
62
7
6
CONTINUOUS
70
0
71
3
72
8
73
4
74
2
42
0.0000001000
43
0.0000001000
44
0.0000000001
12
0.1975864010
22
0.0928891372
32
0.0000000000
13
0.2071881451
23
0.0689046702
33
0.0000000000
40
0.0000000000
40
0.0000000000
40
0.0000000000
40
0.0000000000
40
1.0000000000
40
1.0000000000
40
1.0000000000
40
1.0000000000
10
288.8343889391
20
212.2420919446
30
0.0000000000
10
288.9002510727
20
212.2730549903
30
0.0000000000
10
288.9681493641
20
212.2997015433
30
0.0000000000
10
289.0372120791
20
212.3226697667
30
0.0000000000
11
288.8343889391
21
212.2420919446
31
0.0000000000
11
289.0372120791
21
212.3226697667
31
0.0000000000
0
SPLINE
5
5D2
100
AcDbEntity
8
0
100
AcDbSpline
62
7
6
CONTINUOUS
70
0
71
3
72
10
73
6
74
4
42
0.0000001000
43
0.0000001000
44
0.0000000001
12
0.2264090362
22
0.7342480684
32
0.0000000000
13
0.6625590962
23
0.3849174788
33
0.0000000000
40
0.0000000000
40
0.0000000000
40
0.0000000000
40
0.0000000000
40
0.1742094687
40
0.5696057296
40
1.0000000000
40
1.0000000000
40
1.0000000000
40
1.0000000000
10
290.1637313754
20
207.6625768220
30
0.0000000000
10
290.1768789080
20
207.7052144773
30
0.0000000000
10
290.2307029127
20
207.8412643781
30
0.0000000000
10
290.3846764719
20
208.0500124297
30
0.0000000000
10
290.5557828936
20
208.1765666073
30
0.0000000000
10
290.6508367732
20
208.2317886998
30
0.0000000000
11
290.1637313754
21
207.6625768220
31
0.0000000000
11
290.2129713488
21
207.7868302688
31
0.0000000000
11
290.3893651054
21
208.0322002110
31
0.0000000000
11
290.6508367732
21
208.2317886998
31
0.0000000000
0
SPLINE
5
5D3
100
AcDbEntity
8
0
100
AcDbSpline
62
7
6
CONTINUOUS
70
0
71
3
72
8
73
4
74
2
42
0.0000001000
43
0.0000001000
44
0.0000000001
12
0.1177715284
22
0.0684200399
32
0.0000000000
13
0.1231506723
23
0.0578954809
33
0.0000000000
40
0.0000000000
40
0.0000000000
40
0.0000000000
40
0.0000000000
40
1.0000000000
40
1.0000000000
40
1.0000000000
40
1.0000000000
10
290.6508367732
20
208.2317886998
30
0.0000000000
10
290.6900939493
20
208.2545953798
30
0.0000000000
10
290.7303531836
20
208.2755707090
30
0.0000000000
10
290.7714034077
20
208.2948692026
30
0.0000000000
11
290.6508367732
21
208.2317886998
31
0.0000000000
11
290.7714034077
21
208.2948692026
31
0.0000000000
0
SPLINE
5
5D4
100
AcDbEntity
8
0
100
AcDbSpline
62
7
6
CONTINUOUS
70
0
71
3
72
8
73
4
74
2
42
0.0000001000
43
0.0000001000
44
0.0000000001
12
0.1975864010
22
0.0928891372
32
0.0000000000
13
0.2071881451
23
0.0689046702
33
0.0000000000
40
0.0000000000
40
0.0000000000
40
0.0000000000
40
0.0000000000
40
1.0000000000
40
1.0000000000
40
1.0000000000
40
1.0000000000
10
290.7714034077
20
208.2948692026
30
0.0000000000
10
290.8372655414
20
208.3258322484
30
0.0000000000
10
290.9051638327
20
208.3524788014
30
0.0000000000
10
290.9742265478
20
208.3754470248
30
0.0000000000
11
290.7714034077
21
208.2948692026
31
0.0000000000
11
290.9742265478
21
208.3754470248
31
0.0000000000
0
SPLINE
5
5D5
100
AcDbEntity
8
0
100
AcDbSpline
62
7
6
CONTINUOUS
70
0
71
3
72
10
73
6
74
4
42
0.0000001000
43
0.0000001000
44
0.0000000001
12
-0.1320429362
22
0.2675184399
32
0.0000000000
13
-0.2950992671
23
0.0000000000
33
0.0000000000
40
0.0000000000
40
0.0000000000
40
0.0000000000
40
0.0000000000
40
0.2240833400
40
0.5890689065
40
1.0000000000
40
1.0000000000
40
1.0000000000
40
1.0000000000
10
300.1416324346
20
222.4620908122
30
0.0000000000
10
300.1317695606
20
222.4820729541
30
0.0000000000
10
300.0971917691
20
222.5304098161
30
0.0000000000
10
300.0095010407
20
222.5817975707
30
0.0000000000
10
299.9322879721
20
222.5928914391
30
0.0000000000
10
299.8918661506
20
222.5928914391
30
0.0000000000
11
300.1416324346
21
222.4620908122
31
0.0000000000
11
300.1029912931
21
222.5162336381
31
0.0000000000
11
300.0115004729
21
222.5730686792
31
0.0000000000
11
299.8918661506
21
222.5928914391
31
0.0000000000
0
SPLINE
5
5D6
100
AcDbEntity
8
0
100
AcDbSpline
62
7
6
CONTINUOUS
70
0
71
3
72
12
73
8
74
6
42
0.0000001000
43
0.0000001000
44
0.0000000001
12
0.1542764463
22
-0.3101206630
32
0.0000000000
13
0.2220010750
23
0.2589469302
33
0.0000000000
40
0.0000000000
40
0.0000000000
40
0.0000000000
40
0.0000000000
40
0.1173830471
40
0.3088128617
40
0.5291077638
40
0.7667251281
40
1.0000000000
40
1.0000000000
40
1.0000000000
40
1.0000000000
10
298.2004457445
20
208.8531225690
30
0.0000000000
10
298.2064822243
20
208.8409882662
30
0.0000000000
10
298.2290012004
20
208.8122005206
30
0.0000000000
10
298.2871543951
20
208.7882165689
30
0.0000000000
10
298.3625197795
20
208.7904472104
30
0.0000000000
10
298.4372511136
20
208.8185264682
30
0.0000000000
10
298.4800199544
20
208.8527210319
30
0.0000000000
10
298.4972823785
20
208.8728563025
30
0.0000000000
11
298.2004457445
21
208.8531225690
31
0.0000000000
11
298.2252519308
21
208.8212400656
31
0.0000000000
11
298.2845298188
21
208.7938652390
31
0.0000000000
11
298.3596673551
21
208.7943290661
31
0.0000000000
11
298.4356468621
21
208.8225388421
31
0.0000000000
11
298.4972823785
21
208.8728563025
31
0.0000000000
0
SPLINE
5
5D7
100
AcDbEntity
8
0
100
AcDbSpline
62
7
6
CONTINUOUS
70
0
71
3
72
13
73
9
74
7
42
0.0000001000
43
0.0000001000
44
0.0000000001
12
0.1887148502
22
-0.3707522176
32
0.0000000000
13
0.1208897372
23
0.3911996964
33
0.0000000000
40
0.0000000000
40
0.0000000000
40
0.0000000000
40
0.0000000000
40
0.0905850252
40
0.2493007694
40
0.4321113918
40
0.6298509713
40
0.8245797334
40
1.0000000000
40
1.0000000000
40
1.0000000000
40
1.0000000000
10
287.3376065604
20
208.8523251042
30
0.0000000000
10
287.3433048069
20
208.8411302379
30
0.0000000000
10
287.3650036402
20
208.8129858796
30
0.0000000000
10
287.4215942468
20
208.7886412543
30
0.0000000000
10
287.4967893046
20
208.7899195190
30
0.0000000000
10
287.5718125673
20
208.8173621807
30
0.0000000000
10
287.6339383054
20
208.8657378564
30
0.0000000000
10
287.6613314466
20
208.9102748312
30
0.0000000000
10
287.6684002833
20
208.9331496162
30
0.0000000000
11
287.3376065604
21
208.8523251042
31
0.0000000000
11
287.3605193765
21
208.8225388421
31
0.0000000000
11
287.4190639395
21
208.7943290661
31
0.0000000000
11
287.4939148092
21
208.7938652390
31
0.0000000000
11
287.5701116040
21
208.8212400656
31
0.0000000000
11
287.6324249333
21
208.8709821620
31
0.0000000000
11
287.6684002833
21
208.9331496162
31
0.0000000000
0
SPLINE
5
5D8
100
AcDbEntity
8
0
100
AcDbSpline
62
7
6
CONTINUOUS
70
0
71
3
72
9
73
5
74
3
42
0.0000001000
43
0.0000001000
44
0.0000000001
12
-0.0633309471
22
0.1291806120
32
0.0000000000
13
0.0419307432
23
0.1356880606
33
0.0000000000
40
0.0000000000
40
0.0000000000
40
0.0000000000
40
0.0000000000
40
0.3279493772
40
1.0000000000
40
1.0000000000
40
1.0000000000
40
1.0000000000
10
297.5394787310
20
222.4784477591
30
0.0000000000
10
297.5325556161
20
222.4925693262
30
0.0000000000
10
297.5172899708
20
222.5385478121
30
0.0000000000
10
297.5225033166
20
222.5878650048
30
0.0000000000
10
297.5318965106
20
222.6182614201
30
0.0000000000
11
297.5394787310
21
222.4784477591
31
0.0000000000
11
297.5247454301
21
222.5230856384
31
0.0000000000
11
297.5318965106
21
222.6182614201
31
0.0000000000
0
SPLINE
5
5D9
100
AcDbEntity
8
0
100
AcDbSpline
62
7
6
CONTINUOUS
70
0
71
3
72
14
73
10
74
8
42
0.0000001000
43
0.0000001000
44
0.0000000001
12
0.3195649347
22
-0.6518391992
32
0.0000000000
13
0.2115805276
23
0.6846754740
33
0.0000000000
40
0.0000000000
40
0.0000000000
40
0.0000000000
40
0.0000000000
40
0.0597355919
40
0.1922937237
40
0.3426335907
40
0.5090716116
40
0.6819387134
40
0.8488772939
40
1.0000000000
40
1.0000000000
40
1.0000000000
40
1.0000000000
10
299.0890903059
20
219.3206695656
30
0.0000000000
10
299.0954534394
20
219.3076902321
30
0.0000000000
10
299.1211492835
20
219.2685112885
30
0.0000000000
10
299.1927352667
20
219.2222019598
30
0.0000000000
10
299.3011435323
20
219.2056231645
30
0.0000000000
10
299.4181057869
20
219.2257117191
30
0.0000000000
10
299.5283676827
20
219.2791010423
30
0.0000000000
10
299.6170100303
20
219.3582014486
30
0.0000000000
10
299.6557236692
20
219.4259932230
30
0.0000000000
10
299.6663818765
20
219.4604832265
30
0.0000000000
11
299.0890903059
21
219.3206695656
31
0.0000000000
11
299.1128154781
21
219.2846213132
31
0.0000000000
11
299.1910285508
21
219.2307085636
31
0.0000000000
11
299.2970889919
21
219.2117769236
31
0.0000000000
11
299.4148500607
21
219.2307085636
31
0.0000000000
11
299.5263837018
21
219.2846213132
31
0.0000000000
11
299.6147099296
21
219.3653074448
31
0.0000000000
11
299.6663818765
21
219.4604832265
31
0.0000000000
0
SPLINE
5
5DA
100
AcDbEntity
8
0
100
AcDbSpline
62
7
6
CONTINUOUS
70
0
71
3
72
15
73
11
74
9
42
0.0000001000
43
0.0000001000
44
0.0000000001
12
-6.0487693460
22
0.0000000000
32
0.0000000000
13
-1.7858817360
23
-5.7791207832
33
0.0000000000
40
0.0000000000
40
0.0000000000
40
0.0000000000
40
0.0000000000
40
0.1242659807
40
0.2531385516
40
0.3844918748
40
0.5159468934
40
0.6451144195
40
0.7698378779
40
0.8884434023
40
1.0000000000
40
1.0000000000
40
1.0000000000
40
1.0000000000
10
287.9488042719
20
229.7011001850
30
0.0000000000
10
287.6982521870
20
229.7011001850
30
0.0000000000
10
287.1871410330
20
229.6575884869
30
0.0000000000
10
286.4309772000
20
229.4752159958
30
0.0000000000
10
285.6950831674
20
229.1813136998
30
0.0000000000
10
285.0071814348
20
228.7869063815
30
0.0000000000
10
284.3928974226
20
228.3066890759
30
0.0000000000
10
283.8752229229
20
227.7582150519
30
0.0000000000
10
283.4738158861
20
227.1618558888
30
0.0000000000
10
283.2882643126
20
226.7325591922
30
0.0000000000
10
283.2218553491
20
226.5176595081
30
0.0000000000
11
287.9488042719
21
229.7011001850
31
0.0000000000
11
287.1996410797
21
229.6399312651
31
0.0000000000
11
286.4414625921
21
229.4587751925
31
0.0000000000
11
285.7034051831
21
229.1645936935
31
0.0000000000
11
285.0138319852
21
228.7686919983
31
0.0000000000
11
284.3992429094
21
228.2862843868
31
0.0000000000
11
283.8832562695
21
227.7359095131
31
0.0000000000
11
283.4857011425
21
227.1387179749
31
0.0000000000
11
283.2218553491
21
226.5176595081
31
0.0000000000
0
SPLINE
5
5DB
100
AcDbEntity
8
0
100
AcDbSpline
62
7
6
CONTINUOUS
70
0
71
3
72
22
73
18
74
16
42
0.0000001000
43
0.0000001000
44
0.0000000001
12
-3.7073955655
22
7.5548821790
32
0.0000000000
13
-2.4892223278
23
-8.0776808305
33
0.0000000000
40
0.0000000000
40
0.0000000000
40
0.0000000000
40
0.0000000000
40
0.0610640102
40
0.1286788707
40
0.2023207828
40
0.2808568750
40
0.3627442458
40
0.4461911950
40
0.5292974458
40
0.6101860850
40
0.6871372318
40
0.7587340621
40
0.8240354621
40
0.8827923724
40
0.9357079893
40
0.9846511725
40
1.0000000000
40
1.0000000000
40
1.0000000000
40
1.0000000000
10
298.7733444700
20
235.8882633592
30
0.0000000000
10
298.6978816564
20
236.0420404934
30
0.0000000000
10
298.5011895918
20
236.3480975469
30
0.0000000000
10
298.1139770269
20
236.7659605911
30
0.0000000000
10
297.6323619735
20
237.1539786017
30
0.0000000000
10
297.0722468081
20
237.4994881903
30
0.0000000000
10
296.4520196976
20
237.7913365515
30
0.0000000000
10
295.7922627619
20
238.0198280469
30
0.0000000000
10
295.1149245481
20
238.1773702836
30
0.0000000000
10
294.4425256600
20
238.2587200488
30
0.0000000000
10
293.7972944406
20
238.2611574490
30
0.0000000000
10
293.2003077612
20
238.1844598616
30
0.0000000000
10
292.6707100581
20
238.0306084656
30
0.0000000000
10
292.2253277567
20
237.8031297520
30
0.0000000000
10
291.8794091890
20
237.5063453357
30
0.0000000000
10
291.6990837701
20
237.2249375314
30
0.0000000000
10
291.6368567027
20
237.0546163852
30
0.0000000000
10
291.6241211547
20
237.0132887420
30
0.0000000000
11
298.7733444700
21
235.8882633592
31
0.0000000000
11
298.5000376588
21
236.3234435245
31
0.0000000000
11
298.1165349305
21
236.7438041512
31
0.0000000000
11
297.6358960104
21
237.1350303624
31
0.0000000000
11
297.0744884805
21
237.4837994186
31
0.0000000000
11
296.4514304010
21
237.7782344080
31
0.0000000000
11
295.7879392674
21
238.0083087000
31
0.0000000000
11
295.1066094746
21
238.1661873907
31
0.0000000000
11
294.4306428915
21
238.2464941105
31
0.0000000000
11
293.7830587492
21
238.2464941105
31
0.0000000000
11
293.1859097492
21
238.1661873907
31
0.0000000000
11
292.6595310843
21
238.0083087000
31
0.0000000000
11
292.2218479488
21
237.7782344080
31
0.0000000000
11
291.8877651168
21
237.4837994186
31
0.0000000000
11
291.6686593785
21
237.1350303624
31
0.0000000000
11
291.6241211547
21
237.0132887420
31
0.0000000000
0
SPLINE
5
5DC
100
AcDbEntity
8
0
100
AcDbSpline
62
7
6
CONTINUOUS
70
0
71
3
72
9
73
5
74
3
42
0.0000001000
43
0.0000001000
44
0.0000000001
12
-0.0633309471
22
0.1291806120
32
0.0000000000
13
0.0419307432
23
0.1356880606
33
0.0000000000
40
0.0000000000
40
0.0000000000
40
0.0000000000
40
0.0000000000
40
0.3279493772
40
1.0000000000
40
1.0000000000
40
1.0000000000
40
1.0000000000
10
282.4497349239
20
222.4784477591
30
0.0000000000
10
282.4428118090
20
222.4925693262
30
0.0000000000
10
282.4275461637
20
222.5385478121
30
0.0000000000
10
282.4327595096
20
222.5878650048
30
0.0000000000
10
282.4421527036
20
222.6182614201
30
0.0000000000
11
282.4497349239
21
222.4784477591
31
0.0000000000
11
282.4350016231
21
222.5230856384
31
0.0000000000
11
282.4421527036
21
222.6182614201
31
0.0000000000
0
SPLINE
5
5DD
100
AcDbEntity
8
0
100
AcDbSpline
62
7
6
CONTINUOUS
70
0
71
3
72
11
73
7
74
5
42
0.0000001000
43
0.0000001000
44
0.0000000001
12
-0.2178275939
22
0.4448583815
32
0.0000000000
13
-0.4924151472
23
0.0000000000
33
0.0000000000
40
0.0000000000
40
0.0000000000
40
0.0000000000
40
0.0000000000
40
0.0283702760
40
0.3241172481
40
0.6447809706
40
1.0000000000
40
1.0000000000
40
1.0000000000
40
1.0000000000
10
304.0167660973
20
213.8442448494
30
0.0000000000
10
304.0147061543
20
213.8484517677
30
0.0000000000
10
303.9901319744
20
213.8959951401
30
0.0000000000
10
303.9176381348
20
213.9776684011
30
0.0000000000
10
303.7706459142
20
214.0477182645
30
0.0000000000
10
303.6588078186
20
214.0617658994
30
0.0000000000
10
303.6005027417
20
214.0617658994
30
0.0000000000
11
304.0167660973
21
213.8442448494
31
0.0000000000
11
304.0103132339
21
213.8567250876
31
0.0000000000
11
303.9149265549
21
213.9667685449
31
0.0000000000
11
303.7737154830
21
214.0374207936
31
0.0000000000
11
303.6005027417
21
214.0617658994
31
0.0000000000
0
SPLINE
5
5DE
100
AcDbEntity
8
0
100
AcDbSpline
62
7
6
CONTINUOUS
70
0
71
3
72
14
73
10
74
8
42
0.0000001000
43
0.0000001000
44
0.0000000001
12
0.3195649347
22
-0.6518391992
32
0.0000000000
13
0.2115805276
23
0.6846754740
33
0.0000000000
40
0.0000000000
40
0.0000000000
40
0.0000000000
40
0.0000000000
40
0.0597355919
40
0.1922937237
40
0.3426335907
40
0.5090716116
40
0.6819387134
40
0.8488772939
40
1.0000000000
40
1.0000000000
40
1.0000000000
40
1.0000000000
10
304.4352502394
20
208.4263347978
30
0.0000000000
10
304.4416133729
20
208.4133554643
30
0.0000000000
10
304.4673092170
20
208.3741765207
30
0.0000000000
10
304.5388952002
20
208.3278671920
30
0.0000000000
10
304.6473034658
20
208.3112883967
30
0.0000000000
10
304.7642657204
20
208.3313769513
30
0.0000000000
10
304.8745276162
20
208.3847662744
30
0.0000000000
10
304.9631699638
20
208.4638666808
30
0.0000000000
10
305.0018836027
20
208.5316584552
30
0.0000000000
10
305.0125418100
20
208.5661484587
30
0.0000000000
11
304.4352502394
21
208.4263347978
31
0.0000000000
11
304.4589754116
21
208.3902865454
31
0.0000000000
11
304.5371884843
21
208.3363737958
31
0.0000000000
11
304.6432489254
21
208.3174421558
31
0.0000000000
11
304.7610099942
21
208.3363737958
31
0.0000000000
11
304.8725436353
21
208.3902865454
31
0.0000000000
11
304.9608698631
21
208.4709726770
31
0.0000000000
11
305.0125418100
21
208.5661484587
31
0.0000000000
0
SPLINE
5
5DF
100
AcDbEntity
8
0
100
AcDbSpline
62
7
6
CONTINUOUS
70
0
71
3
72
9
73
5
74
3
42
0.0000001000
43
0.0000001000
44
0.0000000001
12
0.1013382882
22
-0.2066865643
32
0.0000000000
13
-0.0670883165
23
-0.2170980734
33
0.0000000000
40
0.0000000000
40
0.0000000000
40
0.0000000000
40
0.0000000000
40
0.3279406366
40
1.0000000000
40
1.0000000000
40
1.0000000000
40
1.0000000000
10
303.2501982604
20
213.1911567990
30
0.0000000000
10
303.2612759080
20
213.1685631578
30
0.0000000000
10
303.2857134546
20
213.0949993696
30
0.0000000000
10
303.2773655001
20
213.0160924310
30
0.0000000000
10
303.2623363897
20
212.9674581667
30
0.0000000000
11
303.2501982604
21
213.1911567990
31
0.0000000000
11
303.2737781185
21
213.1197394173
31
0.0000000000
11
303.2623363897
21
212.9674581667
31
0.0000000000
0
SPLINE
5
5E0
100
AcDbEntity
8
0
100
AcDbSpline
62
7
6
CONTINUOUS
70
0
71
3
72
11
73
7
74
5
42
0.0000001000
43
0.0000001000
44
0.0000000001
12
0.8096094180
22
-1.6494434533
32
0.0000000000
13
-0.5409332833
23
-1.7504623722
33
0.0000000000
40
0.0000000000
40
0.0000000000
40
0.0000000000
40
0.0000000000
40
0.0130689774
40
0.3284268633
40
0.6547503510
40
1.0000000000
40
1.0000000000
40
1.0000000000
40
1.0000000000
10
305.7674339356
20
211.7295657497
30
0.0000000000
10
305.7709608580
20
211.7223802367
30
0.0000000000
10
305.8585552085
20
211.5412977616
30
0.0000000000
10
305.9807143587
20
211.1552877009
30
0.0000000000
10
306.0059791406
20
210.5468310344
30
0.0000000000
10
305.9244384756
20
210.1407728317
30
0.0000000000
10
305.8621861336
20
209.9393239918
30
0.0000000000
11
305.7674339356
21
211.7295657497
31
0.0000000000
11
305.7778904075
21
211.7079488705
31
0.0000000000
11
305.9537199641
21
211.1575739968
31
0.0000000000
11
305.9821831475
21
210.5603824586
31
0.0000000000
11
305.8621861336
21
209.9393239918
31
0.0000000000
0
SPLINE
5
5E1
100
AcDbEntity
8
0
100
AcDbSpline
62
7
6
CONTINUOUS
70
0
71
3
72
12
73
8
74
6
42
0.0000001000
43
0.0000001000
44
0.0000000001
12
-1.3976542650
22
2.8474862397
32
0.0000000000
13
-3.1628765042
23
0.0000000000
33
0.0000000000
40
0.0000000000
40
0.0000000000
40
0.0000000000
40
0.0000000000
40
0.1748370400
40
0.3631264196
40
0.5620724914
40
0.7742614812
40
1.0000000000
40
1.0000000000
40
1.0000000000
40
1.0000000000
10
297.6319731672
20
228.3079012660
30
0.0000000000
10
297.5505192556
20
228.4738499545
30
0.0000000000
10
297.3355809529
20
228.7960945163
30
0.0000000000
10
296.8856838948
20
229.1916290628
30
0.0000000000
10
296.3200504837
20
229.4855405186
30
0.0000000000
10
295.6682486213
20
229.6637032406
30
0.0000000000
10
295.2052841159
20
229.7011001850
30
0.0000000000
10
294.9672897635
20
229.7011001850
30
0.0000000000
11
297.6319731672
21
228.3079012660
31
0.0000000000
11
297.3259907406
21
228.7686919983
31
0.0000000000
11
296.8811030695
21
229.1645936935
31
0.0000000000
11
296.3248634096
21
229.4587751925
31
0.0000000000
11
295.6786477390
21
229.6399312651
31
0.0000000000
11
294.9672897635
21
229.7011001850
31
0.0000000000
0
SPLINE
5
5E2
100
AcDbEntity
8
0
100
AcDbSpline
62
7
6
CONTINUOUS
70
0
71
3
72
10
73
6
74
4
42
0.0000001000
43
0.0000001000
44
0.0000000001
12
0.3421535890
22
1.1103096160
32
0.0000000000
13
-0.5095963846
23
1.0384488453
33
0.0000000000
40
0.0000000000
40
0.0000000000
40
0.0000000000
40
0.0000000000
40
0.2367185281
40
0.6009848574
40
1.0000000000
40
1.0000000000
40
1.0000000000
40
1.0000000000
10
304.7151256997
20
222.9215697505
30
0.0000000000
10
304.7421237310
20
223.0091800365
30
0.0000000000
10
304.7864755353
20
223.2392031051
30
0.0000000000
10
304.7550833218
20
223.6291252578
30
0.0000000000
10
304.6521667673
20
223.9084761953
30
0.0000000000
10
304.5843878760
20
224.0465951333
30
0.0000000000
11
304.7151256997
21
222.9215697505
31
0.0000000000
11
304.7672547373
21
223.1910543412
31
0.0000000000
11
304.7381916344
21
223.6114149680
31
0.0000000000
11
304.5843878760
21
224.0465951333
31
0.0000000000
0
SPLINE
5
5E3
100
AcDbEntity
8
0
100
AcDbSpline
62
7
6
CONTINUOUS
70
0
71
3
72
11
73
7
74
5
42
0.0000001000
43
0.0000001000
44
0.0000000001
12
0.5409332833
22
1.7504623722
32
0.0000000000
13
-0.8096094180
23
1.6494434533
33
0.0000000000
40
0.0000000000
40
0.0000000000
40
0.0000000000
40
0.0000000000
40
0.3452496490
40
0.6715731367
40
0.9869310226
40
1.0000000000
40
1.0000000000
40
1.0000000000
40
1.0000000000
10
298.0366476802
20
225.8861038694
30
0.0000000000
10
298.0989000222
20
226.0875527092
30
0.0000000000
10
298.1804406872
20
226.4936109119
30
0.0000000000
10
298.1551759053
20
227.1020675784
30
0.0000000000
10
298.0330167551
20
227.4880776392
30
0.0000000000
10
297.9454224046
20
227.6691601142
30
0.0000000000
10
297.9418954822
20
227.6763456273
30
0.0000000000
11
298.0366476802
21
225.8861038694
31
0.0000000000
11
298.1566446942
21
226.5071623362
31
0.0000000000
11
298.1281815108
21
227.1043538744
31
0.0000000000
11
297.9523519541
21
227.6547287481
31
0.0000000000
11
297.9418954822
21
227.6763456273
31
0.0000000000
0
SPLINE
5
5E4
100
AcDbEntity
8
0
100
AcDbSpline
62
7
6
CONTINUOUS
70
0
71
3
72
10
73
6
74
4
42
0.0000001000
43
0.0000001000
44
0.0000000001
12
1.6053771560
22
-0.6623571271
32
0.0000000000
13
0.7658489740
23
-1.5602888853
33
0.0000000000
40
0.0000000000
40
0.0000000000
40
0.0000000000
40
0.0000000000
40
0.3373038206
40
0.6809269935
40
1.0000000000
40
1.0000000000
40
1.0000000000
40
1.0000000000
10
304.1918895495
20
213.4952354270
30
0.0000000000
10
304.3723894989
20
213.4207635638
30
0.0000000000
10
304.7225238742
20
213.2349132591
30
0.0000000000
10
305.1611194063
20
212.8493146387
30
0.0000000000
10
305.3760577090
20
212.5270700770
30
0.0000000000
10
305.4575116206
20
212.3611213885
30
0.0000000000
11
304.1918895495
21
213.4952354270
31
0.0000000000
11
304.7066415229
21
213.2178138160
31
0.0000000000
11
305.1515291940
21
212.8219121207
31
0.0000000000
11
305.4575116206
21
212.3611213885
31
0.0000000000
0
SPLINE
5
5E5
100
AcDbEntity
8
0
100
AcDbSpline
62
7
6
CONTINUOUS
70
0
71
3
72
11
73
7
74
5
42
0.0000001000
43
0.0000001000
44
0.0000000001
12
0.1669031180
22
0.5400991895
32
0.0000000000
13
0.5652997305
23
0.0000000000
33
0.0000000000
40
0.0000000000
40
0.0000000000
40
0.0000000000
40
0.0000000000
40
0.2298911292
40
0.4838417085
40
0.7468108828
40
1.0000000000
40
1.0000000000
40
1.0000000000
40
1.0000000000
10
301.0994980980
20
209.9091624943
30
0.0000000000
10
301.1122879468
20
209.9505504984
30
0.0000000000
10
301.1587362208
20
210.0319000771
30
0.0000000000
10
301.2651471259
20
210.1268232919
30
0.0000000000
10
301.3973082297
20
210.1908800598
30
0.0000000000
10
301.4949403130
20
210.2076100577
30
0.0000000000
10
301.5426495595
20
210.2076100577
30
0.0000000000
11
301.0994980980
21
209.9091624943
31
0.0000000000
11
301.1615044343
21
210.0233734322
31
0.0000000000
11
301.2674959077
21
210.1201967902
31
0.0000000000
11
301.4013362771
21
210.1848920897
31
0.0000000000
11
301.5426495595
21
210.2076100577
31
0.0000000000
0
SPLINE
5
5E6
100
AcDbEntity
8
0
100
AcDbSpline
62
7
6
CONTINUOUS
70
0
71
3
72
9
73
5
74
3
42
0.0000001000
43
0.0000001000
44
0.0000000001
12
0.0842260166
22
0.2725557427
32
0.0000000000
13
-0.1261949803
23
0.2577216857
33
0.0000000000
40
0.0000000000
40
0.0000000000
40
0.0000000000
40
0.0000000000
40
0.5428603394
40
1.0000000000
40
1.0000000000
40
1.0000000000
40
1.0000000000
10
305.5812761294
20
210.4065751000
30
0.0000000000
10
305.5965171174
20
210.4558950010
30
0.0000000000
10
305.6103144486
20
210.5526326909
30
0.0000000000
10
305.5856072490
20
210.6471950545
30
0.0000000000
10
305.5663776722
20
210.6864666558
30
0.0000000000
11
305.5812761294
21
210.4065751000
31
0.0000000000
11
305.6001499821
21
210.5602840484
31
0.0000000000
11
305.5663776722
21
210.6864666558
31
0.0000000000
0
SPLINE
5
5E7
100
AcDbEntity
8
0
100
AcDbSpline
62
7
6
CONTINUOUS
70
0
71
3
72
9
73
5
74
3
42
0.0000001000
43
0.0000001000
44
0.0000000001
12
-0.0419307432
22
-0.1356880606
32
0.0000000000
13
0.0633309471
23
-0.1291806120
33
0.0000000000
40
0.0000000000
40
0.0000000000
40
0.0000000000
40
0.0000000000
40
0.6720506228
40
1.0000000000
40
1.0000000000
40
1.0000000000
40
1.0000000000
10
302.8780564441
20
211.7239266522
30
0.0000000000
10
302.8686632501
20
211.6935302370
30
0.0000000000
10
302.8634499043
20
211.6442130443
30
0.0000000000
10
302.8787155496
20
211.5982345584
30
0.0000000000
10
302.8856386645
20
211.5841129913
30
0.0000000000
11
302.8780564441
21
211.7239266522
31
0.0000000000
11
302.8709053636
21
211.6287508706
31
0.0000000000
11
302.8856386645
21
211.5841129913
31
0.0000000000
0
SPLINE
5
5E8
100
AcDbEntity
8
0
100
AcDbSpline
62
7
6
CONTINUOUS
70
0
71
3
72
11
73
7
74
5
42
0.0000001000
43
0.0000001000
44
0.0000000001
12
0.4924151472
22
0.0000000000
32
0.0000000000
13
0.2178275939
23
-0.4448583815
33
0.0000000000
40
0.0000000000
40
0.0000000000
40
0.0000000000
40
0.0000000000
40
0.3552190294
40
0.6758827519
40
0.9716297240
40
1.0000000000
40
1.0000000000
40
1.0000000000
40
1.0000000000
10
298.2543428082
20
224.9561006672
30
0.0000000000
10
298.3126478851
20
224.9561006672
30
0.0000000000
10
298.4244859807
20
224.9420530323
30
0.0000000000
10
298.5714782013
20
224.8720031690
30
0.0000000000
10
298.6439720409
20
224.7903299079
30
0.0000000000
10
298.6685462208
20
224.7427865356
30
0.0000000000
10
298.6706061638
20
224.7385796172
30
0.0000000000
11
298.2543428082
21
224.9561006672
31
0.0000000000
11
298.4275555495
21
224.9317555614
31
0.0000000000
11
298.5687666214
21
224.8611033127
31
0.0000000000
11
298.6641533004
21
224.7510598554
31
0.0000000000
11
298.6706061638
21
224.7385796172
31
0.0000000000
0
SPLINE
5
5E9
100
AcDbEntity
8
0
100
AcDbSpline
62
7
6
CONTINUOUS
70
0
71
3
72
9
73
5
74
3
42
0.0000001000
43
0.0000001000
44
0.0000000001
12
0.0670883165
22
0.2170980734
32
0.0000000000
13
-0.1013382882
23
0.2066865643
33
0.0000000000
40
0.0000000000
40
0.0000000000
40
0.0000000000
40
0.0000000000
40
0.6720593634
40
1.0000000000
40
1.0000000000
40
1.0000000000
40
1.0000000000
10
297.9161764562
20
223.8617929345
30
0.0000000000
10
297.9312055666
20
223.9104271988
30
0.0000000000
10
297.9395535211
20
223.9893341374
30
0.0000000000
10
297.9151159745
20
224.0628979256
30
0.0000000000
10
297.9040383269
20
224.0854915668
30
0.0000000000
11
297.9161764562
21
223.8617929345
31
0.0000000000
11
297.9276181850
21
224.0140741851
31
0.0000000000
11
297.9040383269
21
224.0854915668
31
0.0000000000
0
SPLINE
5
5EA
100
AcDbEntity
8
0
100
AcDbSpline
62
7
6
CONTINUOUS
70
0
71
3
72
10
73
6
74
4
42
0.0000001000
43
0.0000001000
44
0.0000000001
12
0.1318551732
22
0.4266838933
32
0.0000000000
13
0.3682606657
23
0.2543848645
33
0.0000000000
40
0.0000000000
40
0.0000000000
40
0.0000000000
40
0.0000000000
40
0.3840793894
40
0.8034967644
40
1.0000000000
40
1.0000000000
40
1.0000000000
40
1.0000000000
10
283.0108870230
20
224.4586880614
30
0.0000000000
10
283.0277679744
20
224.5133148911
30
0.0000000000
10
283.0834370441
20
224.6216779343
30
0.0000000000
10
283.1855304478
20
224.7319494142
30
0.0000000000
10
283.2584378299
20
224.7880702810
30
0.0000000000
10
283.2825593007
20
224.8047327640
30
0.0000000000
11
283.0108870230
21
224.4586880614
31
0.0000000000
11
283.0870123973
21
224.6123970098
31
0.0000000000
11
283.2129376114
21
224.7510598554
31
0.0000000000
11
283.2825593007
21
224.8047327640
31
0.0000000000
0
SPLINE
5
5EB
100
AcDbEntity
8
0
100
AcDbSpline
62
7
6
CONTINUOUS
70
0
71
3
72
9
73
5
74
3
42
0.0000001000
43
0.0000001000
44
0.0000000001
12
0.1597466073
22
0.1103487905
32
0.0000000000
13
0.1800783875
23
0.0724171051
33
0.0000000000
40
0.0000000000
40
0.0000000000
40
0.0000000000
40
0.0000000000
40
0.5639010853
40
1.0000000000
40
1.0000000000
40
1.0000000000
40
1.0000000000
10
283.2825593007
20
224.8047327640
30
0.0000000000
10
283.3125863958
20
224.8254746982
30
0.0000000000
10
283.3682015881
20
224.8588437613
30
0.0000000000
10
283.4270461756
20
224.8859072098
30
0.0000000000
10
283.4532235053
20
224.8964342168
30
0.0000000000
11
283.2825593007
21
224.8047327640
31
0.0000000000
11
283.3763362278
21
224.8611033127
31
0.0000000000
11
283.4532235053
21
224.8964342168
31
0.0000000000
0
SPLINE
5
5EC
100
AcDbEntity
8
0
100
AcDbSpline
62
7
6
CONTINUOUS
70
0
71
3
72
11
73
7
74
5
42
0.0000001000
43
0.0000001000
44
0.0000000001
12
-0.5652997305
22
0.0000000000
32
0.0000000000
13
-0.1669031180
23
-0.5400991895
33
0.0000000000
40
0.0000000000
40
0.0000000000
40
0.0000000000
40
0.0000000000
40
0.2531891172
40
0.5161582915
40
0.7701088708
40
1.0000000000
40
1.0000000000
40
1.0000000000
40
1.0000000000
10
296.1964896260
20
221.1019448255
30
0.0000000000
10
296.1487803795
20
221.1019448255
30
0.0000000000
10
296.0511482962
20
221.0852148276
30
0.0000000000
10
295.9189871924
20
221.0211580597
30
0.0000000000
10
295.8125762873
20
220.9262348450
30
0.0000000000
10
295.7661280133
20
220.8448852663
30
0.0000000000
10
295.7533381645
20
220.8034972621
30
0.0000000000
11
296.1964896260
21
221.1019448255
31
0.0000000000
11
296.0551763436
21
221.0792268575
31
0.0000000000
11
295.9213359742
21
221.0145315580
31
0.0000000000
11
295.8153445008
21
220.9177082000
31
0.0000000000
11
295.7533381645
21
220.8034972621
31
0.0000000000
0
SPLINE
5
5ED
100
AcDbEntity
8
0
100
AcDbSpline
62
7
6
CONTINUOUS
70
0
71
3
72
9
73
5
74
3
42
0.0000001000
43
0.0000001000
44
0.0000000001
12
0.0842260166
22
0.2725557427
32
0.0000000000
13
-0.1261949803
23
0.2577216857
33
0.0000000000
40
0.0000000000
40
0.0000000000
40
0.0000000000
40
0.0000000000
40
0.5428603394
40
1.0000000000
40
1.0000000000
40
1.0000000000
40
1.0000000000
10
300.2351161959
20
221.3009098678
30
0.0000000000
10
300.2503571839
20
221.3502297688
30
0.0000000000
10
300.2641545151
20
221.4469674587
30
0.0000000000
10
300.2394473155
20
221.5415298223
30
0.0000000000
10
300.2202177387
20
221.5808014236
30
0.0000000000
11
300.2351161959
21
221.3009098678
31
0.0000000000
11
300.2539900486
21
221.4546188162
31
0.0000000000
11
300.2202177387
21
221.5808014236
31
0.0000000000
0
SPLINE
5
5EE
100
AcDbEntity
8
0
100
AcDbSpline
62
7
6
CONTINUOUS
70
0
71
3
72
10
73
6
74
4
42
0.0000001000
43
0.0000001000
44
0.0000000001
12
0.3437086486
22
-0.7004049277
32
0.0000000000
13
-0.2311427664
23
-0.7495403163
33
0.0000000000
40
0.0000000000
40
0.0000000000
40
0.0000000000
40
0.0000000000
40
0.4119152121
40
0.7965944212
40
1.0000000000
40
1.0000000000
40
1.0000000000
40
1.0000000000
10
293.0524671700
20
210.8507461324
30
0.0000000000
10
293.0996601103
20
210.7545769843
30
0.0000000000
10
293.1715095015
20
210.5575638139
30
0.0000000000
10
293.1881088369
20
210.2936582255
30
0.0000000000
10
293.1564169788
20
210.1425050975
30
0.0000000000
10
293.1407450694
20
210.0916848702
30
0.0000000000
11
293.0524671700
21
210.8507461324
31
0.0000000000
11
293.1582900897
21
210.5472949540
31
0.0000000000
11
293.1733808421
21
210.2475501724
31
0.0000000000
11
293.1407450694
21
210.0916848702
31
0.0000000000
0
SPLINE
5
5EF
100
AcDbEntity
8
0
100
AcDbSpline
62
7
6
CONTINUOUS
70
0
71
3
72
10
73
6
74
4
42
0.0000001000
43
0.0000001000
44
0.0000000001
12
0.3437086486
22
-0.7004049277
32
0.0000000000
13
-0.2311427664
23
-0.7495403163
33
0.0000000000
40
0.0000000000
40
0.0000000000
40
0.0000000000
40
0.0000000000
40
0.4119152121
40
0.7965944212
40
1.0000000000
40
1.0000000000
40
1.0000000000
40
1.0000000000
10
294.9894816387
20
206.9035233904
30
0.0000000000
10
295.0366745790
20
206.8073542423
30
0.0000000000
10
295.1085239702
20
206.6103410719
30
0.0000000000
10
295.1251233056
20
206.3464354835
30
0.0000000000
10
295.0934314475
20
206.1952823555
30
0.0000000000
10
295.0777595381
20
206.1444621282
30
0.0000000000
11
294.9894816387
21
206.9035233904
31
0.0000000000
11
295.0953045583
21
206.6000722121
31
0.0000000000
11
295.1103953107
21
206.3003274304
31
0.0000000000
11
295.0777595381
21
206.1444621282
31
0.0000000000
0
SPLINE
5
5F0
100
AcDbEntity
8
0
100
AcDbSpline
62
7
6
CONTINUOUS
70
0
71
3
72
11
73
7
74
5
42
0.0000001000
43
0.0000001000
44
0.0000000001
12
0.4369464072
22
-0.2215232018
32
0.0000000000
13
-0.1429331629
23
-0.4757579889
33
0.0000000000
40
0.0000000000
40
0.0000000000
40
0.0000000000
40
0.0000000000
40
0.3349108635
40
0.6240603788
40
0.8611645062
40
1.0000000000
40
1.0000000000
40
1.0000000000
40
1.0000000000
10
304.9848508558
20
221.4793785282
30
0.0000000000
10
305.0336302220
20
221.4546483526
30
0.0000000000
10
305.1204685660
20
221.3993173382
30
0.0000000000
10
305.2178058441
20
221.2955737879
30
0.0000000000
10
305.2615609967
20
221.1916220031
30
0.0000000000
10
305.2551382062
20
221.1280813150
30
0.0000000000
10
305.2485234741
20
221.1060639499
30
0.0000000000
11
304.9848508558
21
221.4793785282
31
0.0000000000
11
305.1221414840
21
221.3895433639
31
0.0000000000
11
305.2161831430
21
221.2836117412
31
0.0000000000
11
305.2556330208
21
221.1743605771
31
0.0000000000
11
305.2485234741
21
221.1060639499
31
0.0000000000
0
SPLINE
5
5F1
100
AcDbEntity
8
0
100
AcDbSpline
62
7
6
CONTINUOUS
70
0
71
3
72
9
73
5
74
3
42
0.0000001000
43
0.0000001000
44
0.0000000001
12
0.0252689490
22
0.1362661948
32
0.0000000000
13
-0.0620121460
23
0.1256363501
33
0.0000000000
40
0.0000000000
40
0.0000000000
40
0.0000000000
40
0.0000000000
40
0.7531353063
40
1.0000000000
40
1.0000000000
40
1.0000000000
40
1.0000000000
10
301.7078927794
20
219.1678619472
30
0.0000000000
10
301.7142364253
20
219.2020709080
30
0.0000000000
10
301.7134494776
20
219.2503662831
30
0.0000000000
10
301.6963468794
20
219.2939742256
30
0.0000000000
10
301.6912440096
20
219.3043126186
30
0.0000000000
11
301.7078927794
21
219.1678619472
31
0.0000000000
11
301.7037966234
21
219.2721580405
31
0.0000000000
11
301.6912440096
21
219.3043126186
31
0.0000000000
0
SPLINE
5
5F2
100
AcDbEntity
8
0
100
AcDbSpline
62
7
6
CONTINUOUS
70
0
71
3
72
9
73
5
74
3
42
0.0000001000
43
0.0000001000
44
0.0000000001
12
-0.0239424997
22
-0.0774780293
32
0.0000000000
13
0.0366794375
23
-0.0737316146
33
0.0000000000
40
0.0000000000
40
0.0000000000
40
0.0000000000
40
0.0000000000
40
0.7672120882
40
1.0000000000
40
1.0000000000
40
1.0000000000
40
1.0000000000
10
296.6465169458
20
212.0909278097
30
0.0000000000
10
296.6403939541
20
212.0711137828
30
0.0000000000
10
296.6381711486
20
212.0423373689
30
0.0000000000
10
296.6479879930
20
212.0166220388
30
0.0000000000
10
296.6508341695
20
212.0109007626
30
0.0000000000
11
296.6465169458
21
212.0909278097
31
0.0000000000
11
296.6440699388
21
212.0287603555
31
0.0000000000
11
296.6508341695
21
212.0109007626
31
0.0000000000
0
SPLINE
5
5F3
100
AcDbEntity
8
0
100
AcDbSpline
62
7
6
CONTINUOUS
70
0
71
3
72
23
73
19
74
17
42
0.0000001000
43
0.0000001000
44
0.0000000001
12
3.4081015941
22
-6.9449839709
32
0.0000000000
13
-3.4081008376
23
6.9449843421
33
0.0000000000
40
0.0000000000
40
0.0000000000
40
0.0000000000
40
0.0000000000
40
0.0497101546
40
0.0961770180
40
0.1413534501
40
0.1881298178
40
0.2390519094
40
0.2959509519
40
0.3595441440
40
0.4292384226
40
0.5036289779
40
0.5808340993
40
0.6588430329
40
0.7361188459
40
0.8110577904
40
0.8812384906
40
0.9445546015
40
1.0000000000
40
1.0000000000
40
1.0000000000
40
1.0000000000
10
293.3973966202
20
210.4528160478
30
0.0000000000
10
293.4538690393
20
210.3377373055
30
0.0000000000
10
293.5398361205
20
210.1018755346
30
0.0000000000
10
293.5632775080
20
209.7319909493
30
0.0000000000
10
293.4612570757
20
209.3819477281
30
0.0000000000
10
293.2386831638
20
209.0799947398
30
0.0000000000
10
292.9144510865
20
208.8401457067
30
0.0000000000
10
292.5048106862
20
208.6658501902
30
0.0000000000
10
292.0235461814
20
208.5601812737
30
0.0000000000
10
291.4873134316
20
208.5262097734
30
0.0000000000
10
290.9165307849
20
208.5650754080
30
0.0000000000
10
290.3334156694
20
208.6749736948
30
0.0000000000
10
289.7591950976
20
208.8515661510
30
0.0000000000
10
289.2136081150
20
209.0889237323
30
0.0000000000
10
288.7171930957
20
209.3790010954
30
0.0000000000
10
288.2912829934
20
209.7099097967
30
0.0000000000
10
287.9550661304
20
210.0653407813
30
0.0000000000
10
287.7871086841
20
210.3244602397
30
0.0000000000
10
287.7241208478
20
210.4528160478
30
0.0000000000
11
293.3973966202
21
210.4528160478
31
0.0000000000
11
293.5240302513
21
210.0896987350
31
0.0000000000
11
293.5422193074
21
209.7306847528
31
0.0000000000
11
293.4442187695
21
209.3952146451
31
0.0000000000
11
293.2330602700
21
209.1013419989
31
0.0000000000
11
292.9199517832
21
208.8622763413
31
0.0000000000
11
292.5170271632
21
208.6850488637
31
0.0000000000
11
292.0374207576
21
208.5754656878
31
0.0000000000
11
291.4995302924
21
208.5384131991
31
0.0000000000
11
290.9252395253
21
208.5756423431
31
0.0000000000
11
290.3381366324
21
208.6853773777
31
0.0000000000
11
289.7613056353
21
208.8627594332
31
0.0000000000
11
289.2134717077
21
209.1020566183
31
0.0000000000
11
288.7138768681
21
209.3961686393
31
0.0000000000
11
288.2869924637
21
209.7316394914
31
0.0000000000
11
287.9533891219
21
210.0902968244
31
0.0000000000
11
287.7241208478
21
210.4528160478
31
0.0000000000
0
SPLINE
5
5F4
100
AcDbEntity
8
0
100
AcDbSpline
62
7
6
CONTINUOUS
70
0
71
3
72
14
73
10
74
8
42
0.0000001000
43
0.0000001000
44
0.0000000001
12
-1.1061648986
22
2.2541280763
32
0.0000000000
13
2.4469309518
23
0.5758056904
33
0.0000000000
40
0.0000000000
40
0.0000000000
40
0.0000000000
40
0.0000000000
40
0.1531573252
40
0.2963220483
40
0.4355109435
40
0.5796292513
40
0.7365205627
40
0.9118269004
40
1.0000000000
40
1.0000000000
40
1.0000000000
40
1.0000000000
10
287.7241208478
20
210.4528160478
30
0.0000000000
10
287.6676484288
20
210.5678947901
30
0.0000000000
10
287.5816813475
20
210.8037565609
30
0.0000000000
10
287.5582399601
20
211.1736411463
30
0.0000000000
10
287.6602603923
20
211.5236843675
30
0.0000000000
10
287.8828343042
20
211.8256373558
30
0.0000000000
10
288.2070663815
20
212.0654863889
30
0.0000000000
10
288.5331248579
20
212.2042191176
30
0.0000000000
10
288.7460322617
20
212.2631814578
30
0.0000000000
10
288.8179500905
20
212.2801049820
30
0.0000000000
11
287.7241208478
21
210.4528160478
31
0.0000000000
11
287.5974872167
21
210.8159333605
31
0.0000000000
11
287.5792981606
21
211.1749473428
31
0.0000000000
11
287.6772986985
21
211.5104174504
31
0.0000000000
11
287.8884571981
21
211.8042900966
31
0.0000000000
11
288.2015656848
21
212.0433557542
31
0.0000000000
11
288.6044903049
21
212.2205832318
31
0.0000000000
11
288.8179500905
21
212.2801049820
31
0.0000000000
0
SPLINE
5
5F5
100
AcDbEntity
8
0
100
AcDbSpline
62
7
6
CONTINUOUS
70
0
71
3
72
14
73
10
74
8
42
0.0000001000
43
0.0000001000
44
0.0000000001
12
0.3195649347
22
-0.6518391992
32
0.0000000000
13
0.2115805276
23
0.6846754740
33
0.0000000000
40
0.0000000000
40
0.0000000000
40
0.0000000000
40
0.0000000000
40
0.0597355919
40
0.1922937237
40
0.3426335907
40
0.5090716116
40
0.6819387134
40
0.8488772939
40
1.0000000000
40
1.0000000000
40
1.0000000000
40
1.0000000000
10
302.8856386645
20
211.5841129913
30
0.0000000000
10
302.8920017980
20
211.5711336579
30
0.0000000000
10
302.9176976421
20
211.5319547143
30
0.0000000000
10
302.9892836253
20
211.4856453855
30
0.0000000000
10
303.0976918909
20
211.4690665903
30
0.0000000000
10
303.2146541455
20
211.4891551449
30
0.0000000000
10
303.3249160413
20
211.5425444680
30
0.0000000000
10
303.4135583889
20
211.6216448744
30
0.0000000000
10
303.4522720278
20
211.6894366488
30
0.0000000000
10
303.4629302351
20
211.7239266522
30
0.0000000000
11
302.8856386645
21
211.5841129913
31
0.0000000000
11
302.9093638367
21
211.5480647389
31
0.0000000000
11
302.9875769094
21
211.4941519894
31
0.0000000000
11
303.0936373505
21
211.4752203493
31
0.0000000000
11
303.2113984192
21
211.4941519894
31
0.0000000000
11
303.3229320604
21
211.5480647389
31
0.0000000000
11
303.4112582882
21
211.6287508706
31
0.0000000000
11
303.4629302351
21
211.7239266522
31
0.0000000000
0
SPLINE
5
5F6
100
AcDbEntity
8
0
100
AcDbSpline
62
7
6
CONTINUOUS
70
0
71
3
72
13
73
9
74
7
42
0.0000001000
43
0.0000001000
44
0.0000000001
12
0.1887148503
22
-0.3707522176
32
0.0000000000
13
0.1208897372
23
0.3911996964
33
0.0000000000
40
0.0000000000
40
0.0000000000
40
0.0000000000
40
0.0000000000
40
0.0905850252
40
0.2493007694
40
0.4321113918
40
0.6298509713
40
0.8245797334
40
1.0000000000
40
1.0000000000
40
1.0000000000
40
1.0000000000
10
285.7879949854
20
212.0101032978
30
0.0000000000
10
285.7936932319
20
211.9989084314
30
0.0000000000
10
285.8153920653
20
211.9707640732
30
0.0000000000
10
285.8719826719
20
211.9464194479
30
0.0000000000
10
285.9471777297
20
211.9476977125
30
0.0000000000
10
286.0222009924
20
211.9751403743
30
0.0000000000
10
286.0843267305
20
212.0235160500
30
0.0000000000
10
286.1117198717
20
212.0680530247
30
0.0000000000
10
286.1187887084
20
212.0909278097
30
0.0000000000
11
285.7879949854
21
212.0101032978
31
0.0000000000
11
285.8109078016
21
211.9803170357
31
0.0000000000
11
285.8694523646
21
211.9521072596
31
0.0000000000
11
285.9443032343
21
211.9516434325
31
0.0000000000
11
286.0205000291
21
211.9790182592
31
0.0000000000
11
286.0828133584
21
212.0287603555
31
0.0000000000
11
286.1187887084
21
212.0909278097
31
0.0000000000
0
SPLINE
5
5F7
100
AcDbEntity
8
0
100
AcDbSpline
62
7
6
CONTINUOUS
70
0
71
3
72
22
73
18
74
16
42
0.0000001000
43
0.0000001000
44
0.0000000001
12
-6.9282685501
22
-0.0000001937
32
0.0000000000
13
6.7518797494
23
1.5853313050
33
0.0000000000
40
0.0000000000
40
0.0000000000
40
0.0000000000
40
0.0000000000
40
0.0802810166
40
0.1660075378
40
0.2541041049
40
0.3411231827
40
0.4241855371
40
0.5018873579
40
0.5732593544
40
0.6374834655
40
0.6947558728
40
0.7467395019
40
0.7966111947
40
0.8485184719
40
0.9060175393
40
0.9705036330
40
1.0000000000
40
1.0000000000
40
1.0000000000
40
1.0000000000
10
295.3742396886
20
200.6439675340
30
0.0000000000
10
295.1888368744
20
200.6439675288
30
0.0000000000
10
294.8051672473
20
200.6692457487
30
0.0000000000
10
294.2268465033
20
200.7756598102
30
0.0000000000
10
293.6491876216
20
200.9510380065
30
0.0000000000
10
293.1005946047
20
201.1879312994
30
0.0000000000
10
292.6044560251
20
201.4759599123
30
0.0000000000
10
292.1782614507
20
201.8039990701
30
0.0000000000
10
291.8360064022
20
202.1613972134
30
0.0000000000
10
291.5904643941
20
202.5367790357
30
0.0000000000
10
291.4529522468
20
202.9179646645
30
0.0000000000
10
291.4337900548
20
203.2914352003
30
0.0000000000
10
291.5392985608
20
203.6382427897
30
0.0000000000
10
291.7636807280
20
203.9379200204
30
0.0000000000
10
292.0918830410
20
204.1774372473
30
0.0000000000
10
292.4170926829
20
204.3130636664
30
0.0000000000
10
292.6268039152
20
204.3703444972
30
0.0000000000
10
292.6931892229
20
204.3859316685
30
0.0000000000
11
295.3742396886
21
200.6439675340
31
0.0000000000
11
294.8191207158
21
200.6787634751
31
0.0000000000
11
294.2348334519
21
200.7853880208
31
0.0000000000
11
293.6507781109
21
200.9626297472
31
0.0000000000
11
293.0976434582
21
201.2024635747
31
0.0000000000
11
292.6008612630
21
201.4929506171
31
0.0000000000
11
292.1760111609
21
201.8235732988
31
0.0000000000
11
291.8369898068
21
202.1835445509
31
0.0000000000
11
291.5979247252
21
202.5588297350
31
0.0000000000
11
291.4689424934
21
202.9340799547
31
0.0000000000
11
291.4549353858
21
203.2939640141
31
0.0000000000
11
291.5555592554
21
203.6245120489
31
0.0000000000
11
291.7675908979
21
203.9149850457
31
0.0000000000
11
292.0857282747
21
204.1547483749
31
0.0000000000
11
292.4959508019
21
204.3317431301
31
0.0000000000
11
292.6931892229
21
204.3859316685
31
0.0000000000
0
SPLINE
5
5F8
100
AcDbEntity
8
0
100
AcDbSpline
62
7
6
CONTINUOUS
70
0
71
3
72
16
73
12
74
10
42
0.0000001000
43
0.0000001000
44
0.0000000001
12
-0.3058507419
22
-4.2852225902
32
0.0000000000
13
4.2723607914
23
0.0000000000
33
0.0000000000
40
0.0000000000
40
0.0000000000
40
0.0000000000
40
0.0000000000
40
0.0495372886
40
0.1370553411
40
0.2367113332
40
0.3490740370
40
0.4723947536
40
0.6034201809
40
0.7380167346
40
0.8716798642
40
1.0000000000
40
1.0000000000
40
1.0000000000
40
1.0000000000
10
286.3730214277
20
215.7514218631
30
0.0000000000
10
286.3679710889
20
215.6806624270
30
0.0000000000
10
286.3771859075
20
215.4829311890
30
0.0000000000
10
286.4891132135
20
215.1594750127
30
0.0000000000
10
286.7310078501
20
214.8036283444
30
0.0000000000
10
287.0754063551
20
214.4690551056
30
0.0000000000
10
287.5059331527
20
214.1699867060
30
0.0000000000
10
288.0021760472
20
213.9202240466
30
0.0000000000
10
288.5403124059
20
213.7317227353
30
0.0000000000
10
289.0940879690
20
213.6136203414
30
0.0000000000
10
289.4675574428
20
213.5847389508
30
0.0000000000
10
289.6503007485
20
213.5847389508
30
0.0000000000
11
286.3730214277
21
215.7514218631
31
0.0000000000
11
286.3818946250
21
215.5390917362
31
0.0000000000
11
286.4970710352
21
215.1833641613
31
0.0000000000
11
286.7310259026
21
214.8276365864
31
0.0000000000
11
287.0720277531
21
214.4897466775
31
0.0000000000
11
287.5029773300
21
214.1866376456
31
0.0000000000
11
288.0022650222
21
213.9335086431
31
0.0000000000
11
288.5448544598
21
213.7430526152
31
0.0000000000
11
289.1035379428
21
213.6248198225
31
0.0000000000
11
289.6503007485
21
213.5847389508
31
0.0000000000
0
SPLINE
5
5F9
100
AcDbEntity
8
0
100
AcDbSpline
62
7
6
CONTINUOUS
70
0
71
3
72
11
73
7
74
5
42
0.0000001000
43
0.0000001000
44
0.0000000001
12
0.7584868630
22
-1.5452898185
32
0.0000000000
13
-0.4446599182
23
-1.6602593384
33
0.0000000000
40
0.0000000000
40
0.0000000000
40
0.0000000000
40
0.0000000000
40
0.0139498358
40
0.3505630679
40
0.6988809912
40
1.0000000000
40
1.0000000000
40
1.0000000000
40
1.0000000000
10
305.4575116206
20
212.3611213885
30
0.0000000000
10
305.4610385430
20
212.3539358754
30
0.0000000000
10
305.5486328935
20
212.1728534003
30
0.0000000000
10
305.6707920437
20
211.7868433396
30
0.0000000000
10
305.6944403626
20
211.2173162651
30
0.0000000000
10
305.6289770289
20
210.8487582885
30
0.0000000000
10
305.5843451777
20
210.6821130731
30
0.0000000000
11
305.4575116206
21
212.3611213885
31
0.0000000000
11
305.4679680925
21
212.3395045093
31
0.0000000000
11
305.6437976492
21
211.7891296355
31
0.0000000000
11
305.6722608326
21
211.1919380973
31
0.0000000000
11
305.5843451777
21
210.6821130731
31
0.0000000000
0
SPLINE
5
5FA
100
AcDbEntity
8
0
100
AcDbSpline
62
7
6
CONTINUOUS
70
0
71
3
72
8
73
4
74
2
42
0.0000001000
43
0.0000001000
44
0.0000000001
12
-0.0042689866
22
-0.0159394284
32
0.0000000000
13
-0.0043557707
23
-0.0159132865
33
0.0000000000
40
0.0000000000
40
0.0000000000
40
0.0000000000
40
0.0000000000
40
1.0000000000
40
1.0000000000
40
1.0000000000
40
1.0000000000
10
305.5843451777
20
210.6821130731
30
0.0000000000
10
305.5829221821
20
210.6767999303
30
0.0000000000
10
305.5814846716
20
210.6714910986
30
0.0000000000
10
305.5800327481
20
210.6661866698
30
0.0000000000
11
305.5843451777
21
210.6821130731
31
0.0000000000
11
305.5800327481
21
210.6661866698
31
0.0000000000
0
SPLINE
5
5FB
100
AcDbEntity
8
0
100
AcDbSpline
62
7
6
CONTINUOUS
70
0
71
3
72
9
73
5
74
3
42
0.0000001000
43
0.0000001000
44
0.0000000001
12
0.0842260166
22
0.2725557427
32
0.0000000000
13
-0.1261949803
23
0.2577216857
33
0.0000000000
40
0.0000000000
40
0.0000000000
40
0.0000000000
40
0.0000000000
40
0.5428603394
40
1.0000000000
40
1.0000000000
40
1.0000000000
40
1.0000000000
10
304.0316645545
20
213.5643532936
30
0.0000000000
10
304.0469055425
20
213.6136731946
30
0.0000000000
10
304.0607028736
20
213.7104108844
30
0.0000000000
10
304.0359956741
20
213.8049732481
30
0.0000000000
10
304.0167660973
20
213.8442448494
30
0.0000000000
11
304.0316645545
21
213.5643532936
31
0.0000000000
11
304.0505384071
21
213.7180622420
31
0.0000000000
11
304.0167660973
21
213.8442448494
31
0.0000000000
0
SPLINE
5
5FC
100
AcDbEntity
8
0
100
AcDbSpline
62
7
6
CONTINUOUS
70
0
71
3
72
9
73
5
74
3
42
0.0000001000
43
0.0000001000
44
0.0000000001
12
0.1261949803
22
-0.2577216857
32
0.0000000000
13
-0.0842260166
23
-0.2725557427
33
0.0000000000
40
0.0000000000
40
0.0000000000
40
0.0000000000
40
0.0000000000
40
0.4571396606
40
1.0000000000
40
1.0000000000
40
1.0000000000
40
1.0000000000
10
298.6706061638
20
224.7385796172
30
0.0000000000
10
298.6898357406
20
224.6993080159
30
0.0000000000
10
298.7145429401
20
224.6047456522
30
0.0000000000
10
298.7007456090
20
224.5080079624
30
0.0000000000
10
298.6855046210
20
224.4586880614
30
0.0000000000
11
298.6706061638
21
224.7385796172
31
0.0000000000
11
298.7043784736
21
224.6123970098
31
0.0000000000
11
298.6855046210
21
224.4586880614
31
0.0000000000
0
SPLINE
5
5FD
100
AcDbEntity
8
0
100
AcDbSpline
62
7
6
CONTINUOUS
70
0
71
3
72
10
73
6
74
4
42
0.0000001000
43
0.0000001000
44
0.0000000001
12
0.3928648838
22
0.0000000000
32
0.0000000000
13
0.1752086538
23
-0.3573503690
33
0.0000000000
40
0.0000000000
40
0.0000000000
40
0.0000000000
40
0.0000000000
40
0.4387740730
40
0.8256513033
40
1.0000000000
40
1.0000000000
40
1.0000000000
40
1.0000000000
10
302.9174069395
20
213.3653882513
30
0.0000000000
10
302.9748665812
20
213.3653882513
30
0.0000000000
10
303.0844960492
20
213.3487165709
30
0.0000000000
10
303.1989063825
20
213.2746123732
30
0.0000000000
10
303.2400157936
20
213.2119246560
30
0.0000000000
10
303.2501982604
20
213.1911567990
30
0.0000000000
11
302.9174069395
21
213.3653882513
31
0.0000000000
11
303.0871036452
21
213.3350976272
31
0.0000000000
11
303.2122445616
21
213.2488372279
31
0.0000000000
11
303.2501982604
21
213.1911567990
31
0.0000000000
0
SPLINE
5
5FE
100
AcDbEntity
8
0
100
AcDbSpline
62
7
6
CONTINUOUS
70
0
71
3
72
14
73
10
74
8
42
0.0000001000
43
0.0000001000
44
0.0000000001
12
-0.2115805276
22
-0.6846754740
32
0.0000000000
13
-0.3195649347
23
0.6518391992
33
0.0000000000
40
0.0000000000
40
0.0000000000
40
0.0000000000
40
0.0000000000
40
0.1511227061
40
0.3180612866
40
0.4909283884
40
0.6573664093
40
0.8077062763
40
0.9402644081
40
1.0000000000
40
1.0000000000
40
1.0000000000
40
1.0000000000
10
298.1167703016
20
222.6182614201
30
0.0000000000
10
298.1061120943
20
222.5837714166
30
0.0000000000
10
298.0673984554
20
222.5159796422
30
0.0000000000
10
297.9787561078
20
222.4368792358
30
0.0000000000
10
297.8684942120
20
222.3834899127
30
0.0000000000
10
297.7515319574
20
222.3634013581
30
0.0000000000
10
297.6431236918
20
222.3799801533
30
0.0000000000
10
297.5715377086
20
222.4262894821
30
0.0000000000
10
297.5458418645
20
222.4654684257
30
0.0000000000
10
297.5394787310
20
222.4784477591
30
0.0000000000
11
298.1167703016
21
222.6182614201
31
0.0000000000
11
298.0650983547
21
222.5230856384
31
0.0000000000
11
297.9767721269
21
222.4423995068
31
0.0000000000
11
297.8652384857
21
222.3884867572
31
0.0000000000
11
297.7474774170
21
222.3695551172
31
0.0000000000
11
297.6414169759
21
222.3884867572
31
0.0000000000
11
297.5632039032
21
222.4423995068
31
0.0000000000
11
297.5394787310
21
222.4784477591
31
0.0000000000
0
SPLINE
5
5FF
100
AcDbEntity
8
0
100
AcDbSpline
62
7
6
CONTINUOUS
70
0
71
3
72
16
73
12
74
10
42
0.0000001000
43
0.0000001000
44
0.0000000001
12
-0.3058507419
22
-4.2852225902
32
0.0000000000
13
4.2723607914
23
0.0000000000
33
0.0000000000
40
0.0000000000
40
0.0000000000
40
0.0000000000
40
0.0000000000
40
0.0495372886
40
0.1370553411
40
0.2367113332
40
0.3490740370
40
0.4723947536
40
0.6034201809
40
0.7380167346
40
0.8716798642
40
1.0000000000
40
1.0000000000
40
1.0000000000
40
1.0000000000
10
292.1840648337
20
203.9097536372
30
0.0000000000
10
292.1790144948
20
203.8389942011
30
0.0000000000
10
292.1882293135
20
203.6412629631
30
0.0000000000
10
292.3001566194
20
203.3178067868
30
0.0000000000
10
292.5420512561
20
202.9619601185
30
0.0000000000
10
292.8864497611
20
202.6273868798
30
0.0000000000
10
293.3169765587
20
202.3283184801
30
0.0000000000
10
293.8132194532
20
202.0785558207
30
0.0000000000
10
294.3513558119
20
201.8900545094
30
0.0000000000
10
294.9051313750
20
201.7719521155
30
0.0000000000
10
295.2786008487
20
201.7430707249
30
0.0000000000
10
295.4613441544
20
201.7430707249
30
0.0000000000
11
292.1840648337
21
203.9097536372
31
0.0000000000
11
292.1929380309
21
203.6974235103
31
0.0000000000
11
292.3081144412
21
203.3416959354
31
0.0000000000
11
292.5420693085
21
202.9859683605
31
0.0000000000
11
292.8830711590
21
202.6480784516
31
0.0000000000
11
293.3140207360
21
202.3449694197
31
0.0000000000
11
293.8133084281
21
202.0918404172
31
0.0000000000
11
294.3558978657
21
201.9013843893
31
0.0000000000
11
294.9145813487
21
201.7831515966
31
0.0000000000
11
295.4613441544
21
201.7430707249
31
0.0000000000
0
SPLINE
5
600
100
AcDbEntity
8
0
100
AcDbSpline
62
7
6
CONTINUOUS
70
0
71
3
72
10
73
6
74
4
42
0.0000001000
43
0.0000001000
44
0.0000000001
12
-0.3366054852
22
-0.2066591592
32
0.0000000000
13
-0.1162917683
23
-0.3763206497
33
0.0000000000
40
0.0000000000
40
0.0000000000
40
0.0000000000
40
0.0000000000
40
0.0741140043
40
0.5600772457
40
1.0000000000
40
1.0000000000
40
1.0000000000
40
1.0000000000
10
283.6599257999
20
224.1590060733
30
0.0000000000
10
283.6516100731
20
224.1539006274
30
0.0000000000
10
283.5895702049
20
224.1140048224
30
0.0000000000
10
283.4902906037
20
224.0254430450
30
0.0000000000
10
283.4283595718
20
223.9169769401
30
0.0000000000
10
283.4113064401
20
223.8617929345
30
0.0000000000
11
283.6599257999
21
224.1590060733
31
0.0000000000
11
283.6353035196
21
224.1431719958
31
0.0000000000
11
283.4939815551
21
224.0140741851
31
0.0000000000
11
283.4113064401
21
223.8617929345
31
0.0000000000
0
SPLINE
5
601
100
AcDbEntity
8
0
100
AcDbSpline
62
7
6
CONTINUOUS
70
0
71
3
72
14
73
10
74
8
42
0.0000001000
43
0.0000001000
44
0.0000000001
12
-0.2115805276
22
-0.6846754740
32
0.0000000000
13
-0.3195649347
23
0.6518391992
33
0.0000000000
40
0.0000000000
40
0.0000000000
40
0.0000000000
40
0.0000000000
40
0.1511227061
40
0.3180612866
40
0.4909283884
40
0.6573664093
40
0.8077062763
40
0.9402644081
40
1.0000000000
40
1.0000000000
40
1.0000000000
40
1.0000000000
10
283.0270264945
20
222.6182614201
30
0.0000000000
10
283.0163682872
20
222.5837714166
30
0.0000000000
10
282.9776546483
20
222.5159796422
30
0.0000000000
10
282.8890123007
20
222.4368792358
30
0.0000000000
10
282.7787504049
20
222.3834899127
30
0.0000000000
10
282.6617881504
20
222.3634013581
30
0.0000000000
10
282.5533798847
20
222.3799801533
30
0.0000000000
10
282.4817939016
20
222.4262894821
30
0.0000000000
10
282.4560980574
20
222.4654684257
30
0.0000000000
10
282.4497349239
20
222.4784477591
30
0.0000000000
11
283.0270264945
21
222.6182614201
31
0.0000000000
11
282.9753545476
21
222.5230856384
31
0.0000000000
11
282.8870283199
21
222.4423995068
31
0.0000000000
11
282.7754946787
21
222.3884867572
31
0.0000000000
11
282.6577336100
21
222.3695551172
31
0.0000000000
11
282.5516731689
21
222.3884867572
31
0.0000000000
11
282.4734600961
21
222.4423995068
31
0.0000000000
11
282.4497349239
21
222.4784477591
31
0.0000000000
0
SPLINE
5
602
100
AcDbEntity
8
0
100
AcDbSpline
62
7
6
CONTINUOUS
70
0
71
3
72
21
73
17
74
15
42
0.0000001000
43
0.0000001000
44
0.0000000001
12
-1.6827472893
22
-5.4567441372
32
0.0000000000
13
-2.5022405575
23
5.0990325494
33
0.0000000000
40
0.0000000000
40
0.0000000000
40
0.0000000000
40
0.0000000000
40
0.0234430762
40
0.0766416634
40
0.1345574344
40
0.1992700377
40
0.2715940665
40
0.3508539656
40
0.4354520323
40
0.5232493766
40
0.6119621938
40
0.6998427397
40
0.7850685195
40
0.8648870513
40
0.9369031084
40
1.0000000000
40
1.0000000000
40
1.0000000000
40
1.0000000000
10
293.1407450694
20
210.0916848702
30
0.0000000000
10
293.1275954784
20
210.0490439139
30
0.0000000000
10
293.0737644912
20
209.9130003262
30
0.0000000000
10
292.9197852560
20
209.7042663085
30
0.0000000000
10
292.6490448618
20
209.5039985438
30
0.0000000000
10
292.3069688007
20
209.3584880542
30
0.0000000000
10
291.9051083478
20
209.2702860870
30
0.0000000000
10
291.4573677848
20
209.2419324571
30
0.0000000000
10
290.9807929169
20
209.2743910622
30
0.0000000000
10
290.4939261731
20
209.3661486215
30
0.0000000000
10
290.0144771795
20
209.5135806977
30
0.0000000000
10
289.5589384189
20
209.7117735724
30
0.0000000000
10
289.1443981432
20
209.9539300930
30
0.0000000000
10
288.7887815731
20
210.2302760753
30
0.0000000000
10
288.5078346075
20
210.5270062369
30
0.0000000000
10
288.3676173303
20
210.7435017643
30
0.0000000000
10
288.3149894632
20
210.8507461324
30
0.0000000000
11
293.1407450694
21
210.0916848702
31
0.0000000000
11
293.0914947147
21
209.9674229499
31
0.0000000000
11
292.9151105826
21
209.7220841527
31
0.0000000000
11
292.6536338618
21
209.5224793123
31
0.0000000000
11
292.3171690695
21
209.3745166880
31
0.0000000000
11
291.9166892083
21
209.2830433179
31
0.0000000000
11
291.4675636251
21
209.2521208488
31
0.0000000000
11
290.9880614597
21
209.2832126139
31
0.0000000000
11
290.4978693833
21
209.3748324691
31
0.0000000000
11
290.0162440395
21
209.5229291134
31
0.0000000000
11
289.5588215285
21
209.7227256850
31
0.0000000000
11
289.1416475391
21
209.9682739838
31
0.0000000000
11
288.7851737599
21
210.2483871439
31
0.0000000000
11
288.5065156610
21
210.5478317262
31
0.0000000000
11
288.3149894632
21
210.8507461324
31
0.0000000000
0
SPLINE
5
603
100
AcDbEntity
8
0
100
AcDbSpline
62
7
6
CONTINUOUS
70
0
71
3
72
18
73
14
74
12
42
0.0000001000
43
0.0000001000
44
0.0000000001
12
-4.4680651771
22
0.0000001574
32
0.0000000000
13
1.3256252293
23
4.2912425934
33
0.0000000000
40
0.0000000000
40
0.0000000000
40
0.0000000000
40
0.0000000000
40
0.1040152614
40
0.2150259535
40
0.3290969958
40
0.4417652610
40
0.5493070255
40
0.6499076554
40
0.7423118334
40
0.8254606273
40
0.8996089416
40
0.9669103051
40
1.0000000000
40
1.0000000000
40
1.0000000000
40
1.0000000000
10
289.5312047077
20
213.1993436639
30
0.0000000000
10
289.3762890520
20
213.1993436693
30
0.0000000000
10
289.0557847056
20
213.2203222708
30
0.0000000000
10
288.5727910836
20
213.3094344821
30
0.0000000000
10
288.0904054690
20
213.4558252440
30
0.0000000000
10
287.6323687132
20
213.6537317666
30
0.0000000000
10
287.2181059122
20
213.8942180457
30
0.0000000000
10
286.8622667756
20
214.1681396800
30
0.0000000000
10
286.5765266132
20
214.4665706576
30
0.0000000000
10
286.3715289167
20
214.7800002699
30
0.0000000000
10
286.2567279821
20
215.0982687752
30
0.0000000000
10
286.2431722619
20
215.3624462361
30
0.0000000000
10
286.2751249387
20
215.5098870499
30
0.0000000000
10
286.2897464501
20
215.5572190193
30
0.0000000000
11
289.5312047077
21
213.1993436639
31
0.0000000000
11
289.0673641375
21
213.2283551953
31
0.0000000000
11
288.5794397456
21
213.3175110780
31
0.0000000000
11
288.0917315537
21
213.4655354446
31
0.0000000000
11
287.6298933791
21
213.6658508826
31
0.0000000000
11
287.2151063253
21
213.9084110242
31
0.0000000000
11
286.8603889946
21
214.1844853428
31
0.0000000000
11
286.5773459416
21
214.4850623289
31
0.0000000000
11
286.3777579586
21
214.7984111132
31
0.0000000000
11
286.2700767907
21
215.1117226602
31
0.0000000000
11
286.2583796787
21
215.4122019514
31
0.0000000000
11
286.2897464501
21
215.5572190193
31
0.0000000000
0
SPLINE
5
604
100
AcDbEntity
8
0
100
AcDbSpline
62
7
6
CONTINUOUS
70
0
71
3
72
10
73
6
74
4
42
0.0000001000
43
0.0000001000
44
0.0000000001
12
-0.1752086538
22
0.3573503690
32
0.0000000000
13
-0.3928648838
23
-0.0000000000
33
0.0000000000
40
0.0000000000
40
0.0000000000
40
0.0000000000
40
0.0000000000
40
0.1743486967
40
0.5612259270
40
1.0000000000
40
1.0000000000
40
1.0000000000
40
1.0000000000
10
297.9040383269
20
224.0854915668
30
0.0000000000
10
297.8938558601
20
224.1062594238
30
0.0000000000
10
297.8527464490
20
224.1689471410
30
0.0000000000
10
297.7383361157
20
224.2430513387
30
0.0000000000
10
297.6287066477
20
224.2597230191
30
0.0000000000
10
297.5712470060
20
224.2597230191
30
0.0000000000
11
297.9040383269
21
224.0854915668
31
0.0000000000
11
297.8660846281
21
224.1431719958
31
0.0000000000
11
297.7409437117
21
224.2294323950
31
0.0000000000
11
297.5712470060
21
224.2597230191
31
0.0000000000
0
SPLINE
5
605
100
AcDbEntity
8
0
100
AcDbSpline
62
7
6
CONTINUOUS
70
0
71
3
72
18
73
14
74
12
42
0.0000001000
43
0.0000001000
44
0.0000000001
12
-4.4680651771
22
0.0000001574
32
0.0000000000
13
1.3256252293
23
4.2912425934
33
0.0000000000
40
0.0000000000
40
0.0000000000
40
0.0000000000
40
0.0000000000
40
0.1040152614
40
0.2150259535
40
0.3290969958
40
0.4417652610
40
0.5493070255
40
0.6499076554
40
0.7423118334
40
0.8254606273
40
0.8996089416
40
0.9669103051
40
1.0000000000
40
1.0000000000
40
1.0000000000
40
1.0000000000
10
295.3422481137
20
201.3576754380
30
0.0000000000
10
295.1873324580
20
201.3576754434
30
0.0000000000
10
294.8668281116
20
201.3786540449
30
0.0000000000
10
294.3838344895
20
201.4677662562
30
0.0000000000
10
293.9014488750
20
201.6141570181
30
0.0000000000
10
293.4434121192
20
201.8120635407
30
0.0000000000
10
293.0291493182
20
202.0525498198
30
0.0000000000
10
292.6733101815
20
202.3264714541
30
0.0000000000
10
292.3875700192
20
202.6249024317
30
0.0000000000
10
292.1825723227
20
202.9383320441
30
0.0000000000
10
292.0677713881
20
203.2566005493
30
0.0000000000
10
292.0542156679
20
203.5207780103
30
0.0000000000
10
292.0861683446
20
203.6682188240
30
0.0000000000
10
292.1007898561
20
203.7155507934
30
0.0000000000
11
295.3422481137
21
201.3576754380
31
0.0000000000
11
294.8784075435
21
201.3866869694
31
0.0000000000
11
294.3904831515
21
201.4758428521
31
0.0000000000
11
293.9027749597
21
201.6238672187
31
0.0000000000
11
293.4409367851
21
201.8241826567
31
0.0000000000
11
293.0261497313
21
202.0667427983
31
0.0000000000
11
292.6714324006
21
202.3428171169
31
0.0000000000
11
292.3883893476
21
202.6433941030
31
0.0000000000
11
292.1888013646
21
202.9567428873
31
0.0000000000
11
292.0811201967
21
203.2700544343
31
0.0000000000
11
292.0694230847
21
203.5705337255
31
0.0000000000
11
292.1007898561
21
203.7155507934
31
0.0000000000
0
SPLINE
5
606
100
AcDbEntity
8
0
100
AcDbSpline
62
7
6
CONTINUOUS
70
0
71
3
72
10
73
6
74
4
42
0.0000001000
43
0.0000001000
44
0.0000000001
12
-0.3437107657
22
0.7004093611
32
0.0000000000
13
0.2311244753
23
0.7495403115
33
0.0000000000
40
0.0000000000
40
0.0000000000
40
0.0000000000
40
0.0000000000
40
0.4118162572
40
0.7966066658
40
1.0000000000
40
1.0000000000
40
1.0000000000
40
1.0000000000
10
288.3149894632
20
210.8507461324
30
0.0000000000
10
288.2678075695
20
210.9468927863
30
0.0000000000
10
288.1958734819
20
211.1438839289
30
0.0000000000
10
288.1793464077
20
211.4078043544
30
0.0000000000
10
288.2110471808
20
211.5589823963
30
0.0000000000
10
288.2267169067
20
211.6097995640
30
0.0000000000
11
288.3149894632
21
210.8507461324
31
0.0000000000
11
288.2091389651
21
211.1541080670
31
0.0000000000
11
288.1940760745
21
211.4539430094
31
0.0000000000
11
288.2267169067
21
211.6097995640
31
0.0000000000
0
SPLINE
5
607
100
AcDbEntity
8
0
100
AcDbSpline
62
7
6
CONTINUOUS
70
0
71
3
72
10
73
6
74
4
42
0.0000001000
43
0.0000001000
44
0.0000000001
12
-0.3437107657
22
0.7004093611
32
0.0000000000
13
0.2311244753
23
0.7495403115
33
0.0000000000
40
0.0000000000
40
0.0000000000
40
0.0000000000
40
0.0000000000
40
0.4118162572
40
0.7966066658
40
1.0000000000
40
1.0000000000
40
1.0000000000
40
1.0000000000
10
290.2520039318
20
206.9035233904
30
0.0000000000
10
290.2048220381
20
206.9996700443
30
0.0000000000
10
290.1328879505
20
207.1966611870
30
0.0000000000
10
290.1163608763
20
207.4605816124
30
0.0000000000
10
290.1480616495
20
207.6117596543
30
0.0000000000
10
290.1637313754
20
207.6625768220
30
0.0000000000
11
290.2520039318
21
206.9035233904
31
0.0000000000
11
290.1461534338
21
207.2068853250
31
0.0000000000
11
290.1310905431
21
207.5067202675
31
0.0000000000
11
290.1637313754
21
207.6625768220
31
0.0000000000
0
SPLINE
5
608
100
AcDbEntity
8
0
100
AcDbSpline
62
7
6
CONTINUOUS
70
0
71
3
72
18
73
14
74
12
42
0.0000001000
43
0.0000001000
44
0.0000000001
12
2.3380323299
22
-4.7644116931
32
0.0000000000
13
3.4985720666
23
4.0192038162
33
0.0000000000
40
0.0000000000
40
0.0000000000
40
0.0000000000
40
0.0000000000
40
0.0802247999
40
0.1706787229
40
0.2699540359
40
0.3754317747
40
0.4837843319
40
0.5913854666
40
0.6946853988
40
0.7905945221
40
0.8769233485
40
0.9529430214
40
1.0000000000
40
1.0000000000
40
1.0000000000
40
1.0000000000
10
288.4340855039
20
211.2361414193
30
0.0000000000
10
288.4966082292
20
211.1087334278
30
0.0000000000
10
288.6681248050
20
210.8561688835
30
0.0000000000
10
289.0123892718
20
210.5219060469
30
0.0000000000
10
289.4429554985
20
210.2227421213
30
0.0000000000
10
289.9391943617
20
209.9730071724
30
0.0000000000
10
290.4773025945
20
209.7844996301
30
0.0000000000
10
291.0311931917
20
209.6663932661
30
0.0000000000
10
291.5740958953
20
209.6243985094
30
0.0000000000
10
292.0801099707
20
209.6606325739
30
0.0000000000
10
292.5257698064
20
209.7739833666
30
0.0000000000
10
292.8589544232
20
209.9449089521
30
0.0000000000
10
293.0233575477
20
210.0918598096
30
0.0000000000
10
293.0782349579
20
210.1549036722
30
0.0000000000
11
288.4340855039
21
211.2361414193
31
0.0000000000
11
288.6680403712
21
210.8804138445
31
0.0000000000
11
289.0090422217
21
210.5425239356
31
0.0000000000
11
289.4399917987
21
210.2394149036
31
0.0000000000
11
289.9392794908
21
209.9862859011
31
0.0000000000
11
290.4818689284
21
209.7958298732
31
0.0000000000
11
291.0405524114
21
209.6775970805
31
0.0000000000
11
291.5873152171
21
209.6375162089
31
0.0000000000
11
292.0947403753
21
209.6775970805
31
0.0000000000
11
292.5373834699
21
209.7958298732
31
0.0000000000
11
292.8930485276
21
209.9862859011
31
0.0000000000
11
293.0782349579
21
210.1549036722
31
0.0000000000
0
SPLINE
5
609
100
AcDbEntity
8
0
100
AcDbSpline
62
7
6
CONTINUOUS
70
0
71
3
72
9
73
5
74
3
42
0.0000001000
43
0.0000001000
44
0.0000000001
12
0.1106736022
22
0.1271432333
32
0.0000000000
13
0.0860699483
23
0.1454065067
33
0.0000000000
40
0.0000000000
40
0.0000000000
40
0.0000000000
40
0.0000000000
40
0.6351500674
40
1.0000000000
40
1.0000000000
40
1.0000000000
40
1.0000000000
10
293.0782349579
20
210.1549036722
30
0.0000000000
10
293.1016664066
20
210.1818220166
30
0.0000000000
10
293.1362669878
20
210.2261718234
30
0.0000000000
10
293.1666076641
20
210.2736333627
30
0.0000000000
10
293.1770752024
20
210.2913172140
30
0.0000000000
11
293.0782349579
21
210.1549036722
31
0.0000000000
11
293.1439010174
21
210.2394149036
31
0.0000000000
11
293.1770752024
21
210.2913172140
31
0.0000000000
0
SPLINE
5
60A
100
AcDbEntity
8
0
100
AcDbSpline
62
7
6
CONTINUOUS
70
0
71
3
72
18
73
14
74
12
42
0.0000001000
43
0.0000001000
44
0.0000000001
12
2.3380323299
22
-4.7644116931
32
0.0000000000
13
3.4985720666
23
4.0192038162
33
0.0000000000
40
0.0000000000
40
0.0000000000
40
0.0000000000
40
0.0000000000
40
0.0802247999
40
0.1706787229
40
0.2699540359
40
0.3754317747
40
0.4837843319
40
0.5913854666
40
0.6946853988
40
0.7905945221
40
0.8769233485
40
0.9529430214
40
1.0000000000
40
1.0000000000
40
1.0000000000
40
1.0000000000
10
290.3710999725
20
207.2889186774
30
0.0000000000
10
290.4336226978
20
207.1615106858
30
0.0000000000
10
290.6051392736
20
206.9089461416
30
0.0000000000
10
290.9494037405
20
206.5746833049
30
0.0000000000
10
291.3799699672
20
206.2755193794
30
0.0000000000
10
291.8762088304
20
206.0257844304
30
0.0000000000
10
292.4143170631
20
205.8372768881
30
0.0000000000
10
292.9682076603
20
205.7191705242
30
0.0000000000
10
293.5111103639
20
205.6771757674
30
0.0000000000
10
294.0171244394
20
205.7134098320
30
0.0000000000
10
294.4627842751
20
205.8267606247
30
0.0000000000
10
294.7959688919
20
205.9976862101
30
0.0000000000
10
294.9603720164
20
206.1446370677
30
0.0000000000
10
295.0152494266
20
206.2076809303
30
0.0000000000
11
290.3710999725
21
207.2889186774
31
0.0000000000
11
290.6050548399
21
206.9331911025
31
0.0000000000
11
290.9460566904
21
206.5953011936
31
0.0000000000
11
291.3770062673
21
206.2921921616
31
0.0000000000
11
291.8762939595
21
206.0390631592
31
0.0000000000
11
292.4188833971
21
205.8486071313
31
0.0000000000
11
292.9775668801
21
205.7303743386
31
0.0000000000
11
293.5243296858
21
205.6902934669
31
0.0000000000
11
294.0317548440
21
205.7303743386
31
0.0000000000
11
294.4743979385
21
205.8486071313
31
0.0000000000
11
294.8300629963
21
206.0390631592
31
0.0000000000
11
295.0152494266
21
206.2076809303
31
0.0000000000
0
SPLINE
5
60B
100
AcDbEntity
8
0
100
AcDbSpline
62
7
6
CONTINUOUS
70
0
71
3
72
9
73
5
74
3
42
0.0000001000
43
0.0000001000
44
0.0000000001
12
0.1106736022
22
0.1271432333
32
0.0000000000
13
0.0860699483
23
0.1454065067
33
0.0000000000
40
0.0000000000
40
0.0000000000
40
0.0000000000
40
0.0000000000
40
0.6351500674
40
1.0000000000
40
1.0000000000
40
1.0000000000
40
1.0000000000
10
295.0152494266
20
206.2076809303
30
0.0000000000
10
295.0386808752
20
206.2345992747
30
0.0000000000
10
295.0732814564
20
206.2789490815
30
0.0000000000
10
295.1036221327
20
206.3264106207
30
0.0000000000
10
295.1140896710
20
206.3440944721
30
0.0000000000
11
295.0152494266
21
206.2076809303
31
0.0000000000
11
295.0809154861
21
206.2921921616
31
0.0000000000
11
295.1140896710
21
206.3440944721
31
0.0000000000
0
SPLINE
5
60C
100
AcDbEntity
8
0
100
AcDbSpline
62
7
6
CONTINUOUS
70
0
71
3
72
9
73
5
74
3
42
0.0000001000
43
0.0000001000
44
0.0000000001
12
-0.0410481791
22
-0.5859512686
32
0.0000000000
13
0.2573943573
23
-0.5245148537
33
0.0000000000
40
0.0000000000
40
0.0000000000
40
0.0000000000
40
0.0000000000
40
0.3600377435
40
1.0000000000
40
1.0000000000
40
1.0000000000
40
1.0000000000
10
288.3099298380
20
211.8029471726
30
0.0000000000
10
288.3050035401
20
211.7326256485
30
0.0000000000
10
288.3143141693
20
211.5353630427
30
0.0000000000
10
288.3791779460
20
211.3480313225
30
0.0000000000
10
288.4340855039
20
211.2361414193
30
0.0000000000
11
288.3099298380
21
211.8029471726
31
0.0000000000
11
288.3189090936
21
211.5918689942
31
0.0000000000
11
288.4340855039
21
211.2361414193
31
0.0000000000
0
SPLINE
5
60D
100
AcDbEntity
8
0
100
AcDbSpline
62
7
6
CONTINUOUS
70
0
71
3
72
21
73
17
74
15
42
0.0000001000
43
0.0000001000
44
0.0000000001
12
-1.6827472893
22
-5.4567441372
32
0.0000000000
13
-2.5022405575
23
5.0990325494
33
0.0000000000
40
0.0000000000
40
0.0000000000
40
0.0000000000
40
0.0000000000
40
0.0234430762
40
0.0766416634
40
0.1345574344
40
0.1992700377
40
0.2715940665
40
0.3508539656
40
0.4354520323
40
0.5232493766
40
0.6119621938
40
0.6998427397
40
0.7850685195
40
0.8648870513
40
0.9369031084
40
1.0000000000
40
1.0000000000
40
1.0000000000
40
1.0000000000
10
295.0777595381
20
206.1444621282
30
0.0000000000
10
295.0646099471
20
206.1018211720
30
0.0000000000
10
295.0107789598
20
205.9657775843
30
0.0000000000
10
294.8567997246
20
205.7570435666
30
0.0000000000
10
294.5860593305
20
205.5567758018
30
0.0000000000
10
294.2439832694
20
205.4112653122
30
0.0000000000
10
293.8421228164
20
205.3230633450
30
0.0000000000
10
293.3943822534
20
205.2947097151
30
0.0000000000
10
292.9178073856
20
205.3271683203
30
0.0000000000
10
292.4309406418
20
205.4189258795
30
0.0000000000
10
291.9514916481
20
205.5663579557
30
0.0000000000
10
291.4959528875
20
205.7645508305
30
0.0000000000
10
291.0814126118
20
206.0067073510
30
0.0000000000
10
290.7257960417
20
206.2830533333
30
0.0000000000
10
290.4448490762
20
206.5797834949
30
0.0000000000
10
290.3046317989
20
206.7962790223
30
0.0000000000
10
290.2520039318
20
206.9035233904
30
0.0000000000
11
295.0777595381
21
206.1444621282
31
0.0000000000
11
295.0285091834
21
206.0202002079
31
0.0000000000
11
294.8521250512
21
205.7748614107
31
0.0000000000
11
294.5906483304
21
205.5752565704
31
0.0000000000
11
294.2541835382
21
205.4272939461
31
0.0000000000
11
293.8537036770
21
205.3358205759
31
0.0000000000
11
293.4045780937
21
205.3048981068
31
0.0000000000
11
292.9250759284
21
205.3359898719
31
0.0000000000
11
292.4348838520
21
205.4276097271
31
0.0000000000
11
291.9532585081
21
205.5757063714
31
0.0000000000
11
291.4958359972
21
205.7755029430
31
0.0000000000
11
291.0786620078
21
206.0210512418
31
0.0000000000
11
290.7221882286
21
206.3011644019
31
0.0000000000
11
290.4435301296
21
206.6006089842
31
0.0000000000
11
290.2520039318
21
206.9035233904
31
0.0000000000
0
SPLINE
5
60E
100
AcDbEntity
8
0
100
AcDbSpline
62
7
6
CONTINUOUS
70
0
71
3
72
9
73
5
74
3
42
0.0000001000
43
0.0000001000
44
0.0000000001
12
-0.0410481791
22
-0.5859512686
32
0.0000000000
13
0.2573943573
23
-0.5245148537
33
0.0000000000
40
0.0000000000
40
0.0000000000
40
0.0000000000
40
0.0000000000
40
0.3600377435
40
1.0000000000
40
1.0000000000
40
1.0000000000
40
1.0000000000
10
290.2469443067
20
207.8557244307
30
0.0000000000
10
290.2420180088
20
207.7854029065
30
0.0000000000
10
290.2513286380
20
207.5881403008
30
0.0000000000
10
290.3161924146
20
207.4008085805
30
0.0000000000
10
290.3710999725
20
207.2889186774
30
0.0000000000
11
290.2469443067
21
207.8557244307
31
0.0000000000
11
290.2559235623
21
207.6446462523
31
0.0000000000
11
290.3710999725
21
207.2889186774
31
0.0000000000
0
SPLINE
5
60F
100
AcDbEntity
8
0
100
AcDbSpline
62
7
6
CONTINUOUS
70
0
71
3
72
11
73
7
74
5
42
0.0000001000
43
0.0000001000
44
0.0000000001
12
0.5409332833
22
1.7504623722
32
0.0000000000
13
-0.8096094180
23
1.6494434533
33
0.0000000000
40
0.0000000000
40
0.0000000000
40
0.0000000000
40
0.0000000000
40
0.3452496490
40
0.6715731367
40
0.9869310226
40
1.0000000000
40
1.0000000000
40
1.0000000000
40
1.0000000000
10
297.7267253652
20
226.5176595081
30
0.0000000000
10
297.7889777073
20
226.7191083479
30
0.0000000000
10
297.8705183722
20
227.1251665506
30
0.0000000000
10
297.8452535903
20
227.7336232171
30
0.0000000000
10
297.7230944401
20
228.1196332779
30
0.0000000000
10
297.6355000896
20
228.3007157529
30
0.0000000000
10
297.6319731672
20
228.3079012660
30
0.0000000000
11
297.7267253652
21
226.5176595081
31
0.0000000000
11
297.8467223792
21
227.1387179749
31
0.0000000000
11
297.8182591958
21
227.7359095131
31
0.0000000000
11
297.6424296392
21
228.2862843868
31
0.0000000000
11
297.6319731672
21
228.3079012660
31
0.0000000000
0
SPLINE
5
610
100
AcDbEntity
8
0
100
AcDbSpline
62
7
6
CONTINUOUS
70
0
71
3
72
13
73
9
74
7
42
0.0000001000
43
0.0000001000
44
0.0000000001
12
0.2565545821
22
0.8463676261
32
0.0000000000
13
-0.8800988260
23
-0.0000000000
33
0.0000000000
40
0.0000000000
40
0.0000000000
40
0.0000000000
40
0.0000000000
40
0.1079448498
40
0.2467494369
40
0.4148512761
40
0.6059292098
40
0.8063360445
40
1.0000000000
40
1.0000000000
40
1.0000000000
40
1.0000000000
10
293.3186089317
20
213.7762730053
30
0.0000000000
10
293.3278401803
20
213.8067266807
30
0.0000000000
10
293.3279563408
20
213.8832972574
30
0.0000000000
10
293.2674054466
20
213.9928537454
30
0.0000000000
10
293.1592464251
20
214.0933446635
30
0.0000000000
10
293.0151104990
20
214.1746348707
30
0.0000000000
10
292.8510071576
20
214.2282185550
30
0.0000000000
10
292.7351810960
20
214.2421498801
30
0.0000000000
10
292.6783666227
20
214.2421498801
30
0.0000000000
11
293.3186089317
21
213.7762730053
31
0.0000000000
11
293.3210270979
21
213.8715378178
31
0.0000000000
11
293.2672096527
21
213.9812063036
31
0.0000000000
11
293.1610596502
21
214.0842609704
31
0.0000000000
11
293.0153803475
21
214.1682719045
31
0.0000000000
11
292.8477428182
21
214.2231061474
31
0.0000000000
11
292.6783666227
21
214.2421498801
31
0.0000000000
0
SPLINE
5
611
100
AcDbEntity
8
0
100
AcDbSpline
62
7
6
CONTINUOUS
70
0
71
3
72
11
73
7
74
5
42
0.0000001000
43
0.0000001000
44
0.0000000001
12
0.0900626927
22
0.2942875824
32
0.0000000000
13
-0.2241684155
23
0.2058059025
33
0.0000000000
40
0.0000000000
40
0.0000000000
40
0.0000000000
40
0.0000000000
40
0.1729210870
40
0.5046014217
40
0.9015552319
40
1.0000000000
40
1.0000000000
40
1.0000000000
40
1.0000000000
10
296.0237306968
20
222.5308764492
30
0.0000000000
10
296.0289219430
20
222.5478392921
30
0.0000000000
10
296.0366849839
20
222.5997124540
30
0.0000000000
10
296.0094785396
20
222.6902816101
30
0.0000000000
10
295.9577287317
20
222.7575355754
30
0.0000000000
10
295.9216236184
20
222.7925324226
30
0.0000000000
10
295.9142675492
20
222.7992859274
30
0.0000000000
11
296.0237306968
21
222.5308764492
31
0.0000000000
11
296.0315426520
21
222.5832532097
31
0.0000000000
11
296.0065576295
21
222.6808339223
31
0.0000000000
11
295.9357713897
21
222.7784146349
31
0.0000000000
11
295.9142675492
21
222.7992859274
31
0.0000000000
0
SPLINE
5
612
100
AcDbEntity
8
0
100
AcDbSpline
62
7
6
CONTINUOUS
70
0
71
3
72
8
73
4
74
2
42
0.0000001000
43
0.0000001000
44
0.0000000001
12
0.0745029204
22
-0.0816277288
32
0.0000000000
13
0.0711748212
23
-0.0845912590
33
0.0000000000
40
0.0000000000
40
0.0000000000
40
0.0000000000
40
0.0000000000
40
1.0000000000
40
1.0000000000
40
1.0000000000
40
1.0000000000
10
294.9683107703
20
207.0303223160
30
0.0000000000
10
294.9931450771
20
207.0031130731
30
0.0000000000
10
295.0174499114
20
206.9754175432
30
0.0000000000
10
295.0411748518
20
206.9472204569
30
0.0000000000
11
294.9683107703
21
207.0303223160
31
0.0000000000
11
295.0411748518
21
206.9472204569
31
0.0000000000
0
SPLINE
5
613
100
AcDbEntity
8
0
100
AcDbSpline
62
7
6
CONTINUOUS
70
0
71
3
72
9
73
5
74
3
42
0.0000001000
43
0.0000001000
44
0.0000000001
12
0.3420155171
22
-0.4064853651
32
0.0000000000
13
0.2337072931
23
-0.4762457358
33
0.0000000000
40
0.0000000000
40
0.0000000000
40
0.0000000000
40
0.0000000000
40
0.1914522374
40
1.0000000000
40
1.0000000000
40
1.0000000000
40
1.0000000000
10
295.0411748518
20
206.9472204569
30
0.0000000000
10
295.0630013971
20
206.9212796127
30
0.0000000000
10
295.1744429838
20
206.7835672181
30
0.0000000000
10
295.2714232526
20
206.6339491139
30
0.0000000000
10
295.3344110889
20
206.5055933058
30
0.0000000000
11
295.0411748518
21
206.9472204569
31
0.0000000000
11
295.1051428148
21
206.8681125292
31
0.0000000000
11
295.3344110889
21
206.5055933058
31
0.0000000000
0
SPLINE
5
614
100
AcDbEntity
8
0
100
AcDbSpline
62
7
6
CONTINUOUS
70
0
71
3
72
9
73
5
74
3
42
0.0000001000
43
0.0000001000
44
0.0000000001
12
0.0252689490
22
0.1362661948
32
0.0000000000
13
-0.0620121460
23
0.1256363501
33
0.0000000000
40
0.0000000000
40
0.0000000000
40
0.0000000000
40
0.0000000000
40
0.7531353063
40
1.0000000000
40
1.0000000000
40
1.0000000000
40
1.0000000000
10
300.1582812045
20
222.3256401408
30
0.0000000000
10
300.1646248504
20
222.3598491016
30
0.0000000000
10
300.1638379026
20
222.4081444767
30
0.0000000000
10
300.1467353045
20
222.4517524192
30
0.0000000000
10
300.1416324346
20
222.4620908122
30
0.0000000000
11
300.1582812045
21
222.3256401408
31
0.0000000000
11
300.1541850485
21
222.4299362341
31
0.0000000000
11
300.1416324346
21
222.4620908122
31
0.0000000000
0
SPLINE
5
615
100
AcDbEntity
8
0
100
AcDbSpline
62
7
6
CONTINUOUS
70
0
71
3
72
23
73
19
74
17
42
0.0000001000
43
0.0000001000
44
0.0000000001
12
3.4081015941
22
-6.9449839709
32
0.0000000000
13
-3.4081008376
23
6.9449843421
33
0.0000000000
40
0.0000000000
40
0.0000000000
40
0.0000000000
40
0.0000000000
40
0.0497101546
40
0.0961770180
40
0.1413534501
40
0.1881298178
40
0.2390519094
40
0.2959509519
40
0.3595441440
40
0.4292384226
40
0.5036289779
40
0.5808340993
40
0.6588430329
40
0.7361188459
40
0.8110577904
40
0.8812384906
40
0.9445546015
40
1.0000000000
40
1.0000000000
40
1.0000000000
40
1.0000000000
10
295.3344110889
20
206.5055933058
30
0.0000000000
10
295.3908835079
20
206.3905145635
30
0.0000000000
10
295.4768505892
20
206.1546527926
30
0.0000000000
10
295.5002919766
20
205.7847682073
30
0.0000000000
10
295.3982715444
20
205.4347249861
30
0.0000000000
10
295.1756976325
20
205.1327719978
30
0.0000000000
10
294.8514655552
20
204.8929229647
30
0.0000000000
10
294.4418251549
20
204.7186274482
30
0.0000000000
10
293.9605606500
20
204.6129585317
30
0.0000000000
10
293.4243279003
20
204.5789870315
30
0.0000000000
10
292.8535452536
20
204.6178526660
30
0.0000000000
10
292.2704301381
20
204.7277509528
30
0.0000000000
10
291.6962095663
20
204.9043434090
30
0.0000000000
10
291.1506225837
20
205.1417009903
30
0.0000000000
10
290.6542075644
20
205.4317783535
30
0.0000000000
10
290.2282974621
20
205.7626870547
30
0.0000000000
10
289.8920805991
20
206.1181180393
30
0.0000000000
10
289.7241231528
20
206.3772374978
30
0.0000000000
10
289.6611353165
20
206.5055933058
30
0.0000000000
11
295.3344110889
21
206.5055933058
31
0.0000000000
11
295.4610447200
21
206.1424759930
31
0.0000000000
11
295.4792337761
21
205.7834620108
31
0.0000000000
11
295.3812332382
21
205.4479919031
31
0.0000000000
11
295.1700747386
21
205.1541192569
31
0.0000000000
11
294.8569662519
21
204.9150535993
31
0.0000000000
11
294.4540416318
21
204.7378261217
31
0.0000000000
11
293.9744352262
21
204.6282429458
31
0.0000000000
11
293.4365447610
21
204.5911904571
31
0.0000000000
11
292.8622539940
21
204.6284196012
31
0.0000000000
11
292.2751511011
21
204.7381546357
31
0.0000000000
11
291.6983201040
21
204.9155366912
31
0.0000000000
11
291.1504861763
21
205.1548338764
31
0.0000000000
11
290.6508913367
21
205.4489458973
31
0.0000000000
11
290.2240069323
21
205.7844167494
31
0.0000000000
11
289.8904035906
21
206.1430740824
31
0.0000000000
11
289.6611353165
21
206.5055933058
31
0.0000000000
0
SPLINE
5
616
100
AcDbEntity
8
0
100
AcDbSpline
62
7
6
CONTINUOUS
70
0
71
3
72
14
73
10
74
8
42
0.0000001000
43
0.0000001000
44
0.0000000001
12
-1.1061648986
22
2.2541280763
32
0.0000000000
13
2.4469309518
23
0.5758056904
33
0.0000000000
40
0.0000000000
40
0.0000000000
40
0.0000000000
40
0.0000000000
40
0.1531573252
40
0.2963220483
40
0.4355109435
40
0.5796292513
40
0.7365205627
40
0.9118269004
40
1.0000000000
40
1.0000000000
40
1.0000000000
40
1.0000000000
10
289.6611353165
20
206.5055933058
30
0.0000000000
10
289.6046628974
20
206.6206720481
30
0.0000000000
10
289.5186958162
20
206.8565338190
30
0.0000000000
10
289.4952544287
20
207.2264184043
30
0.0000000000
10
289.5972748610
20
207.5764616255
30
0.0000000000
10
289.8198487728
20
207.8784146138
30
0.0000000000
10
290.1440808502
20
208.1182636469
30
0.0000000000
10
290.4701393266
20
208.2569963757
30
0.0000000000
10
290.6830467303
20
208.3159587158
30
0.0000000000
10
290.7549645592
20
208.3328822400
30
0.0000000000
11
289.6611353165
21
206.5055933058
31
0.0000000000
11
289.5345016854
21
206.8687106186
31
0.0000000000
11
289.5163126292
21
207.2277246008
31
0.0000000000
11
289.6143131672
21
207.5631947085
31
0.0000000000
11
289.8254716667
21
207.8570673547
31
0.0000000000
11
290.1385801535
21
208.0961330123
31
0.0000000000
11
290.5415047735
21
208.2733604899
31
0.0000000000
11
290.7549645592
21
208.3328822400
31
0.0000000000
0
SPLINE
5
617
100
AcDbEntity
8
0
100
AcDbSpline
62
7
6
CONTINUOUS
70
0
71
3
72
12
73
8
74
6
42
0.0000001000
43
0.0000001000
44
0.0000000001
12
0.1542764463
22
-0.3101206630
32
0.0000000000
13
0.2220010750
23
0.2589469302
33
0.0000000000
40
0.0000000000
40
0.0000000000
40
0.0000000000
40
0.0000000000
40
0.1173830471
40
0.3088128617
40
0.5291077638
40
0.7667251281
40
1.0000000000
40
1.0000000000
40
1.0000000000
40
1.0000000000
10
296.6508341695
20
212.0109007626
30
0.0000000000
10
296.6568706493
20
211.9987664598
30
0.0000000000
10
296.6793896255
20
211.9699787142
30
0.0000000000
10
296.7375428201
20
211.9459947625
30
0.0000000000
10
296.8129082046
20
211.9482254040
30
0.0000000000
10
296.8876395387
20
211.9763046618
30
0.0000000000
10
296.9304083795
20
212.0104992254
30
0.0000000000
10
296.9476708036
20
212.0306344961
30
0.0000000000
11
296.6508341695
21
212.0109007626
31
0.0000000000
11
296.6756403559
21
211.9790182592
31
0.0000000000
11
296.7349182439
21
211.9516434325
31
0.0000000000
11
296.8100557801
21
211.9521072596
31
0.0000000000
11
296.8860352872
21
211.9803170357
31
0.0000000000
11
296.9476708036
21
212.0306344961
31
0.0000000000
0
SPLINE
5
618
100
AcDbEntity
8
0
100
AcDbSpline
62
7
6
CONTINUOUS
70
0
71
3
72
8
73
4
74
2
42
0.0000001000
43
0.0000001000
44
0.0000000001
12
0.0745029204
22
-0.0816277288
32
0.0000000000
13
0.0711748212
23
-0.0845912590
33
0.0000000000
40
0.0000000000
40
0.0000000000
40
0.0000000000
40
0.0000000000
40
1.0000000000
40
1.0000000000
40
1.0000000000
40
1.0000000000
10
293.0312963016
20
210.9775450580
30
0.0000000000
10
293.0561306084
20
210.9503358150
30
0.0000000000
10
293.0804354427
20
210.9226402852
30
0.0000000000
10
293.1041603831
20
210.8944431988
30
0.0000000000
11
293.0312963016
21
210.9775450580
31
0.0000000000
11
293.1041603831
21
210.8944431988
31
0.0000000000
0
SPLINE
5
619
100
AcDbEntity
8
0
100
AcDbSpline
62
7
6
CONTINUOUS
70
0
71
3
72
9
73
5
74
3
42
0.0000001000
43
0.0000001000
44
0.0000000001
12
0.3420155171
22
-0.4064853651
32
0.0000000000
13
0.2337072931
23
-0.4762457358
33
0.0000000000
40
0.0000000000
40
0.0000000000
40
0.0000000000
40
0.0000000000
40
0.1914522374
40
1.0000000000
40
1.0000000000
40
1.0000000000
40
1.0000000000
10
293.1041603831
20
210.8944431988
30
0.0000000000
10
293.1259869284
20
210.8685023546
30
0.0000000000
10
293.2374285152
20
210.7307899601
30
0.0000000000
10
293.3344087839
20
210.5811718558
30
0.0000000000
10
293.3973966202
20
210.4528160478
30
0.0000000000
11
293.1041603831
21
210.8944431988
31
0.0000000000
11
293.1681283461
21
210.8153352712
31
0.0000000000
11
293.3973966202
21
210.4528160478
31
0.0000000000
0
SPLINE
5
61A
100
AcDbEntity
8
0
100
AcDbSpline
62
7
6
CONTINUOUS
70
0
71
3
72
22
73
18
74
16
42
0.0000001000
43
0.0000001000
44
0.0000000001
12
-6.9282685501
22
-0.0000001937
32
0.0000000000
13
6.7518797494
23
1.5853313050
33
0.0000000000
40
0.0000000000
40
0.0000000000
40
0.0000000000
40
0.0000000000
40
0.0802810166
40
0.1660075378
40
0.2541041049
40
0.3411231827
40
0.4241855371
40
0.5018873579
40
0.5732593544
40
0.6374834655
40
0.6947558728
40
0.7467395019
40
0.7966111947
40
0.8485184719
40
0.9060175393
40
0.9705036330
40
1.0000000000
40
1.0000000000
40
1.0000000000
40
1.0000000000
10
289.5631962827
20
212.4856357599
30
0.0000000000
10
289.3777934685
20
212.4856357547
30
0.0000000000
10
288.9941238413
20
212.5109139746
30
0.0000000000
10
288.4158030973
20
212.6173280360
30
0.0000000000
10
287.8381442156
20
212.7927062323
30
0.0000000000
10
287.2895511987
20
213.0295995252
30
0.0000000000
10
286.7934126191
20
213.3176281381
30
0.0000000000
10
286.3672180447
20
213.6456672960
30
0.0000000000
10
286.0249629962
20
214.0030654393
30
0.0000000000
10
285.7794209881
20
214.3784472616
30
0.0000000000
10
285.6419088408
20
214.7596328904
30
0.0000000000
10
285.6227466488
20
215.1331034262
30
0.0000000000
10
285.7282551548
20
215.4799110156
30
0.0000000000
10
285.9526373220
20
215.7795882463
30
0.0000000000
10
286.2808396350
20
216.0191054732
30
0.0000000000
10
286.6060492769
20
216.1547318922
30
0.0000000000
10
286.8157605092
20
216.2120127230
30
0.0000000000
10
286.8821458169
20
216.2275998944
30
0.0000000000
11
289.5631962827
21
212.4856357599
31
0.0000000000
11
289.0080773098
21
212.5204317010
31
0.0000000000
11
288.4237900459
21
212.6270562466
31
0.0000000000
11
287.8397347049
21
212.8042979731
31
0.0000000000
11
287.2866000522
21
213.0441318006
31
0.0000000000
11
286.7898178570
21
213.3346188430
31
0.0000000000
11
286.3649677549
21
213.6652415247
31
0.0000000000
11
286.0259464008
21
214.0252127768
31
0.0000000000
11
285.7868813192
21
214.4004979609
31
0.0000000000
11
285.6578990874
21
214.7757481806
31
0.0000000000
11
285.6438919799
21
215.1356322400
31
0.0000000000
11
285.7445158494
21
215.4661802748
31
0.0000000000
11
285.9565474919
21
215.7566532716
31
0.0000000000
11
286.2746848687
21
215.9964166008
31
0.0000000000
11
286.6849073959
21
216.1734113560
31
0.0000000000
11
286.8821458169
21
216.2275998944
31
0.0000000000
0
ENDSEC
0
SECTION
2
OBJECTS
0
DICTIONARY
5
61B
100
AcDbDictionary
3
ACAD_GROUP
350
61C
3
ACAD_MLINESTYLE
350
61D
0
DICTIONARY
5
61C
102
{ACAD_REACTORS
330
61B
102
}
100
AcDbDictionary
0
DICTIONARY
5
61D
102
{ACAD_REACTORS
330
61B
102
}
100
AcDbDictionary
3
STANDARD
350
61E
0
MLINESTYLE
5
61E
102
{ACAD_REACTORS
330
61D
102
}
100
AcDbMlineStyle
2
STANDARD
70
0
3

62
256
51
90.0
52
90.0
71
2
49
0.5
62
256
6
BYLAYER
49
-0.5
62
256
6
BYLAYER
0
ENDSEC
0
EOF
