999
DXF file: c-350781-1-aw-2d.dxf
999
Pro/ENGINEER 2016050 by Parametric Technology Corporation
  0
SECTION
  2
HEADER
  9
$ACADVER
  1
AC1014
  9
$DWGCODEPAGE
  3
ANSI_1252
  9
$EXTMAX
 10
420.0
 20
297.0
 30
0.0
  9
$EXTMIN
 10
0.0
 20
0.0
 30
0.0
  9
$LIMMIN
 10
0.0
 20
0.0
  9
$LIMMAX
 10
420.0
 20
297.0
  9
$VIEWCTR
 10
210.0
 20
148.5
  9
$VIEWSIZE
 40
297.0
  9
$CLAYER
  8
0
  9
$LTSCALE
 40
23.1
  9
$CELTYPE
  6
BYLAYER
  9
$DIMSCALE
 40
1.0
  9
$DIMASZ
 40
4.5
  9
$DIMEXO
 40
1.5
  9
$DIMDLI
 40
15.96
  9
$DIMEXE
 40
3.0
  9
$DIMCEN
 40
3.78
  9
$DIMLFAC
 40
0.5
  9
$DIMBLK
  1
_CLOSED
  9
$DIMALT
 70
0
  9
$DIMALTF
 40
0.0393700787
  9
$DIMTXT
 40
3.0
  9
$DIMTOL
 70
1
  9
$DIMLIM
 70
0
  9
$DIMTFAC
 40
1.0
  9
$DIMTP
 40
0.01
  9
$DIMTM
 40
0.01
  9
$DIMGAP
 40
0.625
  9
$AUNITS
 70
0
  9
$PDMODE
 70
3
  9
$PDSIZE
 40
0.3125
  9
$HANDSEED
  5
473
  9
$TILEMODE
 70
1
  9
$MEASUREMENT
 70
1
  0
ENDSEC
  0
SECTION
  2
CLASSES
  0
ENDSEC
  0
SECTION
  2
TABLES
  0
TABLE
  2
VPORT
  5
8
100
AcDbSymbolTable
 70
2
  0
VPORT
  5
1F4
100
AcDbSymbolTableRecord
100
AcDbViewportTableRecord
  2
*ACTIVE
 70
0
 10
0.0
 20
0.0
 11
1.0
 21
1.0
 12
210.0
 22
148.5
 13
0.0
 23
0.0
 14
1.0
 24
1.0
 15
0.0
 25
0.0
 16
0.0
 26
0.0
 36
1.0
 17
0.0
 27
0.0
 37
0.0
 40
297.0
 41
1.4141414141
 42
50.0
 43
0.0
 44
0.0
 50
0.0
 51
0.0
 71
0
 72
100
 73
1
 74
1
 75
0
 76
0
 77
0
 78
0
  0
ENDTAB
  0
TABLE
  2
LTYPE
  5
5
100
AcDbSymbolTable
 70
6
  0
LTYPE
  5
14
100
AcDbSymbolTableRecord
100
AcDbLinetypeTableRecord
  2
BYBLOCK
 70
0
  3

 72
65
 73
0
 40
0.0
  0
LTYPE
  5
15
100
AcDbSymbolTableRecord
100
AcDbLinetypeTableRecord
  2
BYLAYER
 70
0
  3

 72
65
 73
0
 40
0.0
  0
LTYPE
  5
16
100
AcDbSymbolTableRecord
100
AcDbLinetypeTableRecord
  2
CONTINUOUS
 70
64
  3
Solid line
 72
65
 73
0
 40
0.0
  0
LTYPE
  5
1F5
100
AcDbSymbolTableRecord
100
AcDbLinetypeTableRecord
  2
CENTER
 70
64
  3
____ _ ____ _ ____ _ ____ _ ____ _ ____ _ ____
 72
65
 73
4
 40
0.6
 49
0.375
 74
0
 49
-0.075
 74
0
 49
0.075
 74
0
 49
-0.075
 74
0
  0
LTYPE
  5
1F6
100
AcDbSymbolTableRecord
100
AcDbLinetypeTableRecord
  2
HIDDEN
 70
64
  3
- - - - - - - - - - - - - - - - - - - -
 72
65
 73
2
 40
0.2
 49
0.1
 74
0
 49
-0.1
 74
0
  0
LTYPE
  5
1F7
100
AcDbSymbolTableRecord
100
AcDbLinetypeTableRecord
  2
PHANTOM
 70
64
  3
_____ _ _ _____ _ _ _____ _ _ _____
 72
65
 73
6
 40
0.8
 49
0.45
 74
0
 49
-0.05
 74
0
 49
0.1
 74
0
 49
-0.05
 74
0
 49
0.1
 74
0
 49
-0.05
 74
0
  0
LTYPE
  5
1F8
100
AcDbSymbolTableRecord
100
AcDbLinetypeTableRecord
  2
DOT
 70
64
  3
. . . . . . . . . . . . . . . . . . . .
 72
65
 73
2
 40
0.2
 49
0.1
 74
0
 49
-0.1
 74
0
  0
LTYPE
  5
1F9
100
AcDbSymbolTableRecord
100
AcDbLinetypeTableRecord
  2
DASHED
 70
64
  3
- - - - - - - - - - - - - - - - - - - -
 72
65
 73
2
 40
0.2
 49
0.1
 74
0
 49
-0.1
 74
0
  0
ENDTAB
  0
TABLE
  2
LAYER
  5
2
100
AcDbSymbolTable
 70
36
  0
LAYER
  5
10
100
AcDbSymbolTableRecord
100
AcDbLayerTableRecord
  2
0
 70
0
 62
7
  6
CONTINUOUS
  0
LAYER
  5
1FA
100
AcDbSymbolTableRecord
100
AcDbLayerTableRecord
  2
DEFAULT_1
 70
0
 62
7
  6
CENTER
  0
LAYER
  5
1FB
100
AcDbSymbolTableRecord
100
AcDbLayerTableRecord
  2
DEFAULT_2
 70
0
 62
8
  6
HIDDEN
  0
LAYER
  5
1FC
100
AcDbSymbolTableRecord
100
AcDbLayerTableRecord
  2
DEFAULT_3
 70
0
 62
7
  6
PHANTOM
  0
LAYER
  5
1FD
100
AcDbSymbolTableRecord
100
AcDbLayerTableRecord
  2
DRAFT_ENTITY
 70
0
 62
7
  6
CONTINUOUS
  0
LAYER
  5
1FE
100
AcDbSymbolTableRecord
100
AcDbLayerTableRecord
  2
DRAFT_GEOM
 70
0
 62
7
  6
CONTINUOUS
  0
LAYER
  5
1FF
100
AcDbSymbolTableRecord
100
AcDbLayerTableRecord
  2
DRAFT_GRP
 70
0
 62
7
  6
CONTINUOUS
  0
LAYER
  5
200
100
AcDbSymbolTableRecord
100
AcDbLayerTableRecord
  2
DRAFT_OTHER
 70
0
 62
7
  6
CONTINUOUS
  0
LAYER
  5
201
100
AcDbSymbolTableRecord
100
AcDbLayerTableRecord
  2
DTM_ALL
 70
0
 62
7
  6
CONTINUOUS
  0
LAYER
  5
202
100
AcDbSymbolTableRecord
100
AcDbLayerTableRecord
  2
DTM_AXIS
 70
0
 62
7
  6
CONTINUOUS
  0
LAYER
  5
203
100
AcDbSymbolTableRecord
100
AcDbLayerTableRecord
  2
DTM_MAJOR
 70
0
 62
7
  6
CONTINUOUS
  0
LAYER
  5
204
100
AcDbSymbolTableRecord
100
AcDbLayerTableRecord
  2
NOTE
 70
0
 62
7
  6
CONTINUOUS
  0
ENDTAB
  0
TABLE
  2
STYLE
  5
3
100
AcDbSymbolTable
 70
1
  0
STYLE
  5
11
100
AcDbSymbolTableRecord
100
AcDbTextStyleTableRecord
  2
STANDARD
 70
0
 40
0.0
 41
0.95
 50
0.0
 71
0
 42
0.2
  3
txt
  4

  0
STYLE
  5
205
100
AcDbSymbolTableRecord
100
AcDbTextStyleTableRecord
  2
TEXTSTYLE_1
 70
0
 40
0.0
 41
0.8
 50
0.0
 71
0
 42
0.2
  3
gdt
  4

  0
STYLE
  5
206
100
AcDbSymbolTableRecord
100
AcDbTextStyleTableRecord
  2
TEXTSTYLE_2
 70
0
 40
0.0
 41
0.8
 50
0.0
 71
0
 42
0.2
  3
txt
  4

  0
ENDTAB
  0
TABLE
  2
VIEW
  5
6
100
AcDbSymbolTable
 70
0
  0
ENDTAB
  0
TABLE
  2
UCS
  5
7
100
AcDbSymbolTable
 70
0
  0
ENDTAB
  0
TABLE
  2
APPID
  5
9
100
AcDbSymbolTable
 70
1
  0
APPID
  5
207
100
AcDbSymbolTableRecord
100
AcDbRegAppTableRecord
  2
ACAD
 70
0
  0
ENDTAB
  0
TABLE
  2
BLOCK_RECORD
  5
1
100
AcDbSymbolTable
 70
0
  0
BLOCK_RECORD
  5
1F
100
AcDbSymbolTableRecord
100
AcDbBlockTableRecord
  2
*MODEL_SPACE
  0
BLOCK_RECORD
  5
1B
100
AcDbSymbolTableRecord
100
AcDbBlockTableRecord
  2
*PAPER_SPACE
  0
BLOCK_RECORD
  5
208
100
AcDbSymbolTableRecord
100
AcDbBlockTableRecord
  2
TE_CONNECTIVITY_BL0
  0
ENDTAB
  0
TABLE
  2
DIMSTYLE
  5
A
100
AcDbSymbolTable
 70
1
  0
DIMSTYLE
105
209
100
AcDbSymbolTableRecord
100
AcDbDimStyleTableRecord
  2
STANDARD
 70
0
  3

  4

  5
_CLOSED
  6
_CLOSED
  7
_CLOSED
 40
1.0
 41
4.5
 42
1.5
 43
0.38
 44
3.0
 45
0.0
 46
0.0
 47
0.01
 48
0.01
140
3.0
141
0.09
142
0.0
143
25.4
144
1.0
145
0.0
146
1.0
147
0.625
 71
1.0
 72
0.0
 73
1
 74
1
 75
0
 76
0
 77
0
 78
8
170
0
171
2
172
0
173
0
174
0
175
0
176
0
177
0
178
0
270
2
271
2
272
2
273
2
274
2
275
0
280
0
281
0
282
0
283
1
284
8
285
0
286
0
287
3
288
0
340
11
  0
ENDTAB
  0
ENDSEC
  0
SECTION
  2
BLOCKS
  0
BLOCK
  5
20
100
AcDbEntity
  8
0
100
AcDbBlockBegin
  2
*MODEL_SPACE
 70
0
 10
0.0
 20
0.0
 30
0.0
  3
*MODEL_SPACE
  1

  0
ENDBLK
  5
21
100
AcDbEntity
  8
0
100
AcDbBlockEnd
  0
BLOCK
  5
1C
100
AcDbEntity
  8
0
100
AcDbBlockBegin
  2
*PAPER_SPACE
 70
0
 10
0.0
 20
0.0
 30
0.0
  3
*PAPER_SPACE
  1

  0
ENDBLK
  5
1D
100
AcDbEntity
  8
0
100
AcDbBlockEnd
  0
BLOCK
  5
20A
100
AcDbEntity
  8
0
100
AcDbBlockBegin
 62
2
  6
CONTINUOUS
  2
TE_CONNECTIVITY_BL0
 70
64
 10
315.0
 20
36.0
  3
TE_CONNECTIVITY_BL0
  1

  0
LINE
  5
20B
100
AcDbEntity
  8
0
100
AcDbLine
 62
2
  6
CONTINUOUS
 10
303.4442621268
 20
31.975
 11
311.2931594095
 21
31.975
  0
LINE
  5
20C
100
AcDbEntity
  8
0
100
AcDbLine
 62
2
  6
CONTINUOUS
 10
316.3319775183
 20
31.975
 11
318.4139164045
 21
31.975
  0
LINE
  5
20D
100
AcDbEntity
  8
0
100
AcDbLine
 62
2
  6
CONTINUOUS
 10
321.4865647769
 20
31.975
 11
327.8504615515
 21
31.975
  0
LINE
  5
20E
100
AcDbEntity
  8
0
100
AcDbLine
 62
2
  6
CONTINUOUS
 10
328.3338139487
 20
33.7788957044
 11
324.0176749741
 21
33.7788957044
  0
LINE
  5
20F
100
AcDbEntity
  8
0
100
AcDbLine
 62
2
  6
CONTINUOUS
 10
311.2931594095
 20
34.2561326711
 11
303.4442621268
 21
34.2561326711
  0
LINE
  5
210
100
AcDbEntity
  8
0
100
AcDbLine
 62
2
  6
CONTINUOUS
 10
301.1331145522
 20
34.8594322328
 11
308.9820118349
 21
34.8594322328
  0
LINE
  5
211
100
AcDbEntity
  8
0
100
AcDbLine
 62
2
  6
CONTINUOUS
 10
316.0776474878
 20
40.0249971366
 11
315.5942950906
 21
38.2211014322
  0
LINE
  5
212
100
AcDbEntity
  8
0
100
AcDbLine
 62
2
  6
CONTINUOUS
 10
324.4045177413
 20
35.2226125659
 11
328.2576583666
 21
35.2226125659
  0
LINE
  5
213
100
AcDbEntity
  8
0
100
AcDbLine
 62
2
  6
CONTINUOUS
 10
328.6887347141
 20
36.8314113971
 11
324.8355940889
 21
36.8314113971
  0
LINE
  5
214
100
AcDbEntity
  8
0
100
AcDbLine
 62
2
  6
CONTINUOUS
 10
308.9820118349
 20
37.1405649038
 11
301.1331145522
 21
37.1405649038
  0
LINE
  5
215
100
AcDbEntity
  8
0
100
AcDbLine
 62
2
  6
CONTINUOUS
 10
304.9810251894
 20
37.7438644655
 11
312.8299224721
 21
37.7438644655
  0
LINE
  5
216
100
AcDbEntity
  8
0
100
AcDbLine
 62
2
  6
CONTINUOUS
 10
318.0056153529
 20
38.2211014322
 11
316.3319775183
 21
31.975
  0
LINE
  5
217
100
AcDbEntity
  8
0
100
AcDbLine
 62
2
  6
CONTINUOUS
 10
315.5942950906
 20
38.2211014322
 11
318.0056153529
 21
38.2211014322
  0
LINE
  5
218
100
AcDbEntity
  8
0
100
AcDbLine
 62
2
  6
CONTINUOUS
 10
320.0875542391
 20
38.2211014322
 11
322.4988745014
 21
38.2211014322
  0
LINE
  5
219
100
AcDbEntity
  8
0
100
AcDbLine
 62
2
  6
CONTINUOUS
 10
325.2079604115
 20
38.2211014322
 11
329.5240993861
 21
38.2211014322
  0
LINE
  5
21A
100
AcDbEntity
  8
0
100
AcDbLine
 62
2
  6
CONTINUOUS
 10
330.0074517833
 20
40.0249971366
 11
323.6435550087
 21
40.0249971366
  0
LINE
  5
21B
100
AcDbEntity
  8
0
100
AcDbLine
 62
2
  6
CONTINUOUS
 10
322.9822268986
 20
40.0249971366
 11
316.0776474878
 21
40.0249971366
  0
LINE
  5
21C
100
AcDbEntity
  8
0
100
AcDbLine
 62
2
  6
CONTINUOUS
 10
312.8299224721
 20
40.0249971366
 11
304.9810251894
 21
40.0249971366
  0
LINE
  5
21D
100
AcDbEntity
  8
0
100
AcDbLine
 62
2
  6
CONTINUOUS
 10
318.4139164045
 20
31.975
 11
320.0875542391
 21
38.2211014322
  0
LINE
  5
21E
100
AcDbEntity
  8
0
100
AcDbLine
 62
2
  6
CONTINUOUS
 10
322.4988745014
 20
38.2211014322
 11
322.9822268986
 21
40.0249971366
  0
LINE
  5
21F
100
AcDbEntity
  8
0
100
AcDbLine
 62
2
  6
CONTINUOUS
 10
323.6435550087
 20
40.0249971366
 11
321.4865647769
 21
31.975
  0
LINE
  5
220
100
AcDbEntity
  8
0
100
AcDbLine
 62
2
  6
CONTINUOUS
 10
324.0176749741
 20
33.7788957044
 11
324.4045177413
 21
35.2226125659
  0
LINE
  5
221
100
AcDbEntity
  8
0
100
AcDbLine
 62
2
  6
CONTINUOUS
 10
324.8355940889
 20
36.8314113971
 11
325.2079604115
 21
38.2211014322
  0
LINE
  5
222
100
AcDbEntity
  8
0
100
AcDbLine
 62
2
  6
CONTINUOUS
 10
328.2576583666
 20
35.2226125659
 11
328.6887347141
 21
36.8314113971
  0
LINE
  5
223
100
AcDbEntity
  8
0
100
AcDbLine
 62
2
  6
CONTINUOUS
 10
327.8504615515
 20
31.975
 11
328.3338139487
 21
33.7788957044
  0
LINE
  5
224
100
AcDbEntity
  8
0
100
AcDbLine
 62
2
  6
CONTINUOUS
 10
329.5240993861
 20
38.2211014322
 11
330.0074517833
 21
40.0249971366
  0
ARC
  5
225
100
AcDbEntity
  8
0
100
AcDbCircle
 62
2
  6
CONTINUOUS
 10
304.9810251894
 20
38.884430801
 40
1.1405663355
100
AcDbArc
 50
90.0
 51
270.0
  0
ARC
  5
226
100
AcDbEntity
  8
0
100
AcDbCircle
 62
2
  6
CONTINUOUS
 10
312.8299224721
 20
38.884430801
 40
1.1405663355
100
AcDbArc
 50
270.0
 51
90.0
  0
ARC
  5
227
100
AcDbEntity
  8
0
100
AcDbCircle
 62
2
  6
CONTINUOUS
 10
311.2931594095
 20
33.1155663355
 40
1.1405663355
100
AcDbArc
 50
270.0
 51
90.0
  0
ARC
  5
228
100
AcDbEntity
  8
0
100
AcDbCircle
 62
2
  6
CONTINUOUS
 10
303.4442621268
 20
33.1155663355
 40
1.1405663355
100
AcDbArc
 50
90.0
 51
270.0
  0
ARC
  5
229
100
AcDbEntity
  8
0
100
AcDbCircle
 62
2
  6
CONTINUOUS
 10
308.9820118349
 20
35.9999985683
 40
1.1405663355
100
AcDbArc
 50
270.0
 51
90.0
  0
ARC
  5
22A
100
AcDbEntity
  8
0
100
AcDbCircle
 62
2
  6
CONTINUOUS
 10
301.1331145522
 20
35.9999985683
 40
1.1405663355
100
AcDbArc
 50
90.0
 51
270.0
  0
LWPOLYLINE
  5
22B
100
AcDbEntity
  8
0
100
AcDbPolyline
 62
2
  6
CONTINUOUS
 90
50
 70
0
 10
304.8321514087
 20
40.0152434035
 10
304.9810251894
 20
40.025
 10
312.8299224721
 20
40.025
 10
312.9787962529
 20
40.0152434035
 10
313.125122762
 20
39.9861346138
 10
313.2663983123
 20
39.9381727309
 10
313.4002056399
 20
39.8721869044
 10
313.5242552644
 20
39.7893041338
 10
313.6364246624
 20
39.6909331688
 10
313.7347945842
 20
39.5787645087
 10
313.8176818934
 20
39.4547140529
 10
313.883668365
 20
39.3209070004
 10
313.9316249522
 20
39.1796295507
 10
313.9607311046
 20
39.0333047528
 10
313.9704888077
 20
38.8844281057
 10
313.9607311046
 20
38.7355595087
 10
313.9316249522
 20
38.5892266607
 10
313.883668365
 20
38.447957261
 10
313.8176818934
 20
38.3141502086
 10
313.7347945842
 20
38.1900997527
 10
313.6364246624
 20
38.0779310926
 10
313.5242552644
 20
37.9795601276
 10
313.4002056399
 20
37.8966693071
 10
313.2663983123
 20
37.8306834805
 10
313.125122762
 20
37.7827296476
 10
312.9787962529
 20
37.7536208579
 10
304.9810251894
 20
37.7438642614
 10
304.8321514087
 20
37.7536208579
 10
304.6858248996
 20
37.7827296476
 10
304.5445493493
 20
37.8306834805
 10
304.4107420217
 20
37.8966693071
 10
304.2866923972
 20
37.9795601276
 10
304.1745229992
 20
38.0779310926
 10
304.0761530773
 20
38.1900997527
 10
303.9932657682
 20
38.3141502086
 10
303.9272792966
 20
38.447957261
 10
303.8793227094
 20
38.5892266607
 10
303.850216557
 20
38.7355595087
 10
303.8404588539
 20
38.8844281057
 10
303.850216557
 20
39.0333047528
 10
303.8793227094
 20
39.1796295507
 10
303.9272792966
 20
39.3209070004
 10
303.9932657682
 20
39.4547140529
 10
304.0761530773
 20
39.5787645087
 10
304.1745229992
 20
39.6909331688
 10
304.2866923972
 20
39.7893041338
 10
304.4107420217
 20
39.8721869044
 10
304.5445493493
 20
39.9381727309
 10
304.6858248996
 20
39.9861346138
 10
304.8321514087
 20
40.0152434035
  0
HATCH
  5
22C
100
AcDbEntity
  8
0
100
AcDbHatch
 62
2
  6
CONTINUOUS
 10
0.0
 20
0.0
 30
0.0
210
0.0
220
0.0
230
1.0
  2
SOLID
 70
1
 71
1
 91
1
 92
1
 93
49
 72
1
 10
304.8321514087
 20
40.0152434035
 11
304.9810251894
 21
40.025
 72
1
 10
304.9810251894
 20
40.025
 11
312.8299224721
 21
40.025
 72
1
 10
312.8299224721
 20
40.025
 11
312.9787962529
 21
40.0152434035
 72
1
 10
312.9787962529
 20
40.0152434035
 11
313.125122762
 21
39.9861346138
 72
1
 10
313.125122762
 20
39.9861346138
 11
313.2663983123
 21
39.9381727309
 72
1
 10
313.2663983123
 20
39.9381727309
 11
313.4002056399
 21
39.8721869044
 72
1
 10
313.4002056399
 20
39.8721869044
 11
313.5242552644
 21
39.7893041338
 72
1
 10
313.5242552644
 20
39.7893041338
 11
313.6364246624
 21
39.6909331688
 72
1
 10
313.6364246624
 20
39.6909331688
 11
313.7347945842
 21
39.5787645087
 72
1
 10
313.7347945842
 20
39.5787645087
 11
313.8176818934
 21
39.4547140529
 72
1
 10
313.8176818934
 20
39.4547140529
 11
313.883668365
 21
39.3209070004
 72
1
 10
313.883668365
 20
39.3209070004
 11
313.9316249522
 21
39.1796295507
 72
1
 10
313.9316249522
 20
39.1796295507
 11
313.9607311046
 21
39.0333047528
 72
1
 10
313.9607311046
 20
39.0333047528
 11
313.9704888077
 21
38.8844281057
 72
1
 10
313.9704888077
 20
38.8844281057
 11
313.9607311046
 21
38.7355595087
 72
1
 10
313.9607311046
 20
38.7355595087
 11
313.9316249522
 21
38.5892266607
 72
1
 10
313.9316249522
 20
38.5892266607
 11
313.883668365
 21
38.447957261
 72
1
 10
313.883668365
 20
38.447957261
 11
313.8176818934
 21
38.3141502086
 72
1
 10
313.8176818934
 20
38.3141502086
 11
313.7347945842
 21
38.1900997527
 72
1
 10
313.7347945842
 20
38.1900997527
 11
313.6364246624
 21
38.0779310926
 72
1
 10
313.6364246624
 20
38.0779310926
 11
313.5242552644
 21
37.9795601276
 72
1
 10
313.5242552644
 20
37.9795601276
 11
313.4002056399
 21
37.8966693071
 72
1
 10
313.4002056399
 20
37.8966693071
 11
313.2663983123
 21
37.8306834805
 72
1
 10
313.2663983123
 20
37.8306834805
 11
313.125122762
 21
37.7827296476
 72
1
 10
313.125122762
 20
37.7827296476
 11
312.9787962529
 21
37.7536208579
 72
1
 10
312.9787962529
 20
37.7536208579
 11
304.9810251894
 21
37.7438642614
 72
1
 10
304.9810251894
 20
37.7438642614
 11
304.8321514087
 21
37.7536208579
 72
1
 10
304.8321514087
 20
37.7536208579
 11
304.6858248996
 21
37.7827296476
 72
1
 10
304.6858248996
 20
37.7827296476
 11
304.5445493493
 21
37.8306834805
 72
1
 10
304.5445493493
 20
37.8306834805
 11
304.4107420217
 21
37.8966693071
 72
1
 10
304.4107420217
 20
37.8966693071
 11
304.2866923972
 21
37.9795601276
 72
1
 10
304.2866923972
 20
37.9795601276
 11
304.1745229992
 21
38.0779310926
 72
1
 10
304.1745229992
 20
38.0779310926
 11
304.0761530773
 21
38.1900997527
 72
1
 10
304.0761530773
 20
38.1900997527
 11
303.9932657682
 21
38.3141502086
 72
1
 10
303.9932657682
 20
38.3141502086
 11
303.9272792966
 21
38.447957261
 72
1
 10
303.9272792966
 20
38.447957261
 11
303.8793227094
 21
38.5892266607
 72
1
 10
303.8793227094
 20
38.5892266607
 11
303.850216557
 21
38.7355595087
 72
1
 10
303.850216557
 20
38.7355595087
 11
303.8404588539
 21
38.8844281057
 72
1
 10
303.8404588539
 20
38.8844281057
 11
303.850216557
 21
39.0333047528
 72
1
 10
303.850216557
 20
39.0333047528
 11
303.8793227094
 21
39.1796295507
 72
1
 10
303.8793227094
 20
39.1796295507
 11
303.9272792966
 21
39.3209070004
 72
1
 10
303.9272792966
 20
39.3209070004
 11
303.9932657682
 21
39.4547140529
 72
1
 10
303.9932657682
 20
39.4547140529
 11
304.0761530773
 21
39.5787645087
 72
1
 10
304.0761530773
 20
39.5787645087
 11
304.1745229992
 21
39.6909331688
 72
1
 10
304.1745229992
 20
39.6909331688
 11
304.2866923972
 21
39.7893041338
 72
1
 10
304.2866923972
 20
39.7893041338
 11
304.4107420217
 21
39.8721869044
 72
1
 10
304.4107420217
 20
39.8721869044
 11
304.5445493493
 21
39.9381727309
 72
1
 10
304.5445493493
 20
39.9381727309
 11
304.6858248996
 21
39.9861346138
 72
1
 10
304.6858248996
 20
39.9861346138
 11
304.8321514087
 21
40.0152434035
 97
1
330
22B
 75
0
 76
1
 98
1
 10
0.0
 20
0.0
  0
LWPOLYLINE
  5
22D
100
AcDbEntity
  8
0
100
AcDbPolyline
 62
2
  6
CONTINUOUS
 90
9
 70
0
 10
315.5942950906
 20
38.2211002917
 10
316.0776474878
 20
40.025
 10
322.9822268986
 20
40.025
 10
322.4988745014
 20
38.2211002917
 10
320.0875542391
 20
38.2211002917
 10
318.4139164045
 20
31.9750028634
 10
316.3319775183
 20
31.9750028634
 10
318.0056153529
 20
38.2211002917
 10
315.5942950906
 20
38.2211002917
  0
HATCH
  5
22E
100
AcDbEntity
  8
0
100
AcDbHatch
 62
2
  6
CONTINUOUS
 10
0.0
 20
0.0
 30
0.0
210
0.0
220
0.0
230
1.0
  2
SOLID
 70
1
 71
1
 91
1
 92
1
 93
8
 72
1
 10
315.5942950906
 20
38.2211002917
 11
316.0776474878
 21
40.025
 72
1
 10
316.0776474878
 20
40.025
 11
322.9822268986
 21
40.025
 72
1
 10
322.9822268986
 20
40.025
 11
322.4988745014
 21
38.2211002917
 72
1
 10
322.4988745014
 20
38.2211002917
 11
320.0875542391
 21
38.2211002917
 72
1
 10
320.0875542391
 20
38.2211002917
 11
318.4139164045
 21
31.9750028634
 72
1
 10
318.4139164045
 20
31.9750028634
 11
316.3319775183
 21
31.9750028634
 72
1
 10
316.3319775183
 20
31.9750028634
 11
318.0056153529
 21
38.2211002917
 72
1
 10
318.0056153529
 20
38.2211002917
 11
315.5942950906
 21
38.2211002917
 97
1
330
22D
 75
0
 76
1
 98
1
 10
0.0
 20
0.0
  0
LWPOLYLINE
  5
22F
100
AcDbEntity
  8
0
100
AcDbPolyline
 62
2
  6
CONTINUOUS
 90
6
 70
0
 10
330.0074517833
 20
40.025
 10
329.5240993861
 20
38.2211002917
 10
325.2079604115
 20
38.2211002917
 10
321.4865647769
 20
31.9750028634
 10
323.6435550087
 20
40.025
 10
330.0074517833
 20
40.025
  0
HATCH
  5
230
100
AcDbEntity
  8
0
100
AcDbHatch
 62
2
  6
CONTINUOUS
 10
0.0
 20
0.0
 30
0.0
210
0.0
220
0.0
230
1.0
  2
SOLID
 70
1
 71
1
 91
1
 92
1
 93
5
 72
1
 10
330.0074517833
 20
40.025
 11
329.5240993861
 21
38.2211002917
 72
1
 10
329.5240993861
 20
38.2211002917
 11
325.2079604115
 21
38.2211002917
 72
1
 10
325.2079604115
 20
38.2211002917
 11
321.4865647769
 21
31.9750028634
 72
1
 10
321.4865647769
 20
31.9750028634
 11
323.6435550087
 21
40.025
 72
1
 10
323.6435550087
 20
40.025
 11
330.0074517833
 21
40.025
 97
1
330
22F
 75
0
 76
1
 98
1
 10
0.0
 20
0.0
  0
SOLID
  5
231
100
AcDbEntity
  8
0
100
AcDbTrace
 62
2
  6
CONTINUOUS
 10
312.9787962529
 20
37.7536208579
 11
312.8299224721
 21
37.7438642614
 12
304.9810251894
 22
37.7438642614
 13
304.9810251894
 23
37.7438642614
  0
LWPOLYLINE
  5
232
100
AcDbEntity
  8
0
100
AcDbPolyline
 62
2
  6
CONTINUOUS
 90
50
 70
0
 10
300.9842407715
 20
37.1308086795
 10
301.1331145522
 20
37.140565276
 10
308.9820118349
 20
37.140565276
 10
309.1308856156
 20
37.1308086795
 10
309.2772121247
 20
37.1016998898
 10
309.418487675
 20
37.0537460569
 10
309.5522950027
 20
36.9877602304
 10
309.6763446272
 20
36.9048694098
 10
309.7885140251
 20
36.8064984448
 10
309.886883947
 20
36.6943297847
 10
309.9697712562
 20
36.5702793289
 10
310.0357577278
 20
36.4364722765
 10
310.083714315
 20
36.2952028767
 10
310.1128204673
 20
36.1488700288
 10
310.1225781704
 20
36.0000014317
 10
310.1128204673
 20
35.8511247847
 10
310.083714315
 20
35.7047999867
 10
310.0357577278
 20
35.563522537
 10
309.9697712562
 20
35.4297154846
 10
309.886883947
 20
35.3056650287
 10
309.7885140251
 20
35.1934963686
 10
309.6763446272
 20
35.0951254036
 10
309.5522950027
 20
35.0122426331
 10
309.418487675
 20
34.9462487565
 10
309.2772121247
 20
34.8982949236
 10
309.1308856156
 20
34.8691861339
 10
301.1331145522
 20
34.8594295374
 10
300.9842407715
 20
34.8691861339
 10
300.8379142624
 20
34.8982949236
 10
300.6966387121
 20
34.9462487565
 10
300.5628313844
 20
35.0122426331
 10
300.4387817599
 20
35.0951254036
 10
300.326612362
 20
35.1934963686
 10
300.2282424401
 20
35.3056650287
 10
300.1453551309
 20
35.4297154846
 10
300.0793686593
 20
35.563522537
 10
300.0314120721
 20
35.7047999867
 10
300.0023059198
 20
35.8511247847
 10
299.9925482167
 20
36.0000014317
 10
300.0023059198
 20
36.1488700288
 10
300.0314120721
 20
36.2952028767
 10
300.0793686593
 20
36.4364722765
 10
300.1453551309
 20
36.5702793289
 10
300.2282424401
 20
36.6943297847
 10
300.326612362
 20
36.8064984448
 10
300.4387817599
 20
36.9048694098
 10
300.5628313844
 20
36.9877602304
 10
300.6966387121
 20
37.0537460569
 10
300.8379142624
 20
37.1016998898
 10
300.9842407715
 20
37.1308086795
  0
HATCH
  5
233
100
AcDbEntity
  8
0
100
AcDbHatch
 62
2
  6
CONTINUOUS
 10
0.0
 20
0.0
 30
0.0
210
0.0
220
0.0
230
1.0
  2
SOLID
 70
1
 71
1
 91
1
 92
1
 93
49
 72
1
 10
300.9842407715
 20
37.1308086795
 11
301.1331145522
 21
37.140565276
 72
1
 10
301.1331145522
 20
37.140565276
 11
308.9820118349
 21
37.140565276
 72
1
 10
308.9820118349
 20
37.140565276
 11
309.1308856156
 21
37.1308086795
 72
1
 10
309.1308856156
 20
37.1308086795
 11
309.2772121247
 21
37.1016998898
 72
1
 10
309.2772121247
 20
37.1016998898
 11
309.418487675
 21
37.0537460569
 72
1
 10
309.418487675
 20
37.0537460569
 11
309.5522950027
 21
36.9877602304
 72
1
 10
309.5522950027
 20
36.9877602304
 11
309.6763446272
 21
36.9048694098
 72
1
 10
309.6763446272
 20
36.9048694098
 11
309.7885140251
 21
36.8064984448
 72
1
 10
309.7885140251
 20
36.8064984448
 11
309.886883947
 21
36.6943297847
 72
1
 10
309.886883947
 20
36.6943297847
 11
309.9697712562
 21
36.5702793289
 72
1
 10
309.9697712562
 20
36.5702793289
 11
310.0357577278
 21
36.4364722765
 72
1
 10
310.0357577278
 20
36.4364722765
 11
310.083714315
 21
36.2952028767
 72
1
 10
310.083714315
 20
36.2952028767
 11
310.1128204673
 21
36.1488700288
 72
1
 10
310.1128204673
 20
36.1488700288
 11
310.1225781704
 21
36.0000014317
 72
1
 10
310.1225781704
 20
36.0000014317
 11
310.1128204673
 21
35.8511247847
 72
1
 10
310.1128204673
 20
35.8511247847
 11
310.083714315
 21
35.7047999867
 72
1
 10
310.083714315
 20
35.7047999867
 11
310.0357577278
 21
35.563522537
 72
1
 10
310.0357577278
 20
35.563522537
 11
309.9697712562
 21
35.4297154846
 72
1
 10
309.9697712562
 20
35.4297154846
 11
309.886883947
 21
35.3056650287
 72
1
 10
309.886883947
 20
35.3056650287
 11
309.7885140251
 21
35.1934963686
 72
1
 10
309.7885140251
 20
35.1934963686
 11
309.6763446272
 21
35.0951254036
 72
1
 10
309.6763446272
 20
35.0951254036
 11
309.5522950027
 21
35.0122426331
 72
1
 10
309.5522950027
 20
35.0122426331
 11
309.418487675
 21
34.9462487565
 72
1
 10
309.418487675
 20
34.9462487565
 11
309.2772121247
 21
34.8982949236
 72
1
 10
309.2772121247
 20
34.8982949236
 11
309.1308856156
 21
34.8691861339
 72
1
 10
309.1308856156
 20
34.8691861339
 11
301.1331145522
 21
34.8594295374
 72
1
 10
301.1331145522
 20
34.8594295374
 11
300.9842407715
 21
34.8691861339
 72
1
 10
300.9842407715
 20
34.8691861339
 11
300.8379142624
 21
34.8982949236
 72
1
 10
300.8379142624
 20
34.8982949236
 11
300.6966387121
 21
34.9462487565
 72
1
 10
300.6966387121
 20
34.9462487565
 11
300.5628313844
 21
35.0122426331
 72
1
 10
300.5628313844
 20
35.0122426331
 11
300.4387817599
 21
35.0951254036
 72
1
 10
300.4387817599
 20
35.0951254036
 11
300.326612362
 21
35.1934963686
 72
1
 10
300.326612362
 20
35.1934963686
 11
300.2282424401
 21
35.3056650287
 72
1
 10
300.2282424401
 20
35.3056650287
 11
300.1453551309
 21
35.4297154846
 72
1
 10
300.1453551309
 20
35.4297154846
 11
300.0793686593
 21
35.563522537
 72
1
 10
300.0793686593
 20
35.563522537
 11
300.0314120721
 21
35.7047999867
 72
1
 10
300.0314120721
 20
35.7047999867
 11
300.0023059198
 21
35.8511247847
 72
1
 10
300.0023059198
 20
35.8511247847
 11
299.9925482167
 21
36.0000014317
 72
1
 10
299.9925482167
 20
36.0000014317
 11
300.0023059198
 21
36.1488700288
 72
1
 10
300.0023059198
 20
36.1488700288
 11
300.0314120721
 21
36.2952028767
 72
1
 10
300.0314120721
 20
36.2952028767
 11
300.0793686593
 21
36.4364722765
 72
1
 10
300.0793686593
 20
36.4364722765
 11
300.1453551309
 21
36.5702793289
 72
1
 10
300.1453551309
 20
36.5702793289
 11
300.2282424401
 21
36.6943297847
 72
1
 10
300.2282424401
 20
36.6943297847
 11
300.326612362
 21
36.8064984448
 72
1
 10
300.326612362
 20
36.8064984448
 11
300.4387817599
 21
36.9048694098
 72
1
 10
300.4387817599
 20
36.9048694098
 11
300.5628313844
 21
36.9877602304
 72
1
 10
300.5628313844
 20
36.9877602304
 11
300.6966387121
 21
37.0537460569
 72
1
 10
300.6966387121
 20
37.0537460569
 11
300.8379142624
 21
37.1016998898
 72
1
 10
300.8379142624
 20
37.1016998898
 11
300.9842407715
 21
37.1308086795
 97
1
330
232
 75
0
 76
1
 98
1
 10
0.0
 20
0.0
  0
LWPOLYLINE
  5
234
100
AcDbEntity
  8
0
100
AcDbPolyline
 62
2
  6
CONTINUOUS
 90
7
 70
0
 10
328.6887347141
 20
36.831413186
 10
328.2576583666
 20
35.2226132082
 10
324.4045177413
 20
35.2226132082
 10
321.4865647769
 20
31.9750028634
 10
325.2079604115
 20
38.2211002917
 10
324.8355940889
 20
36.831413186
 10
328.6887347141
 20
36.831413186
  0
HATCH
  5
235
100
AcDbEntity
  8
0
100
AcDbHatch
 62
2
  6
CONTINUOUS
 10
0.0
 20
0.0
 30
0.0
210
0.0
220
0.0
230
1.0
  2
SOLID
 70
1
 71
1
 91
1
 92
1
 93
6
 72
1
 10
328.6887347141
 20
36.831413186
 11
328.2576583666
 21
35.2226132082
 72
1
 10
328.2576583666
 20
35.2226132082
 11
324.4045177413
 21
35.2226132082
 72
1
 10
324.4045177413
 20
35.2226132082
 11
321.4865647769
 21
31.9750028634
 72
1
 10
321.4865647769
 20
31.9750028634
 11
325.2079604115
 21
38.2211002917
 72
1
 10
325.2079604115
 20
38.2211002917
 11
324.8355940889
 21
36.831413186
 72
1
 10
324.8355940889
 20
36.831413186
 11
328.6887347141
 21
36.831413186
 97
1
330
234
 75
0
 76
1
 98
1
 10
0.0
 20
0.0
  0
SOLID
  5
236
100
AcDbEntity
  8
0
100
AcDbTrace
 62
2
  6
CONTINUOUS
 10
309.1308856156
 20
34.8691861339
 11
308.9820118349
 21
34.8594295374
 12
301.1331145522
 22
34.8594295374
 13
301.1331145522
 23
34.8594295374
  0
LWPOLYLINE
  5
237
100
AcDbEntity
  8
0
100
AcDbPolyline
 62
2
  6
CONTINUOUS
 90
50
 70
0
 10
303.2953883461
 20
34.2463739555
 10
303.4442621268
 20
34.256130552
 10
311.2931594095
 20
34.256130552
 10
311.4420331903
 20
34.2463739555
 10
311.5883596994
 20
34.2172651658
 10
311.7296352496
 20
34.1693113329
 10
311.8634425773
 20
34.1033255064
 10
311.9874922018
 20
34.0204346859
 10
312.0996615998
 20
33.9220717708
 10
312.1980315216
 20
33.8099031107
 10
312.2809188308
 20
33.6858526549
 10
312.3469053024
 20
33.5520456025
 10
312.3948618896
 20
33.4107681527
 10
312.4239680419
 20
33.2644433548
 10
312.4337257451
 20
33.1155667077
 10
312.4239680419
 20
32.9666900607
 10
312.3948618896
 20
32.8203652627
 10
312.3469053024
 20
32.679087813
 10
312.2809188308
 20
32.5452807606
 10
312.1980315216
 20
32.4212303047
 10
312.0996615998
 20
32.3090616446
 10
311.9874922018
 20
32.2106906796
 10
311.8634425773
 20
32.1278079091
 10
311.7296352496
 20
32.0618220825
 10
311.5883596994
 20
32.0138601996
 10
311.4420331903
 20
31.98475946
 10
303.4442621268
 20
31.9750028634
 10
303.2953883461
 20
31.98475946
 10
303.149061837
 20
32.0138601996
 10
303.0077862867
 20
32.0618220825
 10
302.8739789591
 20
32.1278079091
 10
302.7499293345
 20
32.2106906796
 10
302.6377599366
 20
32.3090616446
 10
302.5393900147
 20
32.4212303047
 10
302.4565027056
 20
32.5452807606
 10
302.390516234
 20
32.679087813
 10
302.3425596467
 20
32.8203652627
 10
302.3134534944
 20
32.9666900607
 10
302.3036957913
 20
33.1155667077
 10
302.3134534944
 20
33.2644433548
 10
302.3425596467
 20
33.4107681527
 10
302.390516234
 20
33.5520456025
 10
302.4565027056
 20
33.6858526549
 10
302.5393900147
 20
33.8099031107
 10
302.6377599366
 20
33.9220717708
 10
302.7499293345
 20
34.0204346859
 10
302.8739789591
 20
34.1033255064
 10
303.0077862867
 20
34.1693113329
 10
303.149061837
 20
34.2172651658
 10
303.2953883461
 20
34.2463739555
  0
HATCH
  5
238
100
AcDbEntity
  8
0
100
AcDbHatch
 62
2
  6
CONTINUOUS
 10
0.0
 20
0.0
 30
0.0
210
0.0
220
0.0
230
1.0
  2
SOLID
 70
1
 71
1
 91
1
 92
1
 93
49
 72
1
 10
303.2953883461
 20
34.2463739555
 11
303.4442621268
 21
34.256130552
 72
1
 10
303.4442621268
 20
34.256130552
 11
311.2931594095
 21
34.256130552
 72
1
 10
311.2931594095
 20
34.256130552
 11
311.4420331903
 21
34.2463739555
 72
1
 10
311.4420331903
 20
34.2463739555
 11
311.5883596994
 21
34.2172651658
 72
1
 10
311.5883596994
 20
34.2172651658
 11
311.7296352496
 21
34.1693113329
 72
1
 10
311.7296352496
 20
34.1693113329
 11
311.8634425773
 21
34.1033255064
 72
1
 10
311.8634425773
 20
34.1033255064
 11
311.9874922018
 21
34.0204346859
 72
1
 10
311.9874922018
 20
34.0204346859
 11
312.0996615998
 21
33.9220717708
 72
1
 10
312.0996615998
 20
33.9220717708
 11
312.1980315216
 21
33.8099031107
 72
1
 10
312.1980315216
 20
33.8099031107
 11
312.2809188308
 21
33.6858526549
 72
1
 10
312.2809188308
 20
33.6858526549
 11
312.3469053024
 21
33.5520456025
 72
1
 10
312.3469053024
 20
33.5520456025
 11
312.3948618896
 21
33.4107681527
 72
1
 10
312.3948618896
 20
33.4107681527
 11
312.4239680419
 21
33.2644433548
 72
1
 10
312.4239680419
 20
33.2644433548
 11
312.4337257451
 21
33.1155667077
 72
1
 10
312.4337257451
 20
33.1155667077
 11
312.4239680419
 21
32.9666900607
 72
1
 10
312.4239680419
 20
32.9666900607
 11
312.3948618896
 21
32.8203652627
 72
1
 10
312.3948618896
 20
32.8203652627
 11
312.3469053024
 21
32.679087813
 72
1
 10
312.3469053024
 20
32.679087813
 11
312.2809188308
 21
32.5452807606
 72
1
 10
312.2809188308
 20
32.5452807606
 11
312.1980315216
 21
32.4212303047
 72
1
 10
312.1980315216
 20
32.4212303047
 11
312.0996615998
 21
32.3090616446
 72
1
 10
312.0996615998
 20
32.3090616446
 11
311.9874922018
 21
32.2106906796
 72
1
 10
311.9874922018
 20
32.2106906796
 11
311.8634425773
 21
32.1278079091
 72
1
 10
311.8634425773
 20
32.1278079091
 11
311.7296352496
 21
32.0618220825
 72
1
 10
311.7296352496
 20
32.0618220825
 11
311.5883596994
 21
32.0138601996
 72
1
 10
311.5883596994
 20
32.0138601996
 11
311.4420331903
 21
31.98475946
 72
1
 10
311.4420331903
 20
31.98475946
 11
303.4442621268
 21
31.9750028634
 72
1
 10
303.4442621268
 20
31.9750028634
 11
303.2953883461
 21
31.98475946
 72
1
 10
303.2953883461
 20
31.98475946
 11
303.149061837
 21
32.0138601996
 72
1
 10
303.149061837
 20
32.0138601996
 11
303.0077862867
 21
32.0618220825
 72
1
 10
303.0077862867
 20
32.0618220825
 11
302.8739789591
 21
32.1278079091
 72
1
 10
302.8739789591
 20
32.1278079091
 11
302.7499293345
 21
32.2106906796
 72
1
 10
302.7499293345
 20
32.2106906796
 11
302.6377599366
 21
32.3090616446
 72
1
 10
302.6377599366
 20
32.3090616446
 11
302.5393900147
 21
32.4212303047
 72
1
 10
302.5393900147
 20
32.4212303047
 11
302.4565027056
 21
32.5452807606
 72
1
 10
302.4565027056
 20
32.5452807606
 11
302.390516234
 21
32.679087813
 72
1
 10
302.390516234
 20
32.679087813
 11
302.3425596467
 21
32.8203652627
 72
1
 10
302.3425596467
 20
32.8203652627
 11
302.3134534944
 21
32.9666900607
 72
1
 10
302.3134534944
 20
32.9666900607
 11
302.3036957913
 21
33.1155667077
 72
1
 10
302.3036957913
 20
33.1155667077
 11
302.3134534944
 21
33.2644433548
 72
1
 10
302.3134534944
 20
33.2644433548
 11
302.3425596467
 21
33.4107681527
 72
1
 10
302.3425596467
 20
33.4107681527
 11
302.390516234
 21
33.5520456025
 72
1
 10
302.390516234
 20
33.5520456025
 11
302.4565027056
 21
33.6858526549
 72
1
 10
302.4565027056
 20
33.6858526549
 11
302.5393900147
 21
33.8099031107
 72
1
 10
302.5393900147
 20
33.8099031107
 11
302.6377599366
 21
33.9220717708
 72
1
 10
302.6377599366
 20
33.9220717708
 11
302.7499293345
 21
34.0204346859
 72
1
 10
302.7499293345
 20
34.0204346859
 11
302.8739789591
 21
34.1033255064
 72
1
 10
302.8739789591
 20
34.1033255064
 11
303.0077862867
 21
34.1693113329
 72
1
 10
303.0077862867
 20
34.1693113329
 11
303.149061837
 21
34.2172651658
 72
1
 10
303.149061837
 20
34.2172651658
 11
303.2953883461
 21
34.2463739555
 97
1
330
237
 75
0
 76
1
 98
1
 10
0.0
 20
0.0
  0
SOLID
  5
239
100
AcDbEntity
  8
0
100
AcDbTrace
 62
2
  6
CONTINUOUS
 10
311.4420331903
 20
31.98475946
 11
311.2931594095
 21
31.9750028634
 12
303.4442621268
 22
31.9750028634
 13
303.4442621268
 23
31.9750028634
  0
LWPOLYLINE
  5
23A
100
AcDbEntity
  8
0
100
AcDbPolyline
 62
2
  6
CONTINUOUS
 90
6
 70
0
 10
328.3338139487
 20
33.7788945218
 10
327.8504615515
 20
31.9750028634
 10
321.4865647769
 20
31.9750028634
 10
324.4045177413
 20
35.2226132082
 10
324.0176749741
 20
33.7788945218
 10
328.3338139487
 20
33.7788945218
  0
HATCH
  5
23B
100
AcDbEntity
  8
0
100
AcDbHatch
 62
2
  6
CONTINUOUS
 10
0.0
 20
0.0
 30
0.0
210
0.0
220
0.0
230
1.0
  2
SOLID
 70
1
 71
1
 91
1
 92
1
 93
5
 72
1
 10
328.3338139487
 20
33.7788945218
 11
327.8504615515
 21
31.9750028634
 72
1
 10
327.8504615515
 20
31.9750028634
 11
321.4865647769
 21
31.9750028634
 72
1
 10
321.4865647769
 20
31.9750028634
 11
324.4045177413
 21
35.2226132082
 72
1
 10
324.4045177413
 20
35.2226132082
 11
324.0176749741
 21
33.7788945218
 72
1
 10
324.0176749741
 20
33.7788945218
 11
328.3338139487
 21
33.7788945218
 97
1
330
23A
 75
0
 76
1
 98
1
 10
0.0
 20
0.0
  0
ENDBLK
  5
23C
100
AcDbEntity
  8
0
  6
BYBLOCK
 62
0
100
AcDbBlockEnd
  0
ENDSEC
  0
SECTION
  2
ENTITIES
  0
TEXT
  5
23D
100
AcDbEntity
  8
0
100
AcDbText
 62
2
  6
CONTINUOUS
 10
273.9447944556
 20
16.2331743479
  7
STANDARD
 40
1.5200002147
  1
SIZE
 41
0.95
 72
0
100
AcDbText
  0
TEXT
  5
23E
100
AcDbEntity
  8
0
100
AcDbText
 62
2
  6
CONTINUOUS
 10
287.5144966041
 20
16.2331819773
  7
STANDARD
 40
1.5200002147
  1
DRAWING NO
 41
0.95
 72
0
100
AcDbText
  0
TEXT
  5
23F
100
AcDbEntity
  8
0
100
AcDbText
 62
2
  6
CONTINUOUS
 10
354.2964949762
 20
16.2330905319
  7
STANDARD
 40
1.52
  1
VERSION
 41
0.95
 72
0
100
AcDbText
  0
TEXT
  5
240
100
AcDbEntity
  8
0
100
AcDbText
 62
2
  6
CONTINUOUS
 10
274.4447944556
 20
25.5657549143
  7
STANDARD
 40
1.5200002147
  1
NAME
 41
0.95
 72
0
100
AcDbText
  0
TEXT
  5
241
100
AcDbEntity
  8
0
100
AcDbText
 62
2
  6
CONTINUOUS
 10
276.2800492314
 20
10.3485471083
  7
STANDARD
 40
4.9999998868
  1
A3
 41
0.95
 72
0
100
AcDbText
  0
TEXT
  5
242
100
AcDbEntity
  8
0
100
AcDbText
 62
2
  6
CONTINUOUS
 10
297.3906714731
 20
21.1920805906
  7
TEXTSTYLE_2
 40
3.968
  1
CUSTOMER VIEW MODEL DRAWING
 41
0.8
 72
1
 11
340.2450714731
 21
21.1920805906
100
AcDbText
  0
TEXT
  5
243
100
AcDbEntity
  8
0
100
AcDbText
 62
2
  6
CONTINUOUS
 10
347.0299084682
 20
34.4224093775
  7
TEXTSTYLE_2
 40
2.5
  1
TE Connectivity Ltd.
 41
0.8
 72
0
100
AcDbText
  0
TEXT
  5
244
100
AcDbEntity
  8
0
100
AcDbText
 62
2
  6
CONTINUOUS
 10
369.5635822821
 20
16.2739597356
  7
STANDARD
 40
1.52
  1
DATE
 41
0.95
 72
0
100
AcDbText
  0
TEXT
  5
245
100
AcDbEntity
  8
0
100
AcDbText
 62
2
  6
CONTINUOUS
 10
174.6476862981
 20
23.8368677885
  7
TEXTSTYLE_2
 40
2.286
  1
THIS IS NOT A CONTROLLED DRAWING.
 41
0.8
 72
0
100
AcDbText
  0
TEXT
  5
246
100
AcDbEntity
  8
0
100
AcDbText
 62
2
  6
CONTINUOUS
 10
174.6476862981
 20
20.4078677885
  7
TEXTSTYLE_2
 40
2.286
  1
THIS IS A REPRESENTATION OF THE CUSTOMER VIEW MODEL.
 41
0.8
 72
0
100
AcDbText
  0
TEXT
  5
247
100
AcDbEntity
  8
0
100
AcDbText
 62
2
  6
CONTINUOUS
 10
174.6476862981
 20
16.9788677885
  7
TEXTSTYLE_2
 40
2.286
  1
    THIS IS NOT THE DOCUMENT OF SALE.
 41
0.8
 72
0
100
AcDbText
  0
TEXT
  5
248
100
AcDbEntity
  8
0
100
AcDbText
 62
2
  6
CONTINUOUS
 10
174.6476862981
 20
13.5498677885
  7
TEXTSTYLE_2
 40
2.286
  1
SEE THE CUSTOMER DRAWING FOR DESIGN PURPOSES.
 41
0.8
 72
0
100
AcDbText
  0
TEXT
  5
249
100
AcDbEntity
  8
0
100
AcDbText
 62
2
  6
CONTINUOUS
 10
22.7512107444
 20
282.4829655254
  7
TEXTSTYLE_2
 40
2.5
  1
c
 41
0.8
 72
0
100
AcDbText
  0
INSERT
  5
24A
100
AcDbEntity
  8
0
100
AcDbBlockReference
 62
2
  6
CONTINUOUS
  2
TE_CONNECTIVITY_BL0
 10
315.0
 20
36.0
  0
LINE
  5
24B
100
AcDbEntity
  8
0
100
AcDbLine
 62
2
  6
CONTINUOUS
 10
287.2090159416
 20
18.7593422635
 11
409.2090159416
 21
18.7593422635
  0
LINE
  5
24C
100
AcDbEntity
  8
0
100
AcDbLine
 62
2
  6
CONTINUOUS
 10
287.2090159416
 20
18.7593422635
 11
287.2090159416
 21
9.2342522635
  0
LINE
  5
24D
100
AcDbEntity
  8
0
100
AcDbLine
 62
2
  6
CONTINUOUS
 10
287.2090159416
 20
9.2342522635
 11
409.2090159416
 21
9.2342522635
  0
LINE
  5
24E
100
AcDbEntity
  8
0
100
AcDbLine
 62
2
  6
CONTINUOUS
 10
353.3340159416
 20
18.7593422635
 11
353.3340159416
 21
9.2342522635
  0
LINE
  5
24F
100
AcDbEntity
  8
0
100
AcDbLine
 62
2
  6
CONTINUOUS
 10
367.9590159416
 20
18.7593422635
 11
367.9590159416
 21
9.2342522635
  0
LINE
  5
250
100
AcDbEntity
  8
0
100
AcDbLine
 62
2
  6
CONTINUOUS
 10
409.2090159416
 20
18.7593422635
 11
409.2090159416
 21
9.2342522635
  0
TEXT
  5
251
100
AcDbEntity
  8
0
100
AcDbText
 62
2
  6
CONTINUOUS
 10
307.5515159416
 20
12.4067972635
  7
TEXTSTYLE_2
 40
3.18
  1
C-350781-1
 41
0.8
 72
1
 11
320.2715159416
 21
12.4067972635
100
AcDbText
  0
TEXT
  5
252
100
AcDbEntity
  8
0
100
AcDbText
 62
2
  6
CONTINUOUS
 10
358.1025159416
 20
12.4067972635
  7
TEXTSTYLE_2
 40
3.18
  1
AW
 41
0.8
 72
1
 11
360.6465159416
 21
12.4067972635
100
AcDbText
  0
TEXT
  5
253
100
AcDbEntity
  8
0
100
AcDbText
 62
2
  6
CONTINUOUS
 10
377.1360159416
 20
12.4067972635
  7
TEXTSTYLE_2
 40
3.18
  1
26-Feb-18
 41
0.8
 72
1
 11
388.5840159416
 21
12.4067972635
100
AcDbText
  0
LINE
  5
254
100
AcDbEntity
  8
0
100
AcDbLine
 62
2
  6
CONTINUOUS
 10
17.7838797455
 20
287.0843544705
 11
132.7838797455
 21
287.0843544705
  0
LINE
  5
255
100
AcDbEntity
  8
0
100
AcDbLine
 62
2
  6
CONTINUOUS
 10
17.7838797455
 20
287.0843544705
 11
17.7838797455
 21
272.0843544705
  0
LINE
  5
256
100
AcDbEntity
  8
0
100
AcDbLine
 62
2
  6
CONTINUOUS
 10
17.7838797455
 20
272.0843544705
 11
132.7838797455
 21
272.0843544705
  0
LINE
  5
257
100
AcDbEntity
  8
0
100
AcDbLine
 62
2
  6
CONTINUOUS
 10
132.7838797455
 20
287.0843544705
 11
132.7838797455
 21
272.0843544705
  0
TEXT
  5
258
100
AcDbEntity
  8
0
100
AcDbText
 62
2
  6
CONTINUOUS
 10
17.8463797455
 20
282.0843544705
  7
TEXTSTYLE_2
 40
2.5
  1
  
 41
0.8
 72
0
100
AcDbText
  0
TEXT
  5
259
100
AcDbEntity
  8
0
100
AcDbText
 62
2
  6
CONTINUOUS
 10
21.8463797455
 20
282.0843544705
  7
TEXTSTYLE_1
 40
2.5
  1
e
 41
1.0
 72
0
100
AcDbText
  0
TEXT
  5
25A
100
AcDbEntity
  8
0
100
AcDbText
 62
2
  6
CONTINUOUS
 10
26.4297130788
 20
282.0843544705
  7
TEXTSTYLE_2
 40
2.5
  1
Copyright 
 41
0.8
 72
0
100
AcDbText
  0
TEXT
  5
25B
100
AcDbEntity
  8
0
100
AcDbText
 62
2
  6
CONTINUOUS
 10
46.4297130788
 20
282.0843544705
  7
TEXTSTYLE_2
 40
2.5
  1
26-Feb-18
 41
0.8
 72
0
100
AcDbText
  0
TEXT
  5
25C
100
AcDbEntity
  8
0
100
AcDbText
 62
2
  6
CONTINUOUS
 10
64.4297130788
 20
282.0843544705
  7
TEXTSTYLE_2
 40
2.5
  1
 TE Connectivity Ltd.
 41
0.8
 72
0
100
AcDbText
  0
TEXT
  5
25D
100
AcDbEntity
  8
0
100
AcDbText
 62
2
  6
CONTINUOUS
 10
17.8463797455
 20
278.3343544705
  7
TEXTSTYLE_2
 40
2.5
  1
 
 41
0.8
 72
0
100
AcDbText
  0
TEXT
  5
25E
100
AcDbEntity
  8
0
100
AcDbText
 62
2
  6
CONTINUOUS
 10
17.8463797455
 20
274.5843544705
  7
TEXTSTYLE_2
 40
2.5
  1
  family of companies.  All Rights Reserved.
 41
0.8
 72
0
100
AcDbText
  0
LINE
  5
25F
100
AcDbEntity
  8
0
100
AcDbLine
 62
7
  6
CONTINUOUS
 10
0.0
 20
0.0
 11
0.0
 21
297.0
  0
LINE
  5
260
100
AcDbEntity
  8
0
100
AcDbLine
 62
7
  6
CONTINUOUS
 10
17.7838797455
 20
9.2342568143
 11
17.7838797455
 21
287.0843544705
  0
LINE
  5
261
100
AcDbEntity
  8
0
100
AcDbLine
 62
7
  6
CONTINUOUS
 10
0.0
 20
0.0
 11
420.0
 21
0.0
  0
LINE
  5
262
100
AcDbEntity
  8
0
100
AcDbLine
 62
7
  6
CONTINUOUS
 10
409.2090201263
 20
9.2342568143
 11
17.7838797455
 21
9.2342568143
  0
LINE
  5
263
100
AcDbEntity
  8
0
100
AcDbLine
 62
7
  6
CONTINUOUS
 10
30.4841666107
 20
9.234348367
 11
17.784490097
 21
9.234348367
  0
LINE
  5
264
100
AcDbEntity
  8
0
100
AcDbLine
 62
7
  6
CONTINUOUS
 10
409.2090159416
 20
18.7593422635
 11
273.4388174896
 21
18.7593422635
  0
LINE
  5
265
100
AcDbEntity
  8
DRAFT_ENTITY
100
AcDbLine
 62
7
  6
CONTINUOUS
 10
409.2091421966
 20
28.2845192655
 11
273.4386343841
 21
28.2845192655
  0
LINE
  5
266
100
AcDbEntity
  8
0
100
AcDbLine
 62
7
  6
CONTINUOUS
 10
409.2091421966
 20
44.1593056424
 11
273.4386343841
 21
44.1593056424
  0
LINE
  5
267
100
AcDbEntity
  8
0
100
AcDbLine
 62
7
  6
CONTINUOUS
 10
273.4386343841
 20
44.1593056424
 11
273.4386343841
 21
9.2342568143
  0
LINE
  5
268
100
AcDbEntity
  8
0
100
AcDbLine
 62
7
  6
CONTINUOUS
 10
287.2079097655
 20
18.7593422635
 11
287.2079097655
 21
9.2342568143
  0
LINE
  5
269
100
AcDbEntity
  8
0
100
AcDbLine
 62
7
  6
CONTINUOUS
 10
353.3344447689
 20
18.7593808926
 11
353.3344447689
 21
9.2342954434
  0
LINE
  5
26A
100
AcDbEntity
  8
0
100
AcDbLine
 62
7
  6
CONTINUOUS
 10
17.7838797455
 20
287.0843544705
 11
409.208898056
 21
287.0843544705
  0
LINE
  5
26B
100
AcDbEntity
  8
0
100
AcDbLine
 62
7
  6
CONTINUOUS
 10
0.0
 20
297.0
 11
420.0
 21
297.0
  0
LINE
  5
26C
100
AcDbEntity
  8
0
100
AcDbLine
 62
7
  6
CONTINUOUS
 10
367.9586057154
 20
9.2337890544
 11
367.9586057154
 21
18.7587829509
  0
LINE
  5
26D
100
AcDbEntity
  8
0
100
AcDbLine
 62
7
  6
CONTINUOUS
 10
409.208898056
 20
287.0843544705
 11
409.2090201263
 21
9.2342568143
  0
LINE
  5
26E
100
AcDbEntity
  8
0
100
AcDbLine
 62
7
  6
CONTINUOUS
 10
420.0
 20
0.0
 11
420.0
 21
297.0
  0
LINE
  5
26F
100
AcDbEntity
  8
0
100
AcDbLine
 62
7
  6
CONTINUOUS
 10
263.7571021469
 20
206.5196964921
 11
264.2994661981
 21
205.4144741243
  0
LINE
  5
270
100
AcDbEntity
  8
0
100
AcDbLine
 62
7
  6
CONTINUOUS
 10
272.279965809
 20
189.1519164275
 11
271.7376017578
 21
190.2571387952
  0
LINE
  5
271
100
AcDbEntity
  8
0
100
AcDbLine
 62
7
  6
CONTINUOUS
 10
262.227645339
 20
210.6551072386
 11
263.7571021469
 21
206.5196964921
  0
LINE
  5
272
100
AcDbEntity
  8
0
100
AcDbLine
 62
7
  6
CONTINUOUS
 10
264.6375644545
 20
226.0182706384
 11
264.0227165417
 21
224.0286202153
  0
LINE
  5
273
100
AcDbEntity
  8
0
100
AcDbLine
 62
7
  6
CONTINUOUS
 10
262.5023101408
 20
217.4377367386
 11
262.1948861844
 21
216.4429115271
  0
LINE
  5
274
100
AcDbEntity
  8
0
100
AcDbLine
 62
7
  6
CONTINUOUS
 10
297.1710904952
 20
188.728854369
 11
289.9186554872
 21
188.728854369
  0
LINE
  5
275
100
AcDbEntity
  8
0
100
AcDbLine
 62
7
  6
CONTINUOUS
 10
314.3945630033
 20
189.1519164275
 11
296.9634819102
 21
189.1519164275
  0
LINE
  5
276
100
AcDbEntity
  8
0
100
AcDbLine
 62
7
  6
CONTINUOUS
 10
289.7110469021
 20
189.1519164275
 11
272.279965809
 21
189.1519164275
  0
LINE
  5
277
100
AcDbEntity
  8
0
100
AcDbLine
 62
7
  6
CONTINUOUS
 10
298.5650268508
 20
190.0597776581
 11
287.2184753059
 21
190.0597776581
  0
LINE
  5
278
100
AcDbEntity
  8
0
100
AcDbLine
 62
7
  6
CONTINUOUS
 10
266.9408821561
 20
202.7672817881
 11
265.6418295837
 21
205.4144741243
  0
LINE
  5
279
100
AcDbEntity
  8
0
100
AcDbLine
 62
7
  6
CONTINUOUS
 10
267.6033900488
 20
202.927752445
 11
266.3830849919
 21
205.4144741243
  0
LINE
  5
27A
100
AcDbEntity
  8
0
100
AcDbLine
 62
7
  6
CONTINUOUS
 10
266.6408034842
 20
205.4144741243
 11
274.0789390438
 21
190.2571387952
  0
LINE
  5
27B
100
AcDbEntity
  8
0
100
AcDbLine
 62
7
  6
CONTINUOUS
 10
269.7680665146
 20
201.7830292017
 11
267.88916248
 21
205.6118352614
  0
LINE
  5
27C
100
AcDbEntity
  8
0
100
AcDbLine
 62
7
  6
CONTINUOUS
 10
271.7376017578
 20
190.2571387952
 11
270.2081449499
 21
194.3925495417
  0
LINE
  5
27D
100
AcDbEntity
  8
0
100
AcDbLine
 62
7
  6
CONTINUOUS
 10
262.1948861844
 20
216.4429115271
 11
262.9897073343
 21
213.1211430494
  0
LINE
  5
27E
100
AcDbEntity
  8
0
100
AcDbLine
 62
7
  6
CONTINUOUS
 10
266.3603695834
 20
224.0286202153
 11
262.227645339
 21
210.6551072386
  0
LINE
  5
27F
100
AcDbEntity
  8
0
100
AcDbLine
 62
7
  6
CONTINUOUS
 10
313.8521989521
 20
190.2571387952
 11
311.510861666
 21
190.2571387952
  0
LINE
  5
280
100
AcDbEntity
  8
0
100
AcDbLine
 62
7
  6
CONTINUOUS
 10
274.0789390438
 20
190.2571387952
 11
271.7376017578
 21
190.2571387952
  0
LINE
  5
281
100
AcDbEntity
  8
0
100
AcDbLine
 62
7
  6
CONTINUOUS
 10
297.5652456354
 20
191.4871934661
 11
288.0902902216
 21
191.4871934661
  0
LINE
  5
282
100
AcDbEntity
  8
0
100
AcDbLine
 62
7
  6
CONTINUOUS
 10
288.3284823031
 20
192.25798404
 11
297.1869967775
 21
192.25798404
  0
LINE
  5
283
100
AcDbEntity
  8
0
100
AcDbLine
 62
7
  6
CONTINUOUS
 10
270.9498037453
 20
202.578889371
 11
269.461450932
 21
205.6118352614
  0
LINE
  5
284
100
AcDbEntity
  8
0
100
AcDbLine
 62
7
  6
CONTINUOUS
 10
270.0778918714
 20
205.6118352614
 11
271.1879958267
 21
203.3496799449
  0
LINE
  5
285
100
AcDbEntity
  8
0
100
AcDbLine
 62
7
  6
CONTINUOUS
 10
264.0227165417
 20
224.0286202153
 11
264.5650805929
 21
222.9233978476
  0
LINE
  5
286
100
AcDbEntity
  8
0
100
AcDbLine
 62
7
  6
CONTINUOUS
 10
267.6033900488
 20
202.927752445
 11
267.7029721825
 21
203.2500006474
  0
LINE
  5
287
100
AcDbEntity
  8
0
100
AcDbLine
 62
7
  6
CONTINUOUS
 10
281.4417500156
 20
247.0092613317
 11
276.9225626245
 21
232.3851519923
  0
LINE
  5
288
100
AcDbEntity
  8
0
100
AcDbLine
 62
7
  6
CONTINUOUS
 10
281.1146180594
 20
201.7830292017
 11
280.4247590881
 21
202.5788895109
  0
LINE
  5
289
100
AcDbEntity
  8
0
100
AcDbLine
 62
7
  6
CONTINUOUS
 10
306.2809226006
 20
200.9146401985
 11
307.2167206662
 21
200.9146401985
  0
LINE
  5
28A
100
AcDbEntity
  8
0
100
AcDbLine
 62
7
  6
CONTINUOUS
 10
278.9364063458
 20
205.6118352614
 11
280.424759159
 21
202.578889371
  0
LINE
  5
28B
100
AcDbEntity
  8
0
100
AcDbLine
 62
7
  6
CONTINUOUS
 10
279.2357140248
 20
205.6118352614
 11
281.1146180594
 21
201.7830292017
  0
LINE
  5
28C
100
AcDbEntity
  8
0
100
AcDbLine
 62
7
  6
CONTINUOUS
 10
287.2184753059
 20
190.0597776581
 11
285.3395712713
 21
193.8885837178
  0
LINE
  5
28D
100
AcDbEntity
  8
0
100
AcDbLine
 62
7
  6
CONTINUOUS
 10
288.0902902216
 20
191.4871934661
 11
286.521308502
 21
194.6844438871
  0
LINE
  5
28E
100
AcDbEntity
  8
0
100
AcDbLine
 62
7
  6
CONTINUOUS
 10
270.9498037453
 20
202.578889371
 11
271.1879958267
 21
203.3496799449
  0
LINE
  5
28F
100
AcDbEntity
  8
0
100
AcDbLine
 62
7
  6
CONTINUOUS
 10
286.3976398423
 20
249.496145631
 11
281.1099477917
 21
232.3851519923
  0
LINE
  5
290
100
AcDbEntity
  8
0
100
AcDbLine
 62
7
  6
CONTINUOUS
 10
270.2081449499
 20
194.3925495417
 11
270.9196715801
 21
196.6950526995
  0
LINE
  5
291
100
AcDbEntity
  8
0
100
AcDbLine
 62
7
  6
CONTINUOUS
 10
320.6526268803
 20
209.5432912547
 11
317.743763269
 21
208.7214845085
  0
LINE
  5
292
100
AcDbEntity
  8
0
100
AcDbLine
 62
7
  6
CONTINUOUS
 10
306.5968760362
 20
202.1777514759
 11
305.6610779706
 21
202.1777514759
  0
LINE
  5
293
100
AcDbEntity
  8
0
100
AcDbLine
 62
7
  6
CONTINUOUS
 10
296.6861228162
 20
193.8885837178
 11
295.9962639158
 21
194.6844438871
  0
LINE
  5
294
100
AcDbEntity
  8
0
100
AcDbLine
 62
7
  6
CONTINUOUS
 10
289.9186554872
 20
188.728854369
 11
289.7110469021
 21
189.1519164275
  0
LINE
  5
295
100
AcDbEntity
  8
0
100
AcDbLine
 62
7
  6
CONTINUOUS
 10
281.18818324
 20
206.5196964921
 11
280.980574655
 21
206.9427585505
  0
LINE
  5
296
100
AcDbEntity
  8
0
100
AcDbLine
 62
7
  6
CONTINUOUS
 10
286.7595005835
 20
195.455234461
 11
288.3284823031
 21
192.25798404
  0
LINE
  5
297
100
AcDbEntity
  8
0
100
AcDbLine
 62
7
  6
CONTINUOUS
 10
280.980574655
 20
206.9427585505
 11
281.4831154037
 21
215.6464259549
  0
LINE
  5
298
100
AcDbEntity
  8
0
100
AcDbLine
 62
7
  6
CONTINUOUS
 10
264.2994661981
 20
205.4144741243
 11
266.6408034842
 21
205.4144741243
  0
LINE
  5
299
100
AcDbEntity
  8
0
100
AcDbLine
 62
7
  6
CONTINUOUS
 10
304.0727261063
 20
205.4144741243
 11
306.4140633924
 21
205.4144741243
  0
LINE
  5
29A
100
AcDbEntity
  8
0
100
AcDbLine
 62
7
  6
CONTINUOUS
 10
267.88916248
 20
205.6118352614
 11
279.2357140248
 21
205.6118352614
  0
LINE
  5
29B
100
AcDbEntity
  8
0
100
AcDbLine
 62
7
  6
CONTINUOUS
 10
291.2841141188
 20
205.6118352614
 11
302.6306656637
 21
205.6118352614
  0
LINE
  5
29C
100
AcDbEntity
  8
0
100
AcDbLine
 62
7
  6
CONTINUOUS
 10
263.7571021469
 20
206.5196964921
 11
281.18818324
 21
206.5196964921
  0
LINE
  5
29D
100
AcDbEntity
  8
0
100
AcDbLine
 62
7
  6
CONTINUOUS
 10
288.4406182481
 20
206.5196964921
 11
305.8716993412
 21
206.5196964921
  0
LINE
  5
29E
100
AcDbEntity
  8
0
100
AcDbLine
 62
7
  6
CONTINUOUS
 10
324.9502718748
 20
206.6608401507
 11
322.6126188331
 21
206.6608401507
  0
LINE
  5
29F
100
AcDbEntity
  8
0
100
AcDbLine
 62
7
  6
CONTINUOUS
 10
288.233009663
 20
206.9427585505
 11
280.980574655
 21
206.9427585505
  0
LINE
  5
2A0
100
AcDbEntity
  8
0
100
AcDbLine
 62
7
  6
CONTINUOUS
 10
324.4079078236
 20
207.7660625185
 11
322.0702547818
 21
207.7660625185
  0
LINE
  5
2A1
100
AcDbEntity
  8
0
100
AcDbLine
 62
7
  6
CONTINUOUS
 10
264.149414158
 20
216.8739591917
 11
262.5023101408
 21
217.4377367386
  0
LINE
  5
2A2
100
AcDbEntity
  8
0
100
AcDbLine
 62
7
  6
CONTINUOUS
 10
297.5652456354
 20
191.4871934661
 11
298.5650268508
 21
190.0597776581
  0
LINE
  5
2A3
100
AcDbEntity
  8
0
100
AcDbLine
 62
7
  6
CONTINUOUS
 10
281.4831154037
 20
215.6464259549
 11
281.9749937339
 21
217.2381462934
  0
LINE
  5
2A4
100
AcDbEntity
  8
0
100
AcDbLine
 62
7
  6
CONTINUOUS
 10
283.2377127018
 20
217.2381462934
 11
283.6105865994
 21
218.444767789
  0
LINE
  5
2A5
100
AcDbEntity
  8
0
100
AcDbLine
 62
7
  6
CONTINUOUS
 10
297.1710904952
 20
188.728854369
 11
296.9634819102
 21
189.1519164275
  0
LINE
  5
2A6
100
AcDbEntity
  8
0
100
AcDbLine
 62
7
  6
CONTINUOUS
 10
288.4406182481
 20
206.5196964921
 11
288.233009663
 21
206.9427585505
  0
LINE
  5
2A7
100
AcDbEntity
  8
0
100
AcDbLine
 62
7
  6
CONTINUOUS
 10
295.9962639158
 20
194.6844438871
 11
297.5652456354
 21
191.4871934661
  0
LINE
  5
2A8
100
AcDbEntity
  8
0
100
AcDbLine
 62
7
  6
CONTINUOUS
 10
296.6861228162
 20
193.8885837178
 11
298.5650268508
 21
190.0597776581
  0
LINE
  5
2A9
100
AcDbEntity
  8
0
100
AcDbLine
 62
7
  6
CONTINUOUS
 10
293.1630181534
 20
201.7830292017
 11
291.2841141188
 21
205.6118352614
  0
LINE
  5
2AA
100
AcDbEntity
  8
0
100
AcDbLine
 62
7
  6
CONTINUOUS
 10
294.3447553841
 20
202.578889371
 11
292.8564025709
 21
205.6118352614
  0
LINE
  5
2AB
100
AcDbEntity
  8
0
100
AcDbLine
 62
7
  6
CONTINUOUS
 10
293.4728435102
 20
205.6118352614
 11
294.5829474656
 21
203.3496799449
  0
LINE
  5
2AC
100
AcDbEntity
  8
0
100
AcDbLine
 62
7
  6
CONTINUOUS
 10
288.233009663
 20
206.9427585505
 11
288.7355504117
 21
215.6464259549
  0
LINE
  5
2AD
100
AcDbEntity
  8
0
100
AcDbLine
 62
7
  6
CONTINUOUS
 10
288.7355504117
 20
215.6464259549
 11
289.227428742
 21
217.2381462934
  0
LINE
  5
2AE
100
AcDbEntity
  8
0
100
AcDbLine
 62
7
  6
CONTINUOUS
 10
289.8374865277
 20
215.1261319726
 11
290.8630216074
 21
218.444767789
  0
LINE
  5
2AF
100
AcDbEntity
  8
0
100
AcDbLine
 62
7
  6
CONTINUOUS
 10
314.0338442165
 20
246.9337595113
 11
314.6976856977
 21
247.6036254235
  0
LINE
  5
2B0
100
AcDbEntity
  8
0
100
AcDbLine
 62
7
  6
CONTINUOUS
 10
288.7355504117
 20
215.6464259549
 11
281.4831154037
 21
215.6464259549
  0
LINE
  5
2B1
100
AcDbEntity
  8
0
100
AcDbLine
 62
7
  6
CONTINUOUS
 10
313.4006803066
 20
216.3710080959
 11
317.4372290095
 21
216.3710080959
  0
LINE
  5
2B2
100
AcDbEntity
  8
0
100
AcDbLine
 62
7
  6
CONTINUOUS
 10
304.5095696983
 20
201.7830292017
 11
303.8197107269
 21
202.5788895109
  0
LINE
  5
2B3
100
AcDbEntity
  8
0
100
AcDbLine
 62
7
  6
CONTINUOUS
 10
290.8630216074
 20
218.444767789
 11
291.6378273949
 21
216.8658786922
  0
LINE
  5
2B4
100
AcDbEntity
  8
0
100
AcDbLine
 62
7
  6
CONTINUOUS
 10
289.227428742
 20
217.2381462934
 11
289.8374865277
 21
215.1261319726
  0
LINE
  5
2B5
100
AcDbEntity
  8
0
100
AcDbLine
 62
7
  6
CONTINUOUS
 10
288.4406182481
 20
206.5196964921
 11
291.6378273949
 21
216.8658786922
  0
LINE
  5
2B6
100
AcDbEntity
  8
0
100
AcDbLine
 62
7
  6
CONTINUOUS
 10
286.521308502
 20
194.6844438871
 11
286.7595005835
 21
195.455234461
  0
LINE
  5
2B7
100
AcDbEntity
  8
0
100
AcDbLine
 62
7
  6
CONTINUOUS
 10
289.227428742
 20
217.2381462934
 11
281.9749937339
 21
217.2381462934
  0
LINE
  5
2B8
100
AcDbEntity
  8
0
100
AcDbLine
 62
7
  6
CONTINUOUS
 10
290.8630216074
 20
218.444767789
 11
283.6105865994
 21
218.444767789
  0
LINE
  5
2B9
100
AcDbEntity
  8
0
100
AcDbLine
 62
7
  6
CONTINUOUS
 10
288.0902902216
 20
191.4871934661
 11
288.3284823031
 21
192.25798404
  0
LINE
  5
2BA
100
AcDbEntity
  8
0
100
AcDbLine
 62
7
  6
CONTINUOUS
 10
269.7680665146
 20
201.7830292017
 11
270.9498037453
 21
202.578889371
  0
LINE
  5
2BB
100
AcDbEntity
  8
0
100
AcDbLine
 62
7
  6
CONTINUOUS
 10
319.5517440958
 20
221.8791238779
 11
319.215148834
 21
221.8791238779
  0
LINE
  5
2BC
100
AcDbEntity
  8
0
100
AcDbLine
 62
7
  6
CONTINUOUS
 10
314.412558291
 20
222.212897754
 11
316.3826368027
 21
222.212897754
  0
LINE
  5
2BD
100
AcDbEntity
  8
0
100
AcDbLine
 62
7
  6
CONTINUOUS
 10
302.3313579846
 20
205.6118352614
 11
303.8197107979
 21
202.578889371
  0
LINE
  5
2BE
100
AcDbEntity
  8
0
100
AcDbLine
 62
7
  6
CONTINUOUS
 10
302.6306656637
 20
205.6118352614
 11
304.5095696983
 21
201.7830292017
  0
LINE
  5
2BF
100
AcDbEntity
  8
0
100
AcDbLine
 62
7
  6
CONTINUOUS
 10
311.510861666
 20
190.2571387952
 11
306.2809226006
 21
200.9146401985
  0
LINE
  5
2C0
100
AcDbEntity
  8
0
100
AcDbLine
 62
7
  6
CONTINUOUS
 10
305.6610779706
 20
202.1777514759
 11
304.0727261063
 21
205.4144741243
  0
LINE
  5
2C1
100
AcDbEntity
  8
0
100
AcDbLine
 62
7
  6
CONTINUOUS
 10
294.3447553841
 20
202.578889371
 11
294.5829474656
 21
203.3496799449
  0
LINE
  5
2C2
100
AcDbEntity
  8
0
100
AcDbLine
 62
7
  6
CONTINUOUS
 10
309.7925914811
 20
249.496145631
 11
304.5048994306
 21
232.3851519923
  0
LINE
  5
2C3
100
AcDbEntity
  8
0
100
AcDbLine
 62
7
  6
CONTINUOUS
 10
264.5650805929
 20
222.9233978476
 11
266.0188303571
 21
222.9233978476
  0
LINE
  5
2C4
100
AcDbEntity
  8
0
100
AcDbLine
 62
7
  6
CONTINUOUS
 10
314.6321192222
 20
222.9233978476
 11
316.9697722639
 21
222.9233978476
  0
LINE
  5
2C5
100
AcDbEntity
  8
0
100
AcDbLine
 62
7
  6
CONTINUOUS
 10
317.7488284073
 20
223.6056530502
 11
317.1806048717
 21
223.6056530502
  0
LINE
  5
2C6
100
AcDbEntity
  8
0
100
AcDbLine
 62
7
  6
CONTINUOUS
 10
264.0227165417
 20
224.0286202153
 11
266.3603695834
 21
224.0286202153
  0
LINE
  5
2C7
100
AcDbEntity
  8
0
100
AcDbLine
 62
7
  6
CONTINUOUS
 10
314.089755171
 20
224.0286202153
 11
316.4274082127
 21
224.0286202153
  0
LINE
  5
2C8
100
AcDbEntity
  8
0
100
AcDbLine
 62
7
  6
CONTINUOUS
 10
305.8716993412
 20
206.5196964921
 11
306.4140633924
 21
205.4144741243
  0
LINE
  5
2C9
100
AcDbEntity
  8
0
100
AcDbLine
 62
7
  6
CONTINUOUS
 10
314.3945630033
 20
189.1519164275
 11
313.8521989521
 21
190.2571387952
  0
LINE
  5
2CA
100
AcDbEntity
  8
0
100
AcDbLine
 62
7
  6
CONTINUOUS
 10
315.9363249823
 20
194.8728363042
 11
313.0695435687
 21
200.7147259623
  0
LINE
  5
2CB
100
AcDbEntity
  8
0
100
AcDbLine
 62
7
  6
CONTINUOUS
 10
314.0338442165
 20
246.9337595113
 11
309.537988631
 21
232.3851519923
  0
LINE
  5
2CC
100
AcDbEntity
  8
0
100
AcDbLine
 62
7
  6
CONTINUOUS
 10
314.6976856977
 20
247.6036254235
 11
309.994826081
 21
232.3851519923
  0
LINE
  5
2CD
100
AcDbEntity
  8
0
100
AcDbLine
 62
7
  6
CONTINUOUS
 10
288.0902902216
 20
191.4871934661
 11
287.2184753059
 21
190.0597776581
  0
LINE
  5
2CE
100
AcDbEntity
  8
0
100
AcDbLine
 62
7
  6
CONTINUOUS
 10
316.5301348153
 20
194.9127203338
 11
313.6633534017
 21
200.7546099919
  0
LINE
  5
2CF
100
AcDbEntity
  8
0
100
AcDbLine
 62
7
  6
CONTINUOUS
 10
309.9570309266
 20
210.6551072386
 11
310.4993949779
 21
209.5498848709
  0
LINE
  5
2D0
100
AcDbEntity
  8
0
100
AcDbLine
 62
7
  6
CONTINUOUS
 10
318.4798945887
 20
193.287327174
 11
317.9375305375
 21
194.3925495417
  0
LINE
  5
2D1
100
AcDbEntity
  8
0
100
AcDbLine
 62
7
  6
CONTINUOUS
 10
312.0627591479
 20
232.3387717731
 11
316.5492506514
 21
246.8570770832
  0
LINE
  5
2D2
100
AcDbEntity
  8
0
100
AcDbLine
 62
7
  6
CONTINUOUS
 10
293.1630181534
 20
201.7830292017
 11
294.3447553841
 21
202.578889371
  0
LINE
  5
2D3
100
AcDbEntity
  8
0
100
AcDbLine
 62
7
  6
CONTINUOUS
 10
311.5233849222
 20
232.3851519923
 11
304.5048994306
 21
232.3851519923
  0
LINE
  5
2D4
100
AcDbEntity
  8
0
100
AcDbLine
 62
7
  6
CONTINUOUS
 10
281.1099477917
 20
232.3851519923
 11
274.0914623001
 21
232.3851519923
  0
LINE
  5
2D5
100
AcDbEntity
  8
0
100
AcDbLine
 62
7
  6
CONTINUOUS
 10
305.6610779706
 20
202.1777514759
 11
306.7738431071
 21
205.7786641215
  0
LINE
  5
2D6
100
AcDbEntity
  8
0
100
AcDbLine
 62
7
  6
CONTINUOUS
 10
319.1354943352
 20
244.7594783406
 11
315.0320804554
 21
231.4808138263
  0
LINE
  5
2D7
100
AcDbEntity
  8
0
100
AcDbLine
 62
7
  6
CONTINUOUS
 10
306.5968760362
 20
202.1777514759
 11
308.1356203022
 21
207.1571343703
  0
LINE
  5
2D8
100
AcDbEntity
  8
0
100
AcDbLine
 62
7
  6
CONTINUOUS
 10
309.9570309266
 20
210.6551072386
 11
314.089755171
 21
224.0286202153
  0
LINE
  5
2D9
100
AcDbEntity
  8
0
100
AcDbLine
 62
7
  6
CONTINUOUS
 10
305.8716993412
 20
206.5196964921
 11
309.9570309266
 21
210.6551072386
  0
LINE
  5
2DA
100
AcDbEntity
  8
0
100
AcDbLine
 62
7
  6
CONTINUOUS
 10
285.3395712713
 20
193.8885837178
 11
286.5213085767
 21
194.6844437592
  0
LINE
  5
2DB
100
AcDbEntity
  8
0
100
AcDbLine
 62
7
  6
CONTINUOUS
 10
312.5143773836
 20
215.774112969
 11
312.4582008293
 21
215.8885888164
  0
LINE
  5
2DC
100
AcDbEntity
  8
0
100
AcDbLine
 62
7
  6
CONTINUOUS
 10
313.4006803066
 20
216.3710080959
 11
312.9138486884
 21
217.3630671982
  0
LINE
  5
2DD
100
AcDbEntity
  8
0
100
AcDbLine
 62
7
  6
CONTINUOUS
 10
310.4180980551
 20
209.4675913872
 11
307.8775059764
 21
201.2462247717
  0
LINE
  5
2DE
100
AcDbEntity
  8
0
100
AcDbLine
 62
7
  6
CONTINUOUS
 10
310.4993949779
 20
209.5498848709
 11
314.6321192222
 21
222.9233978476
  0
LINE
  5
2DF
100
AcDbEntity
  8
0
100
AcDbLine
 62
7
  6
CONTINUOUS
 10
316.4274082127
 20
224.0286202153
 11
317.0422561255
 21
226.0182706384
  0
LINE
  5
2E0
100
AcDbEntity
  8
0
100
AcDbLine
 62
7
  6
CONTINUOUS
 10
316.9697722639
 20
222.9233978476
 11
317.5846201768
 21
224.9130482707
  0
LINE
  5
2E1
100
AcDbEntity
  8
0
100
AcDbLine
 62
7
  6
CONTINUOUS
 10
306.4140633924
 20
205.4144741243
 11
310.4993949779
 21
209.5498848709
  0
LINE
  5
2E2
100
AcDbEntity
  8
0
100
AcDbLine
 62
7
  6
CONTINUOUS
 10
323.2119843375
 20
202.706576385
 11
320.3452029239
 21
208.5484660431
  0
LINE
  5
2E3
100
AcDbEntity
  8
0
100
AcDbLine
 62
7
  6
CONTINUOUS
 10
316.8151431468
 20
215.765033295
 11
316.5177740764
 21
216.3710080959
  0
LINE
  5
2E4
100
AcDbEntity
  8
0
100
AcDbLine
 62
7
  6
CONTINUOUS
 10
323.5194082939
 20
203.7014015966
 11
320.6526268803
 21
209.5432912547
  0
LINE
  5
2E5
100
AcDbEntity
  8
0
100
AcDbLine
 62
7
  6
CONTINUOUS
 10
319.1855313715
 20
212.808340416
 11
316.3187499579
 21
218.6502300741
  0
LINE
  5
2E6
100
AcDbEntity
  8
0
100
AcDbLine
 62
7
  6
CONTINUOUS
 10
314.089755171
 20
224.0286202153
 11
314.6321192222
 21
222.9233978476
  0
LINE
  5
2E7
100
AcDbEntity
  8
0
100
AcDbLine
 62
7
  6
CONTINUOUS
 10
322.6126188331
 20
206.6608401507
 11
322.0702547818
 21
207.7660625185
  0
LINE
  5
2E8
100
AcDbEntity
  8
0
100
AcDbLine
 62
7
  6
CONTINUOUS
 10
316.9275139834
 20
216.3710080959
 11
315.5439182606
 21
208.9097826766
  0
LINE
  5
2E9
100
AcDbEntity
  8
0
100
AcDbLine
 62
7
  6
CONTINUOUS
 10
317.0724957031
 20
221.4170375848
 11
316.3039358121
 21
218.9299745559
  0
LINE
  5
2EA
100
AcDbEntity
  8
0
100
AcDbLine
 62
7
  6
CONTINUOUS
 10
318.7017994547
 20
222.9252205267
 11
323.0095232725
 21
236.8650328567
  0
LINE
  5
2EB
100
AcDbEntity
  8
0
100
AcDbLine
 62
7
  6
CONTINUOUS
 10
317.473683394
 20
218.9299745559
 11
318.6111520328
 21
222.6108278387
  0
LINE
  5
2EC
100
AcDbEntity
  8
0
100
AcDbLine
 62
7
  6
CONTINUOUS
 10
323.2713449699
 20
234.6152498656
 11
319.3355880196
 21
221.8791238779
  0
LINE
  5
2ED
100
AcDbEntity
  8
0
100
AcDbLine
 62
7
  6
CONTINUOUS
 10
315.5439182606
 20
208.9097826766
 11
313.0610456863
 21
200.8751966192
  0
LINE
  5
2EE
100
AcDbEntity
  8
0
100
AcDbLine
 62
7
  6
CONTINUOUS
 10
297.5879145548
 20
189.1519164275
 11
297.1710904952
 21
188.728854369
  0
LINE
  5
2EF
100
AcDbEntity
  8
0
100
AcDbLine
 62
7
  6
CONTINUOUS
 10
320.3404648076
 20
213.0880848978
 11
317.473683394
 21
218.9299745559
  0
LINE
  5
2F0
100
AcDbEntity
  8
0
100
AcDbLine
 62
7
  6
CONTINUOUS
 10
316.9568435546
 20
221.0427867475
 11
316.3826368027
 21
222.212897754
  0
LINE
  5
2F1
100
AcDbEntity
  8
0
100
AcDbLine
 62
7
  6
CONTINUOUS
 10
316.4274082127
 20
224.0286202153
 11
316.9697722639
 21
222.9233978476
  0
LINE
  5
2F2
100
AcDbEntity
  8
0
100
AcDbLine
 62
7
  6
CONTINUOUS
 10
324.9502718748
 20
206.6608401507
 11
324.4079078236
 21
207.7660625185
  0
LINE
  5
2F3
100
AcDbEntity
  8
0
100
AcDbLine
 62
7
  6
CONTINUOUS
 10
321.4779334464
 20
216.7689381805
 11
318.6111520328
 21
222.6108278387
  0
LINE
  5
2F4
100
AcDbEntity
  8
0
100
AcDbLine
 62
7
  6
CONTINUOUS
 10
317.0422561255
 20
226.0182706384
 11
317.5846201768
 21
224.9130482707
  0
LINE
  5
2F5
100
AcDbEntity
  8
0
100
AcDbLine
 62
7
  6
CONTINUOUS
 10
325.5651197876
 20
208.6504905738
 11
325.0227557364
 21
209.7557129416
  0
LINE
  5
2F6
100
AcDbEntity
  8
0
100
AcDbLine
 62
7
  6
CONTINUOUS
 10
317.743763269
 20
208.7214845085
 11
318.6891837379
 21
213.8197911298
  0
LINE
  5
2F7
100
AcDbEntity
  8
0
100
AcDbLine
 62
7
  6
CONTINUOUS
 10
319.9180693648
 20
220.4467216166
 11
320.0845742036
 21
221.3446212813
  0
LINE
  5
2F8
100
AcDbEntity
  8
0
100
AcDbLine
 62
7
  6
CONTINUOUS
 10
311.510861666
 20
190.2571387952
 11
314.0960700059
 21
198.6228838188
  0
LINE
  5
2F9
100
AcDbEntity
  8
0
100
AcDbLine
 62
7
  6
CONTINUOUS
 10
321.4483051547
 20
217.3284271442
 11
318.5815237411
 21
223.1703168023
  0
LINE
  5
2FA
100
AcDbEntity
  8
0
100
AcDbLine
 62
7
  6
CONTINUOUS
 10
322.9513556172
 20
215.5027316232
 11
320.0845742036
 21
221.3446212813
  0
LINE
  5
2FB
100
AcDbEntity
  8
0
100
AcDbLine
 62
7
  6
CONTINUOUS
 10
322.9181427098
 20
215.776032471
 11
320.0513612961
 21
221.6179221291
  0
LINE
  5
2FC
100
AcDbEntity
  8
0
100
AcDbLine
 62
7
  6
CONTINUOUS
 10
324.8331346697
 20
213.336442309
 11
325.375498721
 21
212.2312199413
  0
LINE
  5
2FD
100
AcDbEntity
  8
0
100
AcDbLine
 62
7
  6
CONTINUOUS
 10
317.3949991101
 20
228.4937776381
 11
316.8526350589
 21
229.5990000059
  0
LINE
  5
2FE
100
AcDbEntity
  8
0
100
AcDbLine
 62
7
  6
CONTINUOUS
 10
321.5188984593
 20
207.7780143645
 11
322.9513556172
 21
215.5027316232
  0
LINE
  5
2FF
100
AcDbEntity
  8
0
100
AcDbLine
 62
7
  6
CONTINUOUS
 10
320.3404648076
 20
213.0880848978
 11
321.4779334464
 21
216.7689381806
  0
LINE
  5
300
100
AcDbEntity
  8
0
100
AcDbLine
 62
7
  6
CONTINUOUS
 10
320.3452029239
 20
208.5484660431
 11
320.6526268803
 21
209.5432912547
  0
LINE
  5
301
100
AcDbEntity
  8
0
100
AcDbLine
 62
7
  6
CONTINUOUS
 10
313.6633534017
 20
200.7546099919
 11
320.3452029239
 21
208.5484660431
  0
LINE
  5
302
100
AcDbEntity
  8
0
100
AcDbLine
 62
7
  6
CONTINUOUS
 10
322.0702547818
 20
207.7660625185
 11
321.8594775949
 21
207.0839866579
  0
LINE
  5
303
100
AcDbEntity
  8
0
100
AcDbLine
 62
7
  6
CONTINUOUS
 10
318.9820834182
 20
197.7727270419
 11
317.9375305375
 21
194.3925495417
  0
LINE
  5
304
100
AcDbEntity
  8
0
100
AcDbLine
 62
7
  6
CONTINUOUS
 10
322.6126188331
 20
206.6608401507
 11
322.4018416461
 21
205.9787642902
  0
LINE
  5
305
100
AcDbEntity
  8
0
100
AcDbLine
 62
7
  6
CONTINUOUS
 10
320.3641568989
 20
199.3848079073
 11
318.4798945887
 21
193.287327174
  0
LINE
  5
306
100
AcDbEntity
  8
0
100
AcDbLine
 62
7
  6
CONTINUOUS
 10
325.0227557364
 20
209.7557129416
 11
324.4079078236
 21
207.7660625185
  0
LINE
  5
307
100
AcDbEntity
  8
0
100
AcDbLine
 62
7
  6
CONTINUOUS
 10
286.3976398423
 20
249.496145631
 11
309.7925914811
 21
249.496145631
  0
LINE
  5
308
100
AcDbEntity
  8
0
100
AcDbLine
 62
7
  6
CONTINUOUS
 10
323.2119843375
 20
202.706576385
 11
323.5194082939
 21
203.7014015966
  0
LINE
  5
309
100
AcDbEntity
  8
0
100
AcDbLine
 62
7
  6
CONTINUOUS
 10
325.5651197876
 20
208.6504905738
 11
324.9502718748
 21
206.6608401507
  0
LINE
  5
30A
100
AcDbEntity
  8
0
100
AcDbLine
 62
7
  6
CONTINUOUS
 10
316.5301348153
 20
194.9127203338
 11
323.2119843375
 21
202.706576385
  0
LINE
  5
30B
100
AcDbEntity
  8
0
100
AcDbLine
 62
7
  6
CONTINUOUS
 10
317.9375305375
 20
194.3925495417
 11
313.8521989521
 21
190.2571387952
  0
LINE
  5
30C
100
AcDbEntity
  8
0
100
AcDbLine
 62
7
  6
CONTINUOUS
 10
318.4798945887
 20
193.287327174
 11
314.3945630033
 21
189.1519164275
  0
LINE
  5
30D
100
AcDbEntity
  8
0
100
AcDbLine
 62
7
  6
CONTINUOUS
 10
323.0095232725
 20
236.8650328567
 11
319.1354943352
 21
244.7594783406
  0
LINE
  5
30E
100
AcDbEntity
  8
0
100
AcDbLine
 62
7
  6
CONTINUOUS
 10
85.782
 20
86.2635
 11
85.782
 21
95.6615
  0
LINE
  5
30F
100
AcDbEntity
  8
0
100
AcDbLine
 62
7
  6
CONTINUOUS
 10
86.036
 20
98.9635
 11
86.036
 21
108.3615
  0
LINE
  5
310
100
AcDbEntity
  8
0
100
AcDbLine
 62
7
  6
CONTINUOUS
 10
87.052
 20
111.2825
 11
87.052
 21
109.5045
  0
LINE
  5
311
100
AcDbEntity
  8
0
100
AcDbLine
 62
7
  6
CONTINUOUS
 10
87.052
 20
83.3425
 11
87.052
 21
85.1205
  0
LINE
  5
312
100
AcDbEntity
  8
0
100
AcDbLine
 62
7
  6
CONTINUOUS
 10
87.052
 20
86.2635
 11
87.052
 21
95.6615
  0
LINE
  5
313
100
AcDbEntity
  8
0
100
AcDbLine
 62
7
  6
CONTINUOUS
 10
88.068
 20
86.2635
 11
88.068
 21
95.6615
  0
LINE
  5
314
100
AcDbEntity
  8
0
100
AcDbLine
 62
7
  6
CONTINUOUS
 10
89.59
 20
111.2825
 11
89.59
 21
109.5045
  0
LINE
  5
315
100
AcDbEntity
  8
0
100
AcDbLine
 62
7
  6
CONTINUOUS
 10
89.59
 20
83.3425
 11
89.59
 21
85.1205
  0
LINE
  5
316
100
AcDbEntity
  8
0
100
AcDbLine
 62
7
  6
CONTINUOUS
 10
90.6756141712
 20
98.9635
 11
90.6756141712
 21
108.3615
  0
LINE
  5
317
100
AcDbEntity
  8
0
100
AcDbLine
 62
7
  6
CONTINUOUS
 10
91.37
 20
98.9635
 11
91.37
 21
108.3615
  0
LINE
  5
318
100
AcDbEntity
  8
0
100
AcDbLine
 62
7
  6
CONTINUOUS
 10
92.638
 20
111.2825
 11
92.638
 21
109.5045
  0
LINE
  5
319
100
AcDbEntity
  8
0
100
AcDbLine
 62
7
  6
CONTINUOUS
 10
92.638
 20
83.3425
 11
92.638
 21
85.1205
  0
LINE
  5
31A
100
AcDbEntity
  8
0
100
AcDbLine
 62
7
  6
CONTINUOUS
 10
92.7475951026
 20
98.9635
 11
92.7475951026
 21
108.3615
  0
LINE
  5
31B
100
AcDbEntity
  8
0
100
AcDbLine
 62
7
  6
CONTINUOUS
 10
93.7580293483
 20
98.9635
 11
93.7580293483
 21
108.3615
  0
LINE
  5
31C
100
AcDbEntity
  8
0
100
AcDbLine
 62
7
  6
CONTINUOUS
 10
94.164
 20
98.9635
 11
94.164
 21
108.3615
  0
LINE
  5
31D
100
AcDbEntity
  8
0
100
AcDbLine
 62
7
  6
CONTINUOUS
 10
94.418
 20
86.2635
 11
94.418
 21
95.6615
  0
LINE
  5
31E
100
AcDbEntity
  8
0
100
AcDbLine
 62
7
  6
CONTINUOUS
 10
95.18
 20
109.5045
 11
95.18
 21
85.1205
  0
LINE
  5
31F
100
AcDbEntity
  8
0
100
AcDbLine
 62
7
  6
CONTINUOUS
 10
96.6405
 20
103.6625
 11
96.6405
 21
109.822
  0
LINE
  5
320
100
AcDbEntity
  8
0
100
AcDbLine
 62
7
  6
CONTINUOUS
 10
119.437
 20
78.2625
 11
111.563
 21
78.2625
  0
LINE
  5
321
100
AcDbEntity
  8
0
100
AcDbLine
 62
7
  6
CONTINUOUS
 10
97.6565
 20
103.6625
 11
97.6565
 21
108.806
  0
LINE
  5
322
100
AcDbEntity
  8
0
100
AcDbLine
 62
7
  6
CONTINUOUS
 10
119.437
 20
82.6619090512
 11
111.563
 21
82.6619090512
  0
LINE
  5
323
100
AcDbEntity
  8
0
100
AcDbLine
 62
7
  6
CONTINUOUS
 10
143.948
 20
83.3425
 11
119.437
 21
83.3425
  0
LINE
  5
324
100
AcDbEntity
  8
0
100
AcDbLine
 62
7
  6
CONTINUOUS
 10
111.563
 20
83.3425
 11
87.052
 21
83.3425
  0
LINE
  5
325
100
AcDbEntity
  8
0
100
AcDbLine
 62
7
  6
CONTINUOUS
 10
107.9435
 20
108.806
 11
108.9595
 21
109.822
  0
LINE
  5
326
100
AcDbEntity
  8
0
100
AcDbLine
 62
7
  6
CONTINUOUS
 10
121.6595
 20
84.803
 11
109.3405
 21
84.803
  0
LINE
  5
327
100
AcDbEntity
  8
0
100
AcDbLine
 62
7
  6
CONTINUOUS
 10
143.948
 20
85.1205
 11
135.82
 21
85.1205
  0
LINE
  5
328
100
AcDbEntity
  8
0
100
AcDbLine
 62
7
  6
CONTINUOUS
 10
95.18
 20
85.1205
 11
87.052
 21
85.1205
  0
LINE
  5
329
100
AcDbEntity
  8
0
100
AcDbLine
 62
7
  6
CONTINUOUS
 10
120.6435
 20
85.819
 11
110.3565
 21
85.819
  0
LINE
  5
32A
100
AcDbEntity
  8
0
100
AcDbLine
 62
7
  6
CONTINUOUS
 10
85.782
 20
86.2635
 11
95.18
 21
86.2635
  0
LINE
  5
32B
100
AcDbEntity
  8
0
100
AcDbLine
 62
7
  6
CONTINUOUS
 10
135.82
 20
86.2635
 11
144.964
 21
86.2635
  0
LINE
  5
32C
100
AcDbEntity
  8
0
100
AcDbLine
 62
7
  6
CONTINUOUS
 10
107.9435
 20
108.806
 11
107.9435
 21
103.6625
  0
LINE
  5
32D
100
AcDbEntity
  8
0
100
AcDbLine
 62
7
  6
CONTINUOUS
 10
108.9595
 20
109.822
 11
108.9595
 21
103.6625
  0
LINE
  5
32E
100
AcDbEntity
  8
0
100
AcDbLine
 62
7
  6
CONTINUOUS
 10
109.3405
 20
84.803
 11
109.3405
 21
90.9625
  0
LINE
  5
32F
100
AcDbEntity
  8
0
100
AcDbLine
 62
7
  6
CONTINUOUS
 10
110.3565
 20
85.819
 11
110.3565
 21
90.9625
  0
LINE
  5
330
100
AcDbEntity
  8
0
100
AcDbLine
 62
7
  6
CONTINUOUS
 10
109.3405
 20
90.9625
 11
110.3565000077
 21
90.9624997846
  0
LINE
  5
331
100
AcDbEntity
  8
0
100
AcDbLine
 62
7
  6
CONTINUOUS
 10
121.6595
 20
90.9625
 11
120.6435
 21
90.9625
  0
LINE
  5
332
100
AcDbEntity
  8
0
100
AcDbLine
 62
7
  6
CONTINUOUS
 10
120.6435
 20
85.819
 11
121.6595
 21
84.803
  0
LINE
  5
333
100
AcDbEntity
  8
0
100
AcDbLine
 62
7
  6
CONTINUOUS
 10
97.6565
 20
108.806
 11
96.6405
 21
109.822
  0
LINE
  5
334
100
AcDbEntity
  8
0
100
AcDbLine
 62
7
  6
CONTINUOUS
 10
111.563
 20
78.2625
 11
111.563
 21
83.3425
  0
LINE
  5
335
100
AcDbEntity
  8
0
100
AcDbLine
 62
7
  6
CONTINUOUS
 10
111.563
 20
111.2825
 11
111.563
 21
116.3625
  0
LINE
  5
336
100
AcDbEntity
  8
0
100
AcDbLine
 62
7
  6
CONTINUOUS
 10
85.782
 20
95.6615
 11
95.18
 21
95.6615
  0
LINE
  5
337
100
AcDbEntity
  8
0
100
AcDbLine
 62
7
  6
CONTINUOUS
 10
135.82
 20
95.6615
 11
144.964
 21
95.6615
  0
LINE
  5
338
100
AcDbEntity
  8
0
100
AcDbLine
 62
7
  6
CONTINUOUS
 10
86.036
 20
98.9635
 11
95.18
 21
98.9635
  0
LINE
  5
339
100
AcDbEntity
  8
0
100
AcDbLine
 62
7
  6
CONTINUOUS
 10
135.82
 20
98.9635
 11
145.218
 21
98.9635
  0
LINE
  5
33A
100
AcDbEntity
  8
0
100
AcDbLine
 62
7
  6
CONTINUOUS
 10
119.437
 20
78.2625
 11
119.437
 21
83.3425
  0
LINE
  5
33B
100
AcDbEntity
  8
0
100
AcDbLine
 62
7
  6
CONTINUOUS
 10
119.437
 20
111.2825
 11
119.437
 21
116.3625
  0
LINE
  5
33C
100
AcDbEntity
  8
0
100
AcDbLine
 62
7
  6
CONTINUOUS
 10
110.3565
 20
85.819
 11
109.3405
 21
84.803
  0
LINE
  5
33D
100
AcDbEntity
  8
0
100
AcDbLine
 62
7
  6
CONTINUOUS
 10
133.3435
 20
108.806
 11
134.3595
 21
109.822
  0
LINE
  5
33E
100
AcDbEntity
  8
0
100
AcDbLine
 62
7
  6
CONTINUOUS
 10
135.82
 20
102.2655
 11
136.836
 21
102.2655
  0
LINE
  5
33F
100
AcDbEntity
  8
0
100
AcDbLine
 62
7
  6
CONTINUOUS
 10
120.6435
 20
90.9625
 11
120.6435
 21
85.819
  0
LINE
  5
340
100
AcDbEntity
  8
0
100
AcDbLine
 62
7
  6
CONTINUOUS
 10
121.6595
 20
90.9625
 11
121.6595
 21
84.803
  0
LINE
  5
341
100
AcDbEntity
  8
0
100
AcDbLine
 62
7
  6
CONTINUOUS
 10
122.0405
 20
103.6625
 11
122.0405
 21
109.822
  0
LINE
  5
342
100
AcDbEntity
  8
0
100
AcDbLine
 62
7
  6
CONTINUOUS
 10
108.9595
 20
103.6625
 11
107.9434999923
 21
103.6625002154
  0
LINE
  5
343
100
AcDbEntity
  8
0
100
AcDbLine
 62
7
  6
CONTINUOUS
 10
96.6405
 20
103.6625
 11
97.6565
 21
103.6625
  0
LINE
  5
344
100
AcDbEntity
  8
0
100
AcDbLine
 62
7
  6
CONTINUOUS
 10
122.0405
 20
103.6625
 11
123.0565
 21
103.6625
  0
LINE
  5
345
100
AcDbEntity
  8
0
100
AcDbLine
 62
7
  6
CONTINUOUS
 10
134.3595
 20
103.6625
 11
133.3434999923
 21
103.6625002154
  0
LINE
  5
346
100
AcDbEntity
  8
0
100
AcDbLine
 62
7
  6
CONTINUOUS
 10
136.836
 20
104.2975
 11
135.82
 21
104.2975
  0
LINE
  5
347
100
AcDbEntity
  8
0
100
AcDbLine
 62
7
  6
CONTINUOUS
 10
123.0565
 20
103.6625
 11
123.0565
 21
108.806
  0
LINE
  5
348
100
AcDbEntity
  8
0
100
AcDbLine
 62
7
  6
CONTINUOUS
 10
86.036
 20
108.3615
 11
95.18
 21
108.3615
  0
LINE
  5
349
100
AcDbEntity
  8
0
100
AcDbLine
 62
7
  6
CONTINUOUS
 10
135.82
 20
108.3615
 11
145.218
 21
108.3615
  0
LINE
  5
34A
100
AcDbEntity
  8
0
100
AcDbLine
 62
7
  6
CONTINUOUS
 10
97.6565
 20
108.806
 11
107.9435
 21
108.806
  0
LINE
  5
34B
100
AcDbEntity
  8
0
100
AcDbLine
 62
7
  6
CONTINUOUS
 10
123.0565
 20
108.806
 11
133.3435
 21
108.806
  0
LINE
  5
34C
100
AcDbEntity
  8
0
100
AcDbLine
 62
7
  6
CONTINUOUS
 10
87.052
 20
109.5045
 11
95.18
 21
109.5045
  0
LINE
  5
34D
100
AcDbEntity
  8
0
100
AcDbLine
 62
7
  6
CONTINUOUS
 10
135.82
 20
109.5045
 11
143.948
 21
109.5045
  0
LINE
  5
34E
100
AcDbEntity
  8
0
100
AcDbLine
 62
7
  6
CONTINUOUS
 10
96.6405
 20
109.822
 11
108.9595
 21
109.822
  0
LINE
  5
34F
100
AcDbEntity
  8
0
100
AcDbLine
 62
7
  6
CONTINUOUS
 10
122.0405
 20
109.822
 11
134.3595
 21
109.822
  0
LINE
  5
350
100
AcDbEntity
  8
0
100
AcDbLine
 62
7
  6
CONTINUOUS
 10
87.052
 20
111.2825
 11
111.563
 21
111.2825
  0
LINE
  5
351
100
AcDbEntity
  8
0
100
AcDbLine
 62
7
  6
CONTINUOUS
 10
119.437
 20
111.2825
 11
143.948
 21
111.2825
  0
LINE
  5
352
100
AcDbEntity
  8
0
100
AcDbLine
 62
7
  6
CONTINUOUS
 10
123.0565
 20
108.806
 11
122.0405
 21
109.822
  0
LINE
  5
353
100
AcDbEntity
  8
0
100
AcDbLine
 62
7
  6
CONTINUOUS
 10
119.437
 20
111.9630909488
 11
111.563
 21
111.9630909488
  0
LINE
  5
354
100
AcDbEntity
  8
0
100
AcDbLine
 62
7
  6
CONTINUOUS
 10
133.3435
 20
108.806
 11
133.3435
 21
103.6625
  0
LINE
  5
355
100
AcDbEntity
  8
0
100
AcDbLine
 62
7
  6
CONTINUOUS
 10
134.3595
 20
109.822
 11
134.3595
 21
103.6625
  0
LINE
  5
356
100
AcDbEntity
  8
0
100
AcDbLine
 62
7
  6
CONTINUOUS
 10
119.437
 20
116.3625
 11
111.563
 21
116.3625
  0
LINE
  5
357
100
AcDbEntity
  8
0
100
AcDbLine
 62
7
  6
CONTINUOUS
 10
135.82
 20
85.1205
 11
135.82
 21
102.2655
  0
LINE
  5
358
100
AcDbEntity
  8
0
100
AcDbLine
 62
7
  6
CONTINUOUS
 10
135.82
 20
104.2975
 11
135.82
 21
109.5045
  0
LINE
  5
359
100
AcDbEntity
  8
0
100
AcDbLine
 62
7
  6
CONTINUOUS
 10
136.582
 20
98.9635
 11
136.582
 21
102.2655
  0
LINE
  5
35A
100
AcDbEntity
  8
0
100
AcDbLine
 62
7
  6
CONTINUOUS
 10
136.582
 20
104.2975
 11
136.582
 21
108.3615
  0
LINE
  5
35B
100
AcDbEntity
  8
0
100
AcDbLine
 62
7
  6
CONTINUOUS
 10
136.836
 20
86.2635
 11
136.836
 21
95.6615
  0
LINE
  5
35C
100
AcDbEntity
  8
0
100
AcDbLine
 62
7
  6
CONTINUOUS
 10
137.2419706517
 20
86.2635
 11
137.2419706517
 21
95.6615
  0
LINE
  5
35D
100
AcDbEntity
  8
0
100
AcDbLine
 62
7
  6
CONTINUOUS
 10
138.2524048974
 20
86.2635
 11
138.2524048974
 21
95.6615
  0
LINE
  5
35E
100
AcDbEntity
  8
0
100
AcDbLine
 62
7
  6
CONTINUOUS
 10
138.362
 20
111.2825
 11
138.362
 21
109.5045
  0
LINE
  5
35F
100
AcDbEntity
  8
0
100
AcDbLine
 62
7
  6
CONTINUOUS
 10
138.362
 20
83.3425
 11
138.362
 21
85.1205
  0
LINE
  5
360
100
AcDbEntity
  8
0
100
AcDbLine
 62
7
  6
CONTINUOUS
 10
139.63
 20
86.2635
 11
139.63
 21
95.6615
  0
LINE
  5
361
100
AcDbEntity
  8
0
100
AcDbLine
 62
7
  6
CONTINUOUS
 10
140.3243858288
 20
86.2635
 11
140.3243858288
 21
95.6615
  0
LINE
  5
362
100
AcDbEntity
  8
0
100
AcDbLine
 62
7
  6
CONTINUOUS
 10
141.41
 20
111.2825
 11
141.41
 21
109.5045
  0
LINE
  5
363
100
AcDbEntity
  8
0
100
AcDbLine
 62
7
  6
CONTINUOUS
 10
141.41
 20
83.3425
 11
141.41
 21
85.1205
  0
LINE
  5
364
100
AcDbEntity
  8
0
100
AcDbLine
 62
7
  6
CONTINUOUS
 10
142.932
 20
98.9635
 11
142.932
 21
108.3615
  0
LINE
  5
365
100
AcDbEntity
  8
0
100
AcDbLine
 62
7
  6
CONTINUOUS
 10
143.948
 20
111.2825
 11
143.948
 21
109.5045
  0
LINE
  5
366
100
AcDbEntity
  8
0
100
AcDbLine
 62
7
  6
CONTINUOUS
 10
143.948
 20
83.3425
 11
143.948
 21
85.1205
  0
LINE
  5
367
100
AcDbEntity
  8
0
100
AcDbLine
 62
7
  6
CONTINUOUS
 10
143.948
 20
98.9635
 11
143.948
 21
108.3615
  0
LINE
  5
368
100
AcDbEntity
  8
0
100
AcDbLine
 62
7
  6
CONTINUOUS
 10
144.964
 20
86.2635
 11
144.964
 21
95.6615
  0
LINE
  5
369
100
AcDbEntity
  8
0
100
AcDbLine
 62
7
  6
CONTINUOUS
 10
145.218
 20
98.9635
 11
145.218
 21
108.3615
  0
LINE
  5
36A
100
AcDbEntity
  8
0
100
AcDbLine
 62
7
  6
CONTINUOUS
 10
89.59
 20
175.8709223693
 11
92.638
 21
170.5916315078
  0
LINE
  5
36B
100
AcDbEntity
  8
0
100
AcDbLine
 62
7
  6
CONTINUOUS
 10
85.782
 20
193.4516315078
 11
85.782
 21
188.7526315078
  0
LINE
  5
36C
100
AcDbEntity
  8
0
100
AcDbLine
 62
7
  6
CONTINUOUS
 10
86.036
 20
186.8476315078
 11
86.036
 21
185.5776315078
  0
LINE
  5
36D
100
AcDbEntity
  8
0
100
AcDbLine
 62
7
  6
CONTINUOUS
 10
86.036
 20
185.5776315078
 11
89.59
 21
177.9560539124
  0
LINE
  5
36E
100
AcDbEntity
  8
0
100
AcDbLine
 62
7
  6
CONTINUOUS
 10
87.052
 20
195.4836315078
 11
87.052
 21
192.9436315078
  0
LINE
  5
36F
100
AcDbEntity
  8
0
100
AcDbLine
 62
7
  6
CONTINUOUS
 10
87.052
 20
188.7526315078
 11
87.052
 21
191.9276315078
  0
LINE
  5
370
100
AcDbEntity
  8
0
100
AcDbLine
 62
7
  6
CONTINUOUS
 10
92.638
 20
170.5916315078
 11
138.362
 21
170.5916315078
  0
LINE
  5
371
100
AcDbEntity
  8
0
100
AcDbLine
 62
7
  6
CONTINUOUS
 10
89.59
 20
192.9436315078
 11
89.59
 21
175.8709223693
  0
LINE
  5
372
100
AcDbEntity
  8
0
100
AcDbLine
 62
7
  6
CONTINUOUS
 10
89.59
 20
192.1879432213
 11
88.9184432918
 21
185.7985079477
  0
LINE
  5
373
100
AcDbEntity
  8
0
100
AcDbLine
 62
7
  6
CONTINUOUS
 10
95.18
 20
203.6116315078
 11
95.18
 21
225.4556315078
  0
LINE
  5
374
100
AcDbEntity
  8
0
100
AcDbLine
 62
7
  6
CONTINUOUS
 10
119.437
 20
178.2116315078
 11
111.563
 21
178.2116315078
  0
LINE
  5
375
100
AcDbEntity
  8
0
100
AcDbLine
 62
7
  6
CONTINUOUS
 10
88.9184432918
 20
185.7985079477
 11
86.036
 21
186.8476315078
  0
LINE
  5
376
100
AcDbEntity
  8
0
100
AcDbLine
 62
7
  6
CONTINUOUS
 10
119.437
 20
180.2436315078
 11
111.563
 21
180.2436315078
  0
LINE
  5
377
100
AcDbEntity
  8
0
100
AcDbLine
 62
7
  6
CONTINUOUS
 10
119.437
 20
183.7996315078
 11
111.563
 21
183.7996315078
  0
LINE
  5
378
100
AcDbEntity
  8
0
100
AcDbLine
 62
7
  6
CONTINUOUS
 10
102.8
 20
225.4556315078
 11
102.8
 21
203.6116315078
  0
LINE
  5
379
100
AcDbEntity
  8
0
100
AcDbLine
 62
7
  6
CONTINUOUS
 10
106.378
 20
225.4556315078
 11
106.378
 21
225.6334315078
  0
LINE
  5
37A
100
AcDbEntity
  8
0
100
AcDbLine
 62
7
  6
CONTINUOUS
 10
106.420333293
 20
225.4556315078
 11
106.420333293
 21
225.6334315078
  0
LINE
  5
37B
100
AcDbEntity
  8
0
100
AcDbLine
 62
7
  6
CONTINUOUS
 10
106.462666707
 20
225.4556315078
 11
106.462666707
 21
225.6334315078
  0
LINE
  5
37C
100
AcDbEntity
  8
0
100
AcDbLine
 62
7
  6
CONTINUOUS
 10
106.632
 20
225.4556315078
 11
106.632
 21
225.6334315078
  0
LINE
  5
37D
100
AcDbEntity
  8
0
100
AcDbLine
 62
7
  6
CONTINUOUS
 10
106.801333293
 20
225.4556315078
 11
106.801333293
 21
225.6334315078
  0
LINE
  5
37E
100
AcDbEntity
  8
0
100
AcDbLine
 62
7
  6
CONTINUOUS
 10
107.0976666465
 20
225.4556315078
 11
107.0976666465
 21
225.6334315078
  0
LINE
  5
37F
100
AcDbEntity
  8
0
100
AcDbLine
 62
7
  6
CONTINUOUS
 10
107.1823333535
 20
225.4556315078
 11
107.1823333535
 21
225.6334315078
  0
LINE
  5
380
100
AcDbEntity
  8
0
100
AcDbLine
 62
7
  6
CONTINUOUS
 10
107.4786666768
 20
225.4556315078
 11
107.4786666768
 21
225.6334315078
  0
LINE
  5
381
100
AcDbEntity
  8
0
100
AcDbLine
 62
7
  6
CONTINUOUS
 10
107.648
 20
225.4556315078
 11
107.648
 21
225.6334315078
  0
LINE
  5
382
100
AcDbEntity
  8
0
100
AcDbLine
 62
7
  6
CONTINUOUS
 10
107.8173333308
 20
225.4556315078
 11
107.8173333308
 21
225.6334315078
  0
LINE
  5
383
100
AcDbEntity
  8
0
100
AcDbLine
 62
7
  6
CONTINUOUS
 10
107.8596666654
 20
225.4556315078
 11
107.8596666654
 21
225.6334315078
  0
LINE
  5
384
100
AcDbEntity
  8
0
100
AcDbLine
 62
7
  6
CONTINUOUS
 10
107.902
 20
225.4556315078
 11
107.902
 21
225.6334315078
  0
LINE
  5
385
100
AcDbEntity
  8
0
100
AcDbLine
 62
7
  6
CONTINUOUS
 10
109.766
 20
225.4556315078
 11
109.766
 21
225.6334315078
  0
LINE
  5
386
100
AcDbEntity
  8
0
100
AcDbLine
 62
7
  6
CONTINUOUS
 10
109.808333293
 20
225.4556315078
 11
109.808333293
 21
225.6334315078
  0
LINE
  5
387
100
AcDbEntity
  8
0
100
AcDbLine
 62
7
  6
CONTINUOUS
 10
109.977666707
 20
225.4556315078
 11
109.977666707
 21
225.6334315078
  0
LINE
  5
388
100
AcDbEntity
  8
0
100
AcDbLine
 62
7
  6
CONTINUOUS
 10
110.147
 20
225.4556315078
 11
110.147
 21
225.6334315078
  0
LINE
  5
389
100
AcDbEntity
  8
0
100
AcDbLine
 62
7
  6
CONTINUOUS
 10
110.401
 20
225.4556315078
 11
110.401
 21
225.6334315078
  0
LINE
  5
38A
100
AcDbEntity
  8
0
100
AcDbLine
 62
7
  6
CONTINUOUS
 10
87.052
 20
192.9436315078
 11
89.59
 21
192.9436315078
  0
LINE
  5
38B
100
AcDbEntity
  8
0
100
AcDbLine
 62
7
  6
CONTINUOUS
 10
141.41
 20
192.9436315078
 11
143.948
 21
192.9436315078
  0
LINE
  5
38C
100
AcDbEntity
  8
0
100
AcDbLine
 62
7
  6
CONTINUOUS
 10
110.5703333535
 20
225.4556315078
 11
110.5703333535
 21
225.6334315078
  0
LINE
  5
38D
100
AcDbEntity
  8
0
100
AcDbLine
 62
7
  6
CONTINUOUS
 10
110.8666666768
 20
225.4556315078
 11
110.8666666768
 21
225.6334315078
  0
LINE
  5
38E
100
AcDbEntity
  8
0
100
AcDbLine
 62
7
  6
CONTINUOUS
 10
111.036
 20
225.4556315078
 11
111.036
 21
225.6334315078
  0
LINE
  5
38F
100
AcDbEntity
  8
0
100
AcDbLine
 62
7
  6
CONTINUOUS
 10
111.2053333308
 20
225.4556315078
 11
111.2053333308
 21
225.6334315078
  0
LINE
  5
390
100
AcDbEntity
  8
0
100
AcDbLine
 62
7
  6
CONTINUOUS
 10
111.2476666654
 20
225.4556315078
 11
111.2476666654
 21
225.6334315078
  0
LINE
  5
391
100
AcDbEntity
  8
0
100
AcDbLine
 62
7
  6
CONTINUOUS
 10
111.29
 20
225.4556315078
 11
111.29
 21
225.6334315078
  0
LINE
  5
392
100
AcDbEntity
  8
0
100
AcDbLine
 62
7
  6
CONTINUOUS
 10
111.563
 20
170.5916315078
 11
111.563
 21
183.7996315078
  0
LINE
  5
393
100
AcDbEntity
  8
0
100
AcDbLine
 62
7
  6
CONTINUOUS
 10
119.437
 20
170.5916315078
 11
119.437
 21
183.7996315078
  0
LINE
  5
394
100
AcDbEntity
  8
0
100
AcDbLine
 62
7
  6
CONTINUOUS
 10
135.82
 20
203.6116315078
 11
128.2
 21
203.6116315078
  0
LINE
  5
395
100
AcDbEntity
  8
0
100
AcDbLine
 62
7
  6
CONTINUOUS
 10
102.8
 20
203.6116315078
 11
95.18
 21
203.6116315078
  0
LINE
  5
396
100
AcDbEntity
  8
0
100
AcDbLine
 62
7
  6
CONTINUOUS
 10
121.934666707
 20
225.4556315078
 11
121.934666707
 21
225.6334315078
  0
LINE
  5
397
100
AcDbEntity
  8
0
100
AcDbLine
 62
7
  6
CONTINUOUS
 10
122.358
 20
225.4556315078
 11
122.358
 21
225.6334315078
  0
LINE
  5
398
100
AcDbEntity
  8
0
100
AcDbLine
 62
7
  6
CONTINUOUS
 10
122.612
 20
225.4556315078
 11
122.612
 21
225.6334315078
  0
LINE
  5
399
100
AcDbEntity
  8
0
100
AcDbLine
 62
7
  6
CONTINUOUS
 10
123.12
 20
225.4556315078
 11
123.12
 21
225.6334315078
  0
LINE
  5
39A
100
AcDbEntity
  8
0
100
AcDbLine
 62
7
  6
CONTINUOUS
 10
123.374
 20
225.4556315078
 11
123.374
 21
225.6334315078
  0
LINE
  5
39B
100
AcDbEntity
  8
0
100
AcDbLine
 62
7
  6
CONTINUOUS
 10
123.628
 20
225.4556315078
 11
123.628
 21
225.6334315078
  0
LINE
  5
39C
100
AcDbEntity
  8
0
100
AcDbLine
 62
7
  6
CONTINUOUS
 10
128.2
 20
225.4556315078
 11
128.2
 21
203.6116315078
  0
LINE
  5
39D
100
AcDbEntity
  8
0
100
AcDbLine
 62
7
  6
CONTINUOUS
 10
132.8216237049
 20
223.4236315078
 11
132.8216237049
 21
203.6116315078
  0
LINE
  5
39E
100
AcDbEntity
  8
0
100
AcDbLine
 62
7
  6
CONTINUOUS
 10
133.8992544394
 20
223.4236315078
 11
133.8992544394
 21
203.6116315078
  0
LINE
  5
39F
100
AcDbEntity
  8
0
100
AcDbLine
 62
7
  6
CONTINUOUS
 10
135.6336749291
 20
203.6116315078
 11
135.6336749291
 21
223.4236315078
  0
LINE
  5
3A0
100
AcDbEntity
  8
0
100
AcDbLine
 62
7
  6
CONTINUOUS
 10
135.82
 20
225.4556315078
 11
135.82
 21
203.6116315078
  0
LINE
  5
3A1
100
AcDbEntity
  8
0
100
AcDbLine
 62
7
  6
CONTINUOUS
 10
144.964
 20
186.8476315078
 11
142.0815567082
 21
185.7985079477
  0
LINE
  5
3A2
100
AcDbEntity
  8
0
100
AcDbLine
 62
7
  6
CONTINUOUS
 10
142.0815567082
 20
185.7985079477
 11
141.41
 21
192.1879432213
  0
LINE
  5
3A3
100
AcDbEntity
  8
0
100
AcDbLine
 62
7
  6
CONTINUOUS
 10
141.41
 20
175.8709223693
 11
141.41
 21
192.9436315078
  0
LINE
  5
3A4
100
AcDbEntity
  8
0
100
AcDbLine
 62
7
  6
CONTINUOUS
 10
132.8216237049
 20
223.4236315078
 11
135.6334783508
 21
223.4236315078
  0
LINE
  5
3A5
100
AcDbEntity
  8
0
100
AcDbLine
 62
7
  6
CONTINUOUS
 10
95.18
 20
225.4556315078
 11
135.82
 21
225.4556315078
  0
LINE
  5
3A6
100
AcDbEntity
  8
0
100
AcDbLine
 62
7
  6
CONTINUOUS
 10
143.948
 20
191.9276315078
 11
143.948
 21
188.7526315078
  0
LINE
  5
3A7
100
AcDbEntity
  8
0
100
AcDbLine
 62
7
  6
CONTINUOUS
 10
143.948
 20
192.9436315078
 11
143.948
 21
195.4836315078
  0
LINE
  5
3A8
100
AcDbEntity
  8
0
100
AcDbLine
 62
7
  6
CONTINUOUS
 10
144.964
 20
185.5776315078
 11
144.964
 21
186.8476315078
  0
LINE
  5
3A9
100
AcDbEntity
  8
0
100
AcDbLine
 62
7
  6
CONTINUOUS
 10
145.218
 20
188.7526315078
 11
145.218
 21
193.4516315078
  0
LINE
  5
3AA
100
AcDbEntity
  8
0
100
AcDbLine
 62
7
  6
CONTINUOUS
 10
106.378
 20
225.6334315078
 11
107.902
 21
225.6334315078
  0
LINE
  5
3AB
100
AcDbEntity
  8
0
100
AcDbLine
 62
7
  6
CONTINUOUS
 10
109.766
 20
225.6334315078
 11
111.29
 21
225.6334315078
  0
LINE
  5
3AC
100
AcDbEntity
  8
0
100
AcDbLine
 62
7
  6
CONTINUOUS
 10
121.934666707
 20
225.6334315078
 11
123.628
 21
225.6334315078
  0
LINE
  5
3AD
100
AcDbEntity
  8
0
100
AcDbLine
 62
7
  6
CONTINUOUS
 10
141.41
 20
177.9560539124
 11
144.964
 21
185.5776315078
  0
LINE
  5
3AE
100
AcDbEntity
  8
0
100
AcDbLine
 62
7
  6
CONTINUOUS
 10
138.362
 20
170.5916315078
 11
141.41
 21
175.8709223693
  0
LINE
  5
3AF
100
AcDbEntity
  8
0
100
AcDbLine
 62
7
  6
CONTINUOUS
 10
224.4791315078
 20
82.6619090512
 11
224.4791315078
 21
111.9630909488
  0
LINE
  5
3B0
100
AcDbEntity
  8
0
100
AcDbLine
 62
7
  6
CONTINUOUS
 10
224.4791315078
 20
111.9630909488
 11
232.0991315078
 21
116.3625
  0
LINE
  5
3B1
100
AcDbEntity
  8
0
100
AcDbLine
 62
7
  6
CONTINUOUS
 10
232.0991315078
 20
78.2625
 11
224.4791315078
 21
82.6619090512
  0
LINE
  5
3B2
100
AcDbEntity
  8
0
100
AcDbLine
 62
7
  6
CONTINUOUS
 10
229.3051315078
 20
86.2635
 11
229.3051315078
 21
95.6615
  0
LINE
  5
3B3
100
AcDbEntity
  8
0
100
AcDbLine
 62
7
  6
CONTINUOUS
 10
229.5154468093
 20
86.2635
 11
229.5154468093
 21
95.6615
  0
LINE
  5
3B4
100
AcDbEntity
  8
0
100
AcDbLine
 62
7
  6
CONTINUOUS
 10
229.7584223693
 20
111.2825
 11
229.7584223693
 21
109.5045
  0
LINE
  5
3B5
100
AcDbEntity
  8
0
100
AcDbLine
 62
7
  6
CONTINUOUS
 10
229.7584223693
 20
83.3425
 11
229.7584223693
 21
85.1205
  0
LINE
  5
3B6
100
AcDbEntity
  8
0
100
AcDbLine
 62
7
  6
CONTINUOUS
 10
234.1311315078
 20
116.3625
 11
233.4505405591
 21
113.8225
  0
LINE
  5
3B7
100
AcDbEntity
  8
0
100
AcDbLine
 62
7
  6
CONTINUOUS
 10
233.4505405591
 20
80.8025
 11
234.1311315078
 21
78.2625
  0
LINE
  5
3B8
100
AcDbEntity
  8
0
100
AcDbLine
 62
7
  6
CONTINUOUS
 10
234.1311315078
 20
78.2625
 11
232.0991315078
 21
78.2625
  0
LINE
  5
3B9
100
AcDbEntity
  8
0
100
AcDbLine
 62
7
  6
CONTINUOUS
 10
237.6871315078
 20
80.8025
 11
233.4505405591
 21
80.8025
  0
LINE
  5
3BA
100
AcDbEntity
  8
0
100
AcDbLine
 62
7
  6
CONTINUOUS
 10
237.6871315078
 20
113.8225
 11
237.6871315078
 21
111.2825
  0
LINE
  5
3BB
100
AcDbEntity
  8
0
100
AcDbLine
 62
7
  6
CONTINUOUS
 10
237.6871315078
 20
83.3425
 11
237.6871315078
 21
80.8025
  0
LINE
  5
3BC
100
AcDbEntity
  8
0
100
AcDbLine
 62
7
  6
CONTINUOUS
 10
279.3431315078
 20
83.3425
 11
224.4791315078
 21
83.3425
  0
LINE
  5
3BD
100
AcDbEntity
  8
0
100
AcDbLine
 62
7
  6
CONTINUOUS
 10
239.4651315078
 20
86.2635
 11
239.4651315078
 21
95.6615
  0
LINE
  5
3BE
100
AcDbEntity
  8
0
100
AcDbLine
 62
7
  6
CONTINUOUS
 10
240.7351315078
 20
86.2635
 11
240.7351315078
 21
95.6615
  0
LINE
  5
3BF
100
AcDbEntity
  8
0
100
AcDbLine
 62
7
  6
CONTINUOUS
 10
279.3431315078
 20
84.6125
 11
279.5209315078
 21
84.6125
  0
LINE
  5
3C0
100
AcDbEntity
  8
0
100
AcDbLine
 62
7
  6
CONTINUOUS
 10
257.4991315078
 20
85.1205
 11
224.4791315078
 21
85.1205
  0
LINE
  5
3C1
100
AcDbEntity
  8
0
100
AcDbLine
 62
7
  6
CONTINUOUS
 10
279.3431315078
 20
85.2177765841
 11
279.5209315078
 21
85.2177765841
  0
LINE
  5
3C2
100
AcDbEntity
  8
0
100
AcDbLine
 62
7
  6
CONTINUOUS
 10
279.3431315078
 20
85.4771808691
 11
279.5209315078
 21
85.4771808691
  0
LINE
  5
3C3
100
AcDbEntity
  8
0
100
AcDbLine
 62
7
  6
CONTINUOUS
 10
229.3054776727
 20
86.2635
 11
257.2451315078
 21
86.2635
  0
LINE
  5
3C4
100
AcDbEntity
  8
0
100
AcDbLine
 62
7
  6
CONTINUOUS
 10
242.0051315078
 20
98.9635
 11
242.0051315078
 21
108.3615
  0
LINE
  5
3C5
100
AcDbEntity
  8
0
100
AcDbLine
 62
7
  6
CONTINUOUS
 10
242.6401315078
 20
98.9635
 11
242.6401315078
 21
108.3615
  0
LINE
  5
3C6
100
AcDbEntity
  8
0
100
AcDbLine
 62
7
  6
CONTINUOUS
 10
279.3431315078
 20
86.6445
 11
279.5209315078
 21
86.6445
  0
LINE
  5
3C7
100
AcDbEntity
  8
0
100
AcDbLine
 62
7
  6
CONTINUOUS
 10
246.8311315078
 20
111.2825
 11
246.8311315078
 21
109.5045
  0
LINE
  5
3C8
100
AcDbEntity
  8
0
100
AcDbLine
 62
7
  6
CONTINUOUS
 10
246.8311315078
 20
83.3425
 11
246.8311315078
 21
85.1205
  0
LINE
  5
3C9
100
AcDbEntity
  8
0
100
AcDbLine
 62
7
  6
CONTINUOUS
 10
247.3391315078
 20
98.9635
 11
247.3391315078
 21
108.3615
  0
LINE
  5
3CA
100
AcDbEntity
  8
0
100
AcDbLine
 62
7
  6
CONTINUOUS
 10
257.4991315078
 20
90.9625
 11
279.3431315078
 21
90.9625
  0
LINE
  5
3CB
100
AcDbEntity
  8
0
100
AcDbLine
 62
7
  6
CONTINUOUS
 10
248.6091315078
 20
98.9635
 11
248.6091315078
 21
108.3615
  0
LINE
  5
3CC
100
AcDbEntity
  8
0
100
AcDbLine
 62
7
  6
CONTINUOUS
 10
249.1171315078
 20
98.9635
 11
249.1171315078
 21
108.3615
  0
LINE
  5
3CD
100
AcDbEntity
  8
0
100
AcDbLine
 62
7
  6
CONTINUOUS
 10
249.3711315078
 20
111.2825
 11
249.3711315078
 21
109.5045
  0
LINE
  5
3CE
100
AcDbEntity
  8
0
100
AcDbLine
 62
7
  6
CONTINUOUS
 10
249.3711315078
 20
83.3425
 11
249.3711315078
 21
85.1205
  0
LINE
  5
3CF
100
AcDbEntity
  8
0
100
AcDbLine
 62
7
  6
CONTINUOUS
 10
249.8791315078
 20
98.9635
 11
249.8791315078
 21
108.3615
  0
LINE
  5
3D0
100
AcDbEntity
  8
0
100
AcDbLine
 62
7
  6
CONTINUOUS
 10
229.3054776727
 20
95.6615
 11
257.2451315078
 21
95.6615
  0
LINE
  5
3D1
100
AcDbEntity
  8
0
100
AcDbLine
 62
7
  6
CONTINUOUS
 10
242.0051315078
 20
98.9635
 11
249.8791315078
 21
98.9635
  0
LINE
  5
3D2
100
AcDbEntity
  8
0
100
AcDbLine
 62
7
  6
CONTINUOUS
 10
255.8007821969
 20
86.2635
 11
255.8007821969
 21
95.6615
  0
LINE
  5
3D3
100
AcDbEntity
  8
0
100
AcDbLine
 62
7
  6
CONTINUOUS
 10
256.4831315078
 20
86.2635
 11
256.4831315078
 21
95.6615
  0
LINE
  5
3D4
100
AcDbEntity
  8
0
100
AcDbLine
 62
7
  6
CONTINUOUS
 10
257.2451315078
 20
86.2635
 11
257.2451315078
 21
95.6615
  0
LINE
  5
3D5
100
AcDbEntity
  8
0
100
AcDbLine
 62
7
  6
CONTINUOUS
 10
257.4991315078
 20
83.3425
 11
257.4991315078
 21
90.9625
  0
LINE
  5
3D6
100
AcDbEntity
  8
0
100
AcDbLine
 62
7
  6
CONTINUOUS
 10
257.4991315078
 20
103.6625
 11
257.4991315078
 21
111.2825
  0
LINE
  5
3D7
100
AcDbEntity
  8
0
100
AcDbLine
 62
7
  6
CONTINUOUS
 10
242.0051315078
 20
102.2655
 11
224.4791315078
 21
102.2655
  0
LINE
  5
3D8
100
AcDbEntity
  8
0
100
AcDbLine
 62
7
  6
CONTINUOUS
 10
279.3431315078
 20
103.6625
 11
257.4991315078
 21
103.6625
  0
LINE
  5
3D9
100
AcDbEntity
  8
0
100
AcDbLine
 62
7
  6
CONTINUOUS
 10
224.4791315078
 20
104.2975
 11
242.0051315078
 21
104.2975
  0
LINE
  5
3DA
100
AcDbEntity
  8
0
100
AcDbLine
 62
7
  6
CONTINUOUS
 10
277.3111315078
 20
108.2841237049
 11
257.4991315078
 21
108.2841237049
  0
LINE
  5
3DB
100
AcDbEntity
  8
0
100
AcDbLine
 62
7
  6
CONTINUOUS
 10
242.0051315078
 20
108.3615
 11
249.8791315078
 21
108.3615
  0
LINE
  5
3DC
100
AcDbEntity
  8
0
100
AcDbLine
 62
7
  6
CONTINUOUS
 10
279.3431315078
 20
108.4885
 11
279.5209315078
 21
108.4885
  0
LINE
  5
3DD
100
AcDbEntity
  8
0
100
AcDbLine
 62
7
  6
CONTINUOUS
 10
277.3111315078
 20
109.3617544394
 11
257.4991315078
 21
109.3617544394
  0
LINE
  5
3DE
100
AcDbEntity
  8
0
100
AcDbLine
 62
7
  6
CONTINUOUS
 10
224.4791315078
 20
109.5045
 11
257.4991315078
 21
109.5045
  0
LINE
  5
3DF
100
AcDbEntity
  8
0
100
AcDbLine
 62
7
  6
CONTINUOUS
 10
279.3431315078
 20
109.8719893179
 11
279.5209315078
 21
109.8719893179
  0
LINE
  5
3E0
100
AcDbEntity
  8
0
100
AcDbLine
 62
7
  6
CONTINUOUS
 10
279.3431315078
 20
110.2178617382
 11
279.5209315078
 21
110.2178617382
  0
LINE
  5
3E1
100
AcDbEntity
  8
0
100
AcDbLine
 62
7
  6
CONTINUOUS
 10
279.3431315078
 20
110.5205
 11
279.5209315078
 21
110.5205
  0
LINE
  5
3E2
100
AcDbEntity
  8
0
100
AcDbLine
 62
7
  6
CONTINUOUS
 10
257.4991315078
 20
111.0961749291
 11
277.3111315078
 21
111.0961749291
  0
LINE
  5
3E3
100
AcDbEntity
  8
0
100
AcDbLine
 62
7
  6
CONTINUOUS
 10
224.4791315078
 20
111.2825
 11
279.3431315078
 21
111.2825
  0
LINE
  5
3E4
100
AcDbEntity
  8
0
100
AcDbLine
 62
7
  6
CONTINUOUS
 10
233.4505405591
 20
113.8225
 11
237.6871315078
 21
113.8225
  0
LINE
  5
3E5
100
AcDbEntity
  8
0
100
AcDbLine
 62
7
  6
CONTINUOUS
 10
232.0991315078
 20
116.3625
 11
234.1311315078
 21
116.3625
  0
LINE
  5
3E6
100
AcDbEntity
  8
0
100
AcDbLine
 62
7
  6
CONTINUOUS
 10
277.3111315078
 20
111.0959783508
 11
277.3111315078
 21
108.2841237049
  0
LINE
  5
3E7
100
AcDbEntity
  8
0
100
AcDbLine
 62
7
  6
CONTINUOUS
 10
279.3431315078
 20
83.3425
 11
279.3431315078
 21
111.2825
  0
LINE
  5
3E8
100
AcDbEntity
  8
0
100
AcDbLine
 62
7
  6
CONTINUOUS
 10
279.5209315078
 20
110.5205
 11
279.5209315078
 21
108.4885
  0
LINE
  5
3E9
100
AcDbEntity
  8
0
100
AcDbLine
 62
7
  6
CONTINUOUS
 10
279.5209315078
 20
86.6445
 11
279.5209315078
 21
84.6125
  0
ARC
  5
3EA
100
AcDbEntity
  8
0
100
AcDbCircle
 62
7
  6
CONTINUOUS
 10
280.1601842005
 20
191.1978321301
 40
5.5468394856
100
AcDbArc
 50
40.0886498071
 51
42.3962712084
  0
ARC
  5
3EB
100
AcDbEntity
  8
0
100
AcDbCircle
 62
7
  6
CONTINUOUS
 10
287.9836310823
 20
199.0922776138
 40
5.546839486
100
AcDbArc
 50
40.0886498072
 51
42.3962712084
  0
ARC
  5
3EC
100
AcDbEntity
  8
0
100
AcDbCircle
 62
7
  6
CONTINUOUS
 10
303.5551358393
 20
191.19783213
 40
5.5468394857
100
AcDbArc
 50
40.0886498072
 51
42.3962712084
  0
ARC
  5
3ED
100
AcDbEntity
  8
0
100
AcDbCircle
 62
7
  6
CONTINUOUS
 10
291.8576600199
 20
191.1978321301
 40
5.5468394857
100
AcDbArc
 50
40.0886498072
 51
42.3962712084
  0
ARC
  5
3EE
100
AcDbEntity
  8
0
100
AcDbCircle
 62
7
  6
CONTINUOUS
 10
304.8445339262
 20
193.2823897623
 40
3.1754888617
100
AcDbArc
 50
26.2011503895
 51
30.3196599494
  0
ARC
  5
3EF
100
AcDbEntity
  8
0
100
AcDbCircle
 62
7
  6
CONTINUOUS
 10
293.1470581068
 20
193.2823897623
 40
3.1754888617
100
AcDbArc
 50
26.2011503895
 51
30.3196599494
  0
ARC
  5
3F0
100
AcDbEntity
  8
0
100
AcDbCircle
 62
7
  6
CONTINUOUS
 10
281.4495822873
 20
193.2823897622
 40
3.1754888617
100
AcDbArc
 50
26.2011503896
 51
30.3196599493
  0
ARC
  5
3F1
100
AcDbEntity
  8
0
100
AcDbCircle
 62
7
  6
CONTINUOUS
 10
289.2730291695
 20
201.1768352462
 40
3.1754888617
100
AcDbArc
 50
26.2011503895
 51
30.3196599494
  0
ARC
  5
3F2
100
AcDbEntity
  8
0
100
AcDbCircle
 62
7
  6
CONTINUOUS
 10
288.871085241
 20
194.6655668104
 40
3.0930333052
100
AcDbArc
 50
115.2573867903
 51
120.1203227945
  0
ARC
  5
3F3
100
AcDbEntity
  8
0
100
AcDbCircle
 62
7
  6
CONTINUOUS
 10
300.5685610604
 20
194.6655668103
 40
3.0930333053
100
AcDbArc
 50
115.2573867904
 51
120.1203227945
  0
ARC
  5
3F4
100
AcDbEntity
  8
0
100
AcDbCircle
 62
7
  6
CONTINUOUS
 10
284.9970563036
 20
202.5600122943
 40
3.0930333052
100
AcDbArc
 50
115.2573867903
 51
120.1203227945
  0
ARC
  5
3F5
100
AcDbEntity
  8
0
100
AcDbCircle
 62
7
  6
CONTINUOUS
 10
277.1736094215
 20
194.6655668103
 40
3.0930333052
100
AcDbArc
 50
115.2573867904
 51
120.1203227945
  0
CIRCLE
  5
3F6
100
AcDbEntity
  8
0
100
AcDbCircle
 62
7
  6
CONTINUOUS
 10
102.8
 20
90.9625
 40
6.1594401808
  0
ARC
  5
3F7
100
AcDbEntity
  8
0
100
AcDbCircle
 62
7
  6
CONTINUOUS
 10
115.5
 20
90.9625
 40
6.1594401808
100
AcDbArc
 50
0.0
 51
180.0
  0
CIRCLE
  5
3F8
100
AcDbEntity
  8
0
100
AcDbCircle
 62
7
  6
CONTINUOUS
 10
128.2
 20
90.9625
 40
6.1594401808
  0
ARC
  5
3F9
100
AcDbEntity
  8
0
100
AcDbCircle
 62
7
  6
CONTINUOUS
 10
102.8
 20
103.6625
 40
6.1594401808
100
AcDbArc
 50
180.0
 51
360.0
  0
CIRCLE
  5
3FA
100
AcDbEntity
  8
0
100
AcDbCircle
 62
7
  6
CONTINUOUS
 10
115.5
 20
103.6625
 40
6.1594401808
  0
ARC
  5
3FB
100
AcDbEntity
  8
0
100
AcDbCircle
 62
7
  6
CONTINUOUS
 10
128.2
 20
103.6625
 40
6.1594401808
100
AcDbArc
 50
180.0
 51
360.0
  0
ARC
  5
3FC
100
AcDbEntity
  8
0
100
AcDbCircle
 62
7
  6
CONTINUOUS
 10
128.2
 20
103.6625
 40
5.1435
100
AcDbArc
 50
180.0
 51
360.0
  0
ARC
  5
3FD
100
AcDbEntity
  8
0
100
AcDbCircle
 62
7
  6
CONTINUOUS
 10
102.8
 20
103.6625
 40
5.1435
100
AcDbArc
 50
180.0
 51
360.0
  0
ARC
  5
3FE
100
AcDbEntity
  8
0
100
AcDbCircle
 62
7
  6
CONTINUOUS
 10
115.5
 20
90.9625
 40
5.1435
100
AcDbArc
 50
0.0
 51
180.0
  0
CIRCLE
  5
3FF
100
AcDbEntity
  8
0
100
AcDbCircle
 62
7
  6
CONTINUOUS
 10
128.2
 20
90.9625
 40
5.1435
  0
CIRCLE
  5
400
100
AcDbEntity
  8
0
100
AcDbCircle
 62
7
  6
CONTINUOUS
 10
115.5
 20
103.6625
 40
5.1435
  0
CIRCLE
  5
401
100
AcDbEntity
  8
0
100
AcDbCircle
 62
7
  6
CONTINUOUS
 10
102.8
 20
90.9625
 40
5.1435
  0
CIRCLE
  5
402
100
AcDbEntity
  8
0
100
AcDbCircle
 62
7
  6
CONTINUOUS
 10
109.15
 20
97.3125
 40
2.159
  0
CIRCLE
  5
403
100
AcDbEntity
  8
0
100
AcDbCircle
 62
7
  6
CONTINUOUS
 10
121.85
 20
97.3125
 40
2.159
  0
ARC
  5
404
100
AcDbEntity
  8
0
100
AcDbCircle
 62
7
  6
CONTINUOUS
 10
136.836
 20
103.2815
 40
1.016
100
AcDbArc
 50
270.0
 51
90.0
  0
ARC
  5
405
100
AcDbEntity
  8
0
100
AcDbCircle
 62
7
  6
CONTINUOUS
 10
95.18
 20
195.4836315078
 40
8.128
100
AcDbArc
 50
90.0
 51
180.0
  0
ARC
  5
406
100
AcDbEntity
  8
0
100
AcDbCircle
 62
7
  6
CONTINUOUS
 10
135.82
 20
195.4836315078
 40
8.128
100
AcDbArc
 50
0.0
 51
90.0
  0
ARC
  5
407
100
AcDbEntity
  8
0
100
AcDbCircle
 62
7
  6
CONTINUOUS
 10
87.052
 20
193.4516315078
 40
1.27
100
AcDbArc
 50
90.0
 51
180.0
  0
ARC
  5
408
100
AcDbEntity
  8
0
100
AcDbCircle
 62
7
  6
CONTINUOUS
 10
143.948
 20
193.4516315078
 40
1.27
100
AcDbArc
 50
0.0
 51
90.0
  0
ARC
  5
409
100
AcDbEntity
  8
0
100
AcDbCircle
 62
7
  6
CONTINUOUS
 10
88.068
 20
191.9276315078
 40
1.016
100
AcDbArc
 50
90.0
 51
180.0
  0
ARC
  5
40A
100
AcDbEntity
  8
0
100
AcDbCircle
 62
7
  6
CONTINUOUS
 10
142.932
 20
191.9276315078
 40
1.016
100
AcDbArc
 50
0.0
 51
90.0
  0
ARC
  5
40B
100
AcDbEntity
  8
0
100
AcDbCircle
 62
7
  6
CONTINUOUS
 10
139.63
 20
201.8336315078
 40
0.762
100
AcDbArc
 50
39.3863508689
 51
84.7033766875
  0
ARC
  5
40C
100
AcDbEntity
  8
0
100
AcDbCircle
 62
7
  6
CONTINUOUS
 10
91.37
 20
201.8336315078
 40
0.762
100
AcDbArc
 50
95.2966233125
 51
140.6136491311
  0
ARC
  5
40D
100
AcDbEntity
  8
0
100
AcDbCircle
 62
7
  6
CONTINUOUS
 10
86.417
 20
188.7526315078
 40
0.635
100
AcDbArc
 50
180.0
 51
360.0
  0
ARC
  5
40E
100
AcDbEntity
  8
0
100
AcDbCircle
 62
7
  6
CONTINUOUS
 10
144.583
 20
188.7526315078
 40
0.635
100
AcDbArc
 50
180.0
 51
360.0
  0
SPLINE
  5
40F
100
AcDbEntity
  8
0
100
AcDbSpline
 62
7
  6
CONTINUOUS
 70
0
 71
3
 72
11
 73
7
 74
0
 42
0.0000001
 43
0.0000001
 44
0.0000000001
 40
0.0
 40
0.0
 40
0.0
 40
0.0
 40
0.3036287053
 40
0.5699758008
 40
0.7977420113
 40
1.0
 40
1.0
 40
1.0
 40
1.0
 10
307.2167206662
 20
200.9146401985
 30
0.0
 10
307.2961840774
 20
200.9146401985
 30
0.0
 10
307.4459196962
 20
200.9273119007
 30
0.0
 10
307.6471741608
 20
200.9904251099
 30
0.0
 10
307.8005579632
 20
201.0955109511
 30
0.0
 10
307.8617742614
 20
201.1954112506
 30
0.0
 10
307.8774278828
 20
201.2459771726
 30
0.0
  0
SPLINE
  5
410
100
AcDbEntity
  8
0
100
AcDbSpline
 62
7
  6
CONTINUOUS
 70
0
 71
3
 72
19
 73
15
 74
0
 42
0.0000001
 43
0.0000001
 44
0.0000000001
 40
0.0
 40
0.0
 40
0.0
 40
0.0
 40
0.1137035499
 40
0.1783381484
 40
0.2472334726
 40
0.3933565406
 40
0.5422146606
 40
0.6831087484
 40
0.7477950766
 40
0.8075097424
 40
0.861960467
 40
0.9114125184
 40
0.9568457108
 40
1.0
 40
1.0
 40
1.0
 40
1.0
 10
285.2156655547
 20
197.8358064598
 30
0.0
 10
285.1360996558
 20
197.9979448076
 30
0.0
 10
284.9573924406
 20
198.2262156682
 30
0.0
 10
284.660819897
 20
198.4837603256
 30
0.0
 10
284.2926983101
 20
198.7342915703
 30
0.0
 10
283.7657807771
 20
198.9815218465
 30
0.0
 10
283.0922933914
 20
199.1566778497
 30
0.0
 10
282.5256954948
 20
199.1928014043
 30
0.0
 10
282.1060320261
 20
199.1446593413
 30
0.0
 10
281.8297670475
 20
199.0741134611
 30
0.0
 10
281.5902582348
 20
198.969834324
 30
0.0
 10
281.3938057815
 20
198.8335651517
 30
0.0
 10
281.2466603873
 20
198.6678778329
 30
0.0
 10
281.1846861662
 20
198.5389981052
 30
0.0
 10
281.1644214791
 20
198.473514919
 30
0.0
  0
SPLINE
  5
411
100
AcDbEntity
  8
0
100
AcDbSpline
 62
7
  6
CONTINUOUS
 70
0
 71
3
 72
19
 73
15
 74
0
 42
0.0000001
 43
0.0000001
 44
0.0000000001
 40
0.0
 40
0.0
 40
0.0
 40
0.0
 40
0.1137035499
 40
0.1783381484
 40
0.2472334726
 40
0.3933565406
 40
0.5422146606
 40
0.6831087484
 40
0.7477950766
 40
0.8075097424
 40
0.861960467
 40
0.9114125184
 40
0.9568457108
 40
1.0
 40
1.0
 40
1.0
 40
1.0
 10
296.9131413741
 20
197.8358064598
 30
0.0
 10
296.8335754752
 20
197.9979448076
 30
0.0
 10
296.65486826
 20
198.2262156682
 30
0.0
 10
296.3582957165
 20
198.4837603256
 30
0.0
 10
295.9901741295
 20
198.7342915703
 30
0.0
 10
295.4632565966
 20
198.9815218465
 30
0.0
 10
294.7897692108
 20
199.1566778497
 30
0.0
 10
294.2231713142
 20
199.1928014043
 30
0.0
 10
293.8035078456
 20
199.1446593413
 30
0.0
 10
293.527242867
 20
199.0741134611
 30
0.0
 10
293.2877340542
 20
198.969834324
 30
0.0
 10
293.0912816009
 20
198.8335651517
 30
0.0
 10
292.9441362067
 20
198.6678778329
 30
0.0
 10
292.8821619856
 20
198.5389981052
 30
0.0
 10
292.8618972985
 20
198.473514919
 30
0.0
  0
SPLINE
  5
412
100
AcDbEntity
  8
0
100
AcDbSpline
 62
7
  6
CONTINUOUS
 70
0
 71
3
 72
15
 73
11
 74
0
 42
0.0000001
 43
0.0000001
 44
0.0000000001
 40
0.0
 40
0.0
 40
0.0
 40
0.0
 40
0.1137217421
 40
0.2368200779
 40
0.3666673555
 40
0.5000304985
 40
0.6333901827
 40
0.7632261378
 40
0.8863123774
 40
1.0
 40
1.0
 40
1.0
 40
1.0
 10
299.2246386558
 20
197.543055137
 30
0.0
 10
299.5629658987
 20
197.6226534083
 30
0.0
 10
300.2831566966
 20
197.7248927311
 30
0.0
 10
301.4067852742
 20
197.7225987535
 30
0.0
 10
302.5807761059
 20
197.572248635
 30
0.0
 10
303.7596102882
 20
197.2795497592
 30
0.0
 10
304.8979226987
 20
196.8558925855
 30
0.0
 10
305.9518428204
 20
196.3174493615
 30
0.0
 10
306.8805386274
 20
195.685251968
 30
0.0
 10
307.4172262366
 20
195.1944396761
 30
0.0
 10
307.6514724865
 20
194.9378126584
 30
0.0
  0
SPLINE
  5
413
100
AcDbEntity
  8
0
100
AcDbSpline
 62
7
  6
CONTINUOUS
 70
0
 71
3
 72
9
 73
5
 74
0
 42
0.0000001
 43
0.0000001
 44
0.0000000001
 40
0.0
 40
0.0
 40
0.0
 40
0.0
 40
0.2564179308
 40
1.0
 40
1.0
 40
1.0
 40
1.0
 10
307.3353461435
 20
195.2580132037
 30
0.0
 10
307.3585845685
 20
195.2274706657
 30
0.0
 10
307.4475208103
 20
195.1070879434
 30
0.0
 10
307.5295380588
 20
194.9815415447
 30
0.0
 10
307.5856869816
 20
194.8854522806
 30
0.0
  0
SPLINE
  5
414
100
AcDbEntity
  8
0
100
AcDbSpline
 62
7
  6
CONTINUOUS
 70
0
 71
3
 72
15
 73
11
 74
0
 42
0.0000001
 43
0.0000001
 44
0.0000000001
 40
0.0
 40
0.0
 40
0.0
 40
0.0
 40
0.1137217421
 40
0.2368200779
 40
0.3666673555
 40
0.5000304985
 40
0.6333901827
 40
0.7632261378
 40
0.8863123774
 40
1.0
 40
1.0
 40
1.0
 40
1.0
 10
287.5271628364
 20
197.543055137
 30
0.0
 10
287.8654900792
 20
197.6226534083
 30
0.0
 10
288.5856808771
 20
197.7248927311
 30
0.0
 10
289.7093094548
 20
197.7225987535
 30
0.0
 10
290.8833002865
 20
197.572248635
 30
0.0
 10
292.0621344688
 20
197.2795497592
 30
0.0
 10
293.2004468793
 20
196.8558925855
 30
0.0
 10
294.254367001
 20
196.3174493615
 30
0.0
 10
295.183062808
 20
195.685251968
 30
0.0
 10
295.7197504171
 20
195.1944396761
 30
0.0
 10
295.9539966671
 20
194.9378126584
 30
0.0
  0
SPLINE
  5
415
100
AcDbEntity
  8
0
100
AcDbSpline
 62
7
  6
CONTINUOUS
 70
0
 71
3
 72
9
 73
5
 74
0
 42
0.0000001
 43
0.0000001
 44
0.0000000001
 40
0.0
 40
0.0
 40
0.0
 40
0.0
 40
0.2564179308
 40
1.0
 40
1.0
 40
1.0
 40
1.0
 10
295.637870324
 20
195.2580132037
 30
0.0
 10
295.661108749
 20
195.2274706657
 30
0.0
 10
295.7500449909
 20
195.1070879434
 30
0.0
 10
295.8320622393
 20
194.9815415447
 30
0.0
 10
295.8882111622
 20
194.8854522806
 30
0.0
  0
SPLINE
  5
416
100
AcDbEntity
  8
0
100
AcDbSpline
 62
7
  6
CONTINUOUS
 70
0
 71
3
 72
15
 73
11
 74
0
 42
0.0000001
 43
0.0000001
 44
0.0000000001
 40
0.0
 40
0.0
 40
0.0
 40
0.0
 40
0.1137217421
 40
0.2368200779
 40
0.3666673555
 40
0.5000304985
 40
0.6333901827
 40
0.7632261378
 40
0.8863123774
 40
1.0
 40
1.0
 40
1.0
 40
1.0
 10
275.8296870169
 20
197.543055137
 30
0.0
 10
276.1680142598
 20
197.6226534083
 30
0.0
 10
276.8882050577
 20
197.7248927311
 30
0.0
 10
278.0118336354
 20
197.7225987535
 30
0.0
 10
279.1858244671
 20
197.572248635
 30
0.0
 10
280.3646586493
 20
197.2795497592
 30
0.0
 10
281.5029710599
 20
196.8558925855
 30
0.0
 10
282.5568911816
 20
196.3174493615
 30
0.0
 10
283.4855869885
 20
195.685251968
 30
0.0
 10
284.0222745977
 20
195.1944396761
 30
0.0
 10
284.2565208477
 20
194.9378126584
 30
0.0
  0
SPLINE
  5
417
100
AcDbEntity
  8
0
100
AcDbSpline
 62
7
  6
CONTINUOUS
 70
0
 71
3
 72
9
 73
5
 74
0
 42
0.0000001
 43
0.0000001
 44
0.0000000001
 40
0.0
 40
0.0
 40
0.0
 40
0.0
 40
0.2564179308
 40
1.0
 40
1.0
 40
1.0
 40
1.0
 10
283.9403945046
 20
195.2580132037
 30
0.0
 10
283.9636329296
 20
195.2274706657
 30
0.0
 10
284.0525691715
 20
195.1070879434
 30
0.0
 10
284.1345864199
 20
194.9815415447
 30
0.0
 10
284.1907353427
 20
194.8854522806
 30
0.0
  0
SPLINE
  5
418
100
AcDbEntity
  8
0
100
AcDbSpline
 62
7
  6
CONTINUOUS
 70
0
 71
3
 72
15
 73
11
 74
0
 42
0.0000001
 43
0.0000001
 44
0.0000000001
 40
0.0
 40
0.0
 40
0.0
 40
0.0
 40
0.1137217421
 40
0.2368200779
 40
0.3666673555
 40
0.5000304985
 40
0.6333901827
 40
0.7632261378
 40
0.8863123774
 40
1.0
 40
1.0
 40
1.0
 40
1.0
 10
283.6531338991
 20
205.4375006209
 30
0.0
 10
283.9914611419
 20
205.5170988922
 30
0.0
 10
284.7116519398
 20
205.6193382151
 30
0.0
 10
285.8352805175
 20
205.6170442374
 30
0.0
 10
287.0092713492
 20
205.4666941189
 30
0.0
 10
288.1881055314
 20
205.1739952432
 30
0.0
 10
289.326417942
 20
204.7503380695
 30
0.0
 10
290.3803380637
 20
204.2118948454
 30
0.0
 10
291.3090338707
 20
203.5796974519
 30
0.0
 10
291.8457214798
 20
203.08888516
 30
0.0
 10
292.0799677298
 20
202.8322581423
 30
0.0
  0
SPLINE
  5
419
100
AcDbEntity
  8
0
100
AcDbSpline
 62
7
  6
CONTINUOUS
 70
0
 71
3
 72
9
 73
5
 74
0
 42
0.0000001
 43
0.0000001
 44
0.0000000001
 40
0.0
 40
0.0
 40
0.0
 40
0.0
 40
0.2564179308
 40
1.0
 40
1.0
 40
1.0
 40
1.0
 10
291.7638413867
 20
203.1524586877
 30
0.0
 10
291.7870798117
 20
203.1219161497
 30
0.0
 10
291.8760160536
 20
203.0015334273
 30
0.0
 10
291.958033302
 20
202.8759870286
 30
0.0
 10
292.0141822248
 20
202.7798977645
 30
0.0
  0
SPLINE
  5
41A
100
AcDbEntity
  8
0
100
AcDbSpline
 62
7
  6
CONTINUOUS
 70
0
 71
3
 72
11
 73
7
 74
0
 42
0.0000001
 43
0.0000001
 44
0.0000000001
 40
0.0
 40
0.0
 40
0.0
 40
0.0
 40
0.2341972553
 40
0.475255807
 40
0.7290568516
 40
1.0
 40
1.0
 40
1.0
 40
1.0
 10
286.3444834847
 20
196.2026415127
 30
0.0
 10
286.3797654665
 20
196.3169309001
 30
0.0
 10
286.4766278906
 20
196.5418327094
 30
0.0
 10
286.6929095802
 20
196.8478571858
 30
0.0
 10
286.9765333545
 20
197.1201638418
 30
0.0
 10
287.1992859135
 20
197.2714610302
 30
0.0
 10
287.3189467698
 20
197.3409585935
 30
0.0
  0
SPLINE
  5
41B
100
AcDbEntity
  8
0
100
AcDbSpline
 62
7
  6
CONTINUOUS
 70
0
 71
3
 72
9
 73
5
 74
0
 42
0.0000001
 43
0.0000001
 44
0.0000000001
 40
0.0
 40
0.0
 40
0.0
 40
0.0
 40
0.2438145199
 40
1.0
 40
1.0
 40
1.0
 40
1.0
 10
287.5513332668
 20
197.4629065741
 30
0.0
 10
287.5840075373
 20
197.478376922
 30
0.0
 10
287.7190463568
 20
197.5396495193
 30
0.0
 10
287.8579228044
 20
197.5923696509
 30
0.0
 10
287.9642994506
 20
197.6278052494
 30
0.0
  0
SPLINE
  5
41C
100
AcDbEntity
  8
0
100
AcDbSpline
 62
7
  6
CONTINUOUS
 70
0
 71
3
 72
10
 73
6
 74
0
 42
0.0000001
 43
0.0000001
 44
0.0000000001
 40
0.0
 40
0.0
 40
0.0
 40
0.0
 40
0.2340947547
 40
0.4754055608
 40
1.0
 40
1.0
 40
1.0
 40
1.0
 10
296.9872436711
 20
197.1980980006
 30
0.0
 10
297.0023685134
 20
197.2469723238
 30
0.0
 10
297.0222319065
 20
197.3499547188
 30
0.0
 10
297.0175634786
 20
197.5697052459
 30
0.0
 10
296.9636493391
 20
197.7328819896
 30
0.0
 10
296.9131413741
 20
197.8358064598
 30
0.0
  0
SPLINE
  5
41D
100
AcDbEntity
  8
0
100
AcDbSpline
 62
7
  6
CONTINUOUS
 70
0
 71
3
 72
10
 73
6
 74
0
 42
0.0000001
 43
0.0000001
 44
0.0000000001
 40
0.0
 40
0.0
 40
0.0
 40
0.0
 40
0.2340947547
 40
0.4754055608
 40
1.0
 40
1.0
 40
1.0
 40
1.0
 10
285.2897678516
 20
197.1980980006
 30
0.0
 10
285.3048926939
 20
197.2469723238
 30
0.0
 10
285.3247560871
 20
197.3499547188
 30
0.0
 10
285.3200876591
 20
197.5697052459
 30
0.0
 10
285.2661735197
 20
197.7328819896
 30
0.0
 10
285.2156655547
 20
197.8358064598
 30
0.0
  0
SPLINE
  5
41E
100
AcDbEntity
  8
0
100
AcDbSpline
 62
7
  6
CONTINUOUS
 70
0
 71
3
 72
11
 73
7
 74
0
 42
0.0000001
 43
0.0000001
 44
0.0000000001
 40
0.0
 40
0.0
 40
0.0
 40
0.0
 40
0.2341972553
 40
0.475255807
 40
0.7290568516
 40
1.0
 40
1.0
 40
1.0
 40
1.0
 10
298.0419593041
 20
196.2026415127
 30
0.0
 10
298.0772412859
 20
196.3169309001
 30
0.0
 10
298.17410371
 20
196.5418327094
 30
0.0
 10
298.3903853997
 20
196.8478571858
 30
0.0
 10
298.6740091739
 20
197.1201638418
 30
0.0
 10
298.896761733
 20
197.2714610302
 30
0.0
 10
299.0164225892
 20
197.3409585935
 30
0.0
  0
SPLINE
  5
41F
100
AcDbEntity
  8
0
100
AcDbSpline
 62
7
  6
CONTINUOUS
 70
0
 71
3
 72
9
 73
5
 74
0
 42
0.0000001
 43
0.0000001
 44
0.0000000001
 40
0.0
 40
0.0
 40
0.0
 40
0.0
 40
0.2438145199
 40
1.0
 40
1.0
 40
1.0
 40
1.0
 10
299.2488090862
 20
197.4629065741
 30
0.0
 10
299.2814833567
 20
197.478376922
 30
0.0
 10
299.4165221762
 20
197.5396495193
 30
0.0
 10
299.5553986238
 20
197.5923696509
 30
0.0
 10
299.66177527
 20
197.6278052494
 30
0.0
  0
SPLINE
  5
420
100
AcDbEntity
  8
0
100
AcDbSpline
 62
7
  6
CONTINUOUS
 70
0
 71
3
 72
11
 73
7
 74
0
 42
0.0000001
 43
0.0000001
 44
0.0000000001
 40
0.0
 40
0.0
 40
0.0
 40
0.0
 40
0.2341972553
 40
0.475255807
 40
0.7290568516
 40
1.0
 40
1.0
 40
1.0
 40
1.0
 10
282.4704545473
 20
204.0970869966
 30
0.0
 10
282.5057365292
 20
204.211376384
 30
0.0
 10
282.6025989533
 20
204.4362781933
 30
0.0
 10
282.8188806429
 20
204.7423026697
 30
0.0
 10
283.1025044172
 20
205.0146093257
 30
0.0
 10
283.3252569762
 20
205.1659065142
 30
0.0
 10
283.4449178325
 20
205.2354040774
 30
0.0
  0
SPLINE
  5
421
100
AcDbEntity
  8
0
100
AcDbSpline
 62
7
  6
CONTINUOUS
 70
0
 71
3
 72
9
 73
5
 74
0
 42
0.0000001
 43
0.0000001
 44
0.0000000001
 40
0.0
 40
0.0
 40
0.0
 40
0.0
 40
0.2438145199
 40
1.0
 40
1.0
 40
1.0
 40
1.0
 10
283.6773043295
 20
205.357352058
 30
0.0
 10
283.7099785999
 20
205.3728224059
 30
0.0
 10
283.8450174195
 20
205.4340950032
 30
0.0
 10
283.9838938671
 20
205.4868151348
 30
0.0
 10
284.0902705132
 20
205.5222507334
 30
0.0
  0
SPLINE
  5
422
100
AcDbEntity
  8
0
100
AcDbSpline
 62
7
  6
CONTINUOUS
 70
0
 71
3
 72
11
 73
7
 74
0
 42
0.0000001
 43
0.0000001
 44
0.0000000001
 40
0.0
 40
0.0
 40
0.0
 40
0.0
 40
0.2341972553
 40
0.475255807
 40
0.7290568516
 40
1.0
 40
1.0
 40
1.0
 40
1.0
 10
274.6470076652
 20
196.2026415127
 30
0.0
 10
274.6822896471
 20
196.3169309001
 30
0.0
 10
274.7791520712
 20
196.5418327094
 30
0.0
 10
274.9954337608
 20
196.8478571858
 30
0.0
 10
275.2790575351
 20
197.1201638418
 30
0.0
 10
275.5018100941
 20
197.2714610302
 30
0.0
 10
275.6214709504
 20
197.3409585935
 30
0.0
  0
SPLINE
  5
423
100
AcDbEntity
  8
0
100
AcDbSpline
 62
7
  6
CONTINUOUS
 70
0
 71
3
 72
9
 73
5
 74
0
 42
0.0000001
 43
0.0000001
 44
0.0000000001
 40
0.0
 40
0.0
 40
0.0
 40
0.0
 40
0.2438145199
 40
1.0
 40
1.0
 40
1.0
 40
1.0
 10
275.8538574474
 20
197.4629065741
 30
0.0
 10
275.8865317178
 20
197.478376922
 30
0.0
 10
276.0215705374
 20
197.5396495193
 30
0.0
 10
276.160446985
 20
197.5923696509
 30
0.0
 10
276.2668236311
 20
197.6278052494
 30
0.0
  0
SPLINE
  5
424
100
AcDbEntity
  8
0
100
AcDbSpline
 62
7
  6
CONTINUOUS
 70
0
 71
3
 72
14
 73
10
 74
0
 42
0.0000001
 43
0.0000001
 44
0.0000000001
 40
0.0
 40
0.0
 40
0.0
 40
0.0
 40
0.2525848798
 40
0.3840355793
 40
0.5155880496
 40
0.6448513317
 40
0.7696672515
 40
0.8883607019
 40
1.0
 40
1.0
 40
1.0
 40
1.0
 10
274.0914623001
 20
232.3851519923
 30
0.0
 10
273.0736650398
 20
232.3851519923
 30
0.0
 10
271.5170827951
 20
232.1180751197
 30
0.0
 10
269.5845775038
 20
231.3457114377
 30
0.0
 10
268.2080699141
 20
230.5567295333
 30
0.0
 10
266.9796862112
 20
229.5963387084
 30
0.0
 10
265.9442901495
 20
228.4993794805
 30
0.0
 10
265.1414880027
 20
227.3066639876
 30
0.0
 10
264.7703823814
 20
226.4480700066
 30
0.0
 10
264.6375644545
 20
226.0182706384
 30
0.0
  0
SPLINE
  5
425
100
AcDbEntity
  8
0
100
AcDbSpline
 62
7
  6
CONTINUOUS
 70
0
 71
3
 72
11
 73
7
 74
0
 42
0.0000001
 43
0.0000001
 44
0.0000000001
 40
0.0
 40
0.0
 40
0.0
 40
0.0
 40
0.2714948241
 40
0.5255556345
 40
0.766314444
 40
1.0
 40
1.0
 40
1.0
 40
1.0
 10
323.0095232725
 20
236.8650328567
 30
0.0
 10
323.1019187032
 20
236.6767506568
 30
0.0
 10
323.2551717247
 20
236.2986790086
 30
0.0
 10
323.3823237551
 20
235.7172320749
 30
0.0
 10
323.3946431779
 20
235.1508565339
 30
0.0
 10
323.3245865284
 20
234.7876835723
 30
0.0
 10
323.2712882103
 20
234.6152077468
 30
0.0
  0
SPLINE
  5
426
100
AcDbEntity
  8
0
100
AcDbSpline
 62
7
  6
CONTINUOUS
 70
0
 71
3
 72
15
 73
11
 74
0
 42
0.0000001
 43
0.0000001
 44
0.0000000001
 40
0.0
 40
0.0
 40
0.0
 40
0.0
 40
0.1296680795
 40
0.2645457744
 40
0.4012558601
 40
0.5362781258
 40
0.6662239215
 40
0.788121911
 40
0.89974271
 40
1.0
 40
1.0
 40
1.0
 40
1.0
 10
309.7925914811
 20
249.496145631
 30
0.0
 10
310.2648674478
 20
249.496145631
 30
0.0
 10
311.2291810711
 20
249.4309612027
 30
0.0
 10
312.668478973
 20
249.1609191127
 30
0.0
 10
314.087398723
 20
248.726023055
 30
0.0
 10
315.4324561056
 20
248.142547745
 30
0.0
 10
316.6534756905
 20
247.4323419845
 30
0.0
 10
317.7052998767
 20
246.6212364084
 30
0.0
 10
318.5489217577
 20
245.739060168
 30
0.0
 10
318.9746274898
 20
245.0872906935
 30
0.0
 10
319.1354943352
 20
244.7594783406
 30
0.0
  0
SPLINE
  5
427
100
AcDbEntity
  8
0
100
AcDbSpline
 62
7
  6
CONTINUOUS
 70
0
 71
3
 72
11
 73
7
 74
0
 42
0.0000001
 43
0.0000001
 44
0.0000000001
 40
0.0
 40
0.0
 40
0.0
 40
0.0
 40
0.2267994044
 40
0.4649230675
 40
0.7222961212
 40
1.0
 40
1.0
 40
1.0
 40
1.0
 10
320.0514959529
 20
221.6176301528
 30
0.0
 10
320.0317754906
 20
221.6578605624
 30
0.0
 10
319.9766766242
 20
221.733872249
 30
0.0
 10
319.8585516408
 20
221.8176556323
 30
0.0
 10
319.7127612289
 20
221.8685150455
 30
0.0
 10
319.6066040073
 20
221.8791238779
 30
0.0
 10
319.5517440958
 20
221.8791238779
 30
0.0
  0
SPLINE
  5
428
100
AcDbEntity
  8
0
100
AcDbSpline
 62
7
  6
CONTINUOUS
 70
0
 71
3
 72
13
 73
9
 74
0
 42
0.0000001
 43
0.0000001
 44
0.0000000001
 40
0.0
 40
0.0
 40
0.0
 40
0.0
 40
0.1017955564
 40
0.2094773498
 40
0.3266114097
 40
0.453823827
 40
0.7271795785
 40
1.0
 40
1.0
 40
1.0
 40
1.0
 10
315.9361853273
 20
194.8731172576
 30
0.0
 10
315.946382682
 20
194.8522767222
 30
0.0
 10
315.9756750181
 20
194.8130050928
 30
0.0
 10
316.0391192058
 20
194.771737955
 30
0.0
 10
316.1170812545
 20
194.7489479818
 30
0.0
 10
316.2359668133
 20
194.7448035203
 30
0.0
 10
316.3872711087
 20
194.7885001084
 30
0.0
 10
316.4896623022
 20
194.8655123054
 30
0.0
 10
316.5301348153
 20
194.9127203338
 30
0.0
  0
SPLINE
  5
429
100
AcDbEntity
  8
0
100
AcDbSpline
 62
7
  6
CONTINUOUS
 70
0
 71
3
 72
11
 73
7
 74
0
 42
0.0000001
 43
0.0000001
 44
0.0000000001
 40
0.0
 40
0.0
 40
0.0
 40
0.0
 40
0.2268603421
 40
0.4649990266
 40
0.7221690665
 40
1.0
 40
1.0
 40
1.0
 40
1.0
 10
318.5813793502
 20
223.1706228697
 30
0.0
 10
318.5484630299
 20
223.2375995756
 30
0.0
 10
318.4564289096
 20
223.3639980286
 30
0.0
 10
318.2597519726
 20
223.503411799
 30
0.0
 10
318.0169810075
 20
223.588085036
 30
0.0
 10
317.8402239021
 20
223.6056530502
 30
0.0
 10
317.7488284073
 20
223.6056530502
 30
0.0
  0
SPLINE
  5
42A
100
AcDbEntity
  8
0
100
AcDbSpline
 62
7
  6
CONTINUOUS
 70
0
 71
3
 72
14
 73
10
 74
0
 42
0.0000001
 43
0.0000001
 44
0.0000000001
 40
0.0
 40
0.0
 40
0.0
 40
0.0
 40
0.1024246709
 40
0.2131163685
 40
0.3359111698
 40
0.4695802887
 40
0.6093263417
 40
0.7486177355
 40
1.0
 40
1.0
 40
1.0
 40
1.0
 10
319.1855569378
 20
212.8082981844
 30
0.0
 10
319.2071108763
 20
212.764401308
 30
0.0
 10
319.2739022105
 20
212.682679383
 30
0.0
 10
319.4198187622
 20
212.6080343757
 30
0.0
 10
319.5958391343
 20
212.582432567
 30
0.0
 10
319.7854409562
 20
212.6058585345
 30
0.0
 10
319.9718392177
 20
212.6757688408
 30
0.0
 10
320.1840885882
 20
212.8148172389
 30
0.0
 10
320.30502824
 20
212.9734120165
 30
0.0
 10
320.3404648076
 20
213.0880848978
 30
0.0
  0
SPLINE
  5
42B
100
AcDbEntity
  8
0
100
AcDbSpline
 62
7
  6
CONTINUOUS
 70
0
 71
3
 72
10
 73
6
 74
0
 42
0.0000001
 43
0.0000001
 44
0.0000000001
 40
0.0
 40
0.0
 40
0.0
 40
0.0
 40
0.2395944233
 40
0.4843151708
 40
1.0
 40
1.0
 40
1.0
 40
1.0
 10
317.0487309213
 20
221.8646859173
 30
0.0
 10
317.0648440607
 20
221.831874824
 30
0.0
 10
317.0906124662
 20
221.7619237432
 30
0.0
 10
317.1129585809
 20
221.61019937
 30
0.0
 10
317.0957246347
 20
221.4922065048
 30
0.0
 10
317.0724957031
 20
221.4170375848
 30
0.0
  0
SPLINE
  5
42C
100
AcDbEntity
  8
0
100
AcDbSpline
 62
7
  6
CONTINUOUS
 70
0
 71
3
 72
14
 73
10
 74
0
 42
0.0000001
 43
0.0000001
 44
0.0000000001
 40
0.0
 40
0.0
 40
0.0
 40
0.0
 40
0.1026682612
 40
0.2134749869
 40
0.3363223002
 40
0.469977805
 40
0.6096601823
 40
0.7488091511
 40
1.0
 40
1.0
 40
1.0
 40
1.0
 10
266.941598075
 20
202.7660033525
 30
0.0
 10
266.9541979176
 20
202.7409191325
 30
0.0
 10
266.9926850423
 20
202.6942133164
 30
0.0
 10
267.0766685034
 20
202.6519969744
 30
0.0
 10
267.1775283176
 20
202.637772
 30
0.0
 10
267.2860619345
 20
202.6514119577
 30
0.0
 10
267.3926747185
 20
202.6916111986
 30
0.0
 10
267.5139980482
 20
202.7713722343
 30
0.0
 10
267.5831127893
 20
202.8621351485
 30
0.0
 10
267.6033900488
 20
202.927752445
 30
0.0
  0
SPLINE
  5
42D
100
AcDbEntity
  8
0
100
AcDbSpline
 62
7
  6
CONTINUOUS
 70
0
 71
3
 72
11
 73
7
 74
0
 42
0.0000001
 43
0.0000001
 44
0.0000000001
 40
0.0
 40
0.0
 40
0.0
 40
0.0
 40
0.2390908209
 40
0.4828961558
 40
0.7356213862
 40
1.0
 40
1.0
 40
1.0
 40
1.0
 10
325.3756187042
 20
212.2309757146
 30
0.0
 10
325.5043971425
 20
211.9685194786
 30
0.0
 10
325.7095625358
 20
211.4095528417
 30
0.0
 10
325.8425300058
 20
210.5141857142
 30
0.0
 10
325.8003249518
 20
209.5795470558
 30
0.0
 10
325.6605638094
 20
208.9593478283
 30
0.0
 10
325.5651197876
 20
208.6504905738
 30
0.0
  0
SPLINE
  5
42E
100
AcDbEntity
  8
0
100
AcDbSpline
 62
7
  6
CONTINUOUS
 70
0
 71
3
 72
14
 73
10
 74
0
 42
0.0000001
 43
0.0000001
 44
0.0000000001
 40
0.0
 40
0.0
 40
0.0
 40
0.0
 40
0.1128413735
 40
0.2271845619
 40
0.3443954216
 40
0.4655806391
 40
0.5914989895
 40
0.7225954714
 40
1.0
 40
1.0
 40
1.0
 40
1.0
 10
316.8527550421
 20
229.5987557792
 30
0.0
 10
316.7478536406
 20
229.8125495428
 30
0.0
 10
316.4995729552
 20
230.225854077
 30
0.0
 10
316.0247270637
 20
230.7802207305
 30
0.0
 10
315.453925746
 20
231.2628801269
 30
0.0
 10
314.7963581418
 20
231.6664759679
 30
0.0
 10
314.0621223112
 20
231.985847132
 30
0.0
 10
312.9762039727
 20
232.2989965256
 30
0.0
 10
312.1088256889
 20
232.3851519923
 30
0.0
 10
311.5233849222
 20
232.3851519923
 30
0.0
  0
SPLINE
  5
42F
100
AcDbEntity
  8
0
100
AcDbSpline
 62
7
  6
CONTINUOUS
 70
0
 71
3
 72
15
 73
11
 74
0
 42
0.0000001
 43
0.0000001
 44
0.0000000001
 40
0.0
 40
0.0
 40
0.0
 40
0.0
 40
0.0996728627
 40
0.2028884374
 40
0.3126160481
 40
0.4309161415
 40
0.5588830621
 40
0.6967564583
 40
0.8441795312
 40
1.0
 40
1.0
 40
1.0
 40
1.0
 10
281.4418067753
 20
247.0093034505
 30
0.0
 10
281.4997715818
 20
247.1968802485
 30
0.0
 10
281.6640435607
 20
247.565938957
 30
0.0
 10
282.0388252677
 20
248.0604033496
 30
0.0
 10
282.5340692553
 20
248.4914113365
 30
0.0
 10
283.1389314819
 20
248.8523051945
 30
0.0
 10
283.8421412413
 20
249.1382449842
 30
0.0
 10
284.6314734719
 20
249.3451585697
 30
0.0
 10
285.492948918
 20
249.469734463
 30
0.0
 10
286.0907154158
 20
249.496145631
 30
0.0
 10
286.3976398423
 20
249.496145631
 30
0.0
  0
SPLINE
  5
430
100
AcDbEntity
  8
0
100
AcDbSpline
 62
7
  6
CONTINUOUS
 70
0
 71
3
 72
11
 73
7
 74
0
 42
0.0000001
 43
0.0000001
 44
0.0000000001
 40
0.0
 40
0.0
 40
0.0
 40
0.0
 40
0.2643786138
 40
0.5171038442
 40
0.7609091791
 40
1.0
 40
1.0
 40
1.0
 40
1.0
 10
317.5846201768
 20
224.9130482707
 30
0.0
 10
317.6800641985
 20
225.2219055252
 30
0.0
 10
317.8198253409
 20
225.8421047527
 30
0.0
 10
317.8620303949
 20
226.7767434111
 30
0.0
 10
317.729062925
 20
227.6721105386
 30
0.0
 10
317.5238975316
 20
228.2310771755
 30
0.0
 10
317.3951190933
 20
228.4935334115
 30
0.0
  0
SPLINE
  5
431
100
AcDbEntity
  8
0
100
AcDbSpline
 62
7
  6
CONTINUOUS
 70
0
 71
3
 72
11
 73
7
 74
0
 42
0.0000001
 43
0.0000001
 44
0.0000000001
 40
0.0
 40
0.0
 40
0.0
 40
0.0
 40
0.2592945689
 40
0.5108499444
 40
0.7568668262
 40
1.0
 40
1.0
 40
1.0
 40
1.0
 10
322.933242392
 20
215.2982738824
 30
0.0
 10
323.1417781113
 20
215.1805408324
 30
0.0
 10
323.5378826054
 20
214.9209460547
 30
0.0
 10
324.0631993495
 20
214.4559968897
 30
0.0
 10
324.5024430343
 20
213.9281037036
 30
0.0
 10
324.7343414484
 20
213.537787632
 30
0.0
 10
324.833254653
 20
213.3361980824
 30
0.0
  0
SPLINE
  5
432
100
AcDbEntity
  8
0
100
AcDbSpline
 62
7
  6
CONTINUOUS
 70
0
 71
3
 72
11
 73
7
 74
0
 42
0.0000001
 43
0.0000001
 44
0.0000000001
 40
0.0
 40
0.0
 40
0.0
 40
0.0
 40
0.2298911292
 40
0.4838417085
 40
0.7468108828
 40
1.0
 40
1.0
 40
1.0
 40
1.0
 10
312.5143773836
 20
215.774112969
 30
0.0
 10
312.5399570811
 20
215.8568889774
 30
0.0
 10
312.6328536291
 20
216.0195881348
 30
0.0
 10
312.8456754394
 20
216.2094345643
 30
0.0
 10
313.1099976469
 20
216.3375481001
 30
0.0
 10
313.3052618135
 20
216.3710080959
 30
0.0
 10
313.4006803066
 20
216.3710080959
 30
0.0
  0
SPLINE
  5
433
100
AcDbEntity
  8
0
100
AcDbSpline
 62
7
  6
CONTINUOUS
 70
0
 71
3
 72
10
 73
6
 74
0
 42
0.0000001
 43
0.0000001
 44
0.0000000001
 40
0.0
 40
0.0
 40
0.0
 40
0.0
 40
0.5160733272
 40
0.7604988767
 40
1.0
 40
1.0
 40
1.0
 40
1.0
 10
321.4779334464
 20
216.7689381806
 30
0.0
 10
321.5070049411
 20
216.8630136592
 30
0.0
 10
321.5287546321
 20
217.0106100332
 30
0.0
 10
321.5004396881
 20
217.2002953241
 30
0.0
 10
321.4683159278
 20
217.2877223549
 30
0.0
 10
321.4481607638
 20
217.3287332116
 30
0.0
  0
SPLINE
  5
434
100
AcDbEntity
  8
0
100
AcDbSpline
 62
7
  6
CONTINUOUS
 70
0
 71
3
 72
9
 73
5
 74
0
 42
0.0000001
 43
0.0000001
 44
0.0000000001
 40
0.0
 40
0.0
 40
0.0
 40
0.0
 40
0.5169935921
 40
1.0
 40
1.0
 40
1.0
 40
1.0
 10
316.3039358121
 20
218.9299745559
 30
0.0
 10
316.2894174103
 20
218.882992947
 30
0.0
 10
316.2749966784
 20
218.7867396691
 30
0.0
 10
316.2985270833
 20
218.6914259349
 30
0.0
 10
316.3187755242
 20
218.6501878425
 30
0.0
  0
SPLINE
  5
435
100
AcDbEntity
  8
0
100
AcDbSpline
 62
7
  6
CONTINUOUS
 70
0
 71
3
 72
9
 73
5
 74
0
 42
0.0000001
 43
0.0000001
 44
0.0000000001
 40
0.0
 40
0.0
 40
0.0
 40
0.0
 40
0.511896393
 40
1.0
 40
1.0
 40
1.0
 40
1.0
 10
322.9513556172
 20
215.5027316232
 30
0.0
 10
322.960022976
 20
215.5494715172
 30
0.0
 10
322.9644488258
 20
215.64382618
 30
0.0
 10
322.9382282112
 20
215.7350400973
 30
0.0
 10
322.9182773665
 20
215.7757404947
 30
0.0
  0
SPLINE
  5
436
100
AcDbEntity
  8
0
100
AcDbSpline
 62
7
  6
CONTINUOUS
 70
0
 71
3
 72
11
 73
7
 74
0
 42
0.0000001
 43
0.0000001
 44
0.0000000001
 40
0.0
 40
0.0
 40
0.0
 40
0.0
 40
0.271519658
 40
0.5255759392
 40
0.7663009544
 40
1.0
 40
1.0
 40
1.0
 40
1.0
 10
303.8197107979
 20
202.578889371
 30
0.0
 10
303.8820649252
 20
202.4518249571
 30
0.0
 10
303.9854542234
 20
202.1966791348
 30
0.0
 10
304.0712679501
 20
201.8043365233
 30
0.0
 10
304.0796962839
 20
201.4221633875
 30
0.0
 10
304.0324704029
 20
201.1770951099
 30
0.0
 10
303.9965357422
 20
201.060691509
 30
0.0
  0
SPLINE
  5
437
100
AcDbEntity
  8
0
100
AcDbSpline
 62
7
  6
CONTINUOUS
 70
0
 71
3
 72
11
 73
7
 74
0
 42
0.0000001
 43
0.0000001
 44
0.0000000001
 40
0.0
 40
0.0
 40
0.0
 40
0.0
 40
0.271519658
 40
0.5255759392
 40
0.7663009544
 40
1.0
 40
1.0
 40
1.0
 40
1.0
 10
280.424759159
 20
202.578889371
 30
0.0
 10
280.4871132863
 20
202.4518249571
 30
0.0
 10
280.5905025846
 20
202.1966791348
 30
0.0
 10
280.6763163112
 20
201.8043365233
 30
0.0
 10
280.684744645
 20
201.4221633875
 30
0.0
 10
280.6375187641
 20
201.1770951099
 30
0.0
 10
280.6015841033
 20
201.060691509
 30
0.0
  0
SPLINE
  5
438
100
AcDbEntity
  8
0
100
AcDbSpline
 62
7
  6
CONTINUOUS
 70
0
 71
3
 72
9
 73
5
 74
0
 42
0.0000001
 43
0.0000001
 44
0.0000000001
 40
0.0
 40
0.0
 40
0.0
 40
0.0
 40
0.5165554635
 40
1.0
 40
1.0
 40
1.0
 40
1.0
 10
313.0610456863
 20
200.8751966192
 30
0.0
 10
313.0527423446
 20
200.8483269707
 30
0.0
 10
313.0445567058
 20
200.7932451855
 30
0.0
 10
313.057835691
 20
200.7386491211
 30
0.0
 10
313.0694039137
 20
200.7150069157
 30
0.0
  0
SPLINE
  5
439
100
AcDbEntity
  8
0
100
AcDbSpline
 62
7
  6
CONTINUOUS
 70
0
 71
3
 72
11
 73
7
 74
0
 42
0.0000001
 43
0.0000001
 44
0.0000000001
 40
0.0
 40
0.0
 40
0.0
 40
0.0
 40
0.271519658
 40
0.5255759392
 40
0.7663009544
 40
1.0
 40
1.0
 40
1.0
 40
1.0
 10
307.6937397352
 20
194.6844438871
 30
0.0
 10
307.7560938625
 20
194.5573794732
 30
0.0
 10
307.8594831607
 20
194.3022336508
 30
0.0
 10
307.9452968874
 20
193.9098910394
 30
0.0
 10
307.9537252212
 20
193.5277179035
 30
0.0
 10
307.9064993402
 20
193.282649626
 30
0.0
 10
307.8705646795
 20
193.166246025
 30
0.0
  0
SPLINE
  5
43A
100
AcDbEntity
  8
0
100
AcDbSpline
 62
7
  6
CONTINUOUS
 70
0
 71
3
 72
11
 73
7
 74
0
 42
0.0000001
 43
0.0000001
 44
0.0000000001
 40
0.0
 40
0.0
 40
0.0
 40
0.0
 40
0.271519658
 40
0.5255759392
 40
0.7663009544
 40
1.0
 40
1.0
 40
1.0
 40
1.0
 10
292.1222349784
 20
202.578889371
 30
0.0
 10
292.1845891057
 20
202.4518249571
 30
0.0
 10
292.287978404
 20
202.1966791348
 30
0.0
 10
292.3737921307
 20
201.8043365233
 30
0.0
 10
292.3822204644
 20
201.4221633875
 30
0.0
 10
292.3349945835
 20
201.1770951099
 30
0.0
 10
292.2990599228
 20
201.060691509
 30
0.0
  0
SPLINE
  5
43B
100
AcDbEntity
  8
0
100
AcDbSpline
 62
7
  6
CONTINUOUS
 70
0
 71
3
 72
11
 73
7
 74
0
 42
0.0000001
 43
0.0000001
 44
0.0000000001
 40
0.0
 40
0.0
 40
0.0
 40
0.0
 40
0.271519658
 40
0.5255759392
 40
0.7663009544
 40
1.0
 40
1.0
 40
1.0
 40
1.0
 10
284.2987880963
 20
194.6844438871
 30
0.0
 10
284.3611422236
 20
194.5573794732
 30
0.0
 10
284.4645315219
 20
194.3022336508
 30
0.0
 10
284.5503452485
 20
193.9098910394
 30
0.0
 10
284.5587735823
 20
193.5277179035
 30
0.0
 10
284.5115477014
 20
193.282649626
 30
0.0
 10
284.4756130407
 20
193.166246025
 30
0.0
  0
SPLINE
  5
43C
100
AcDbEntity
  8
0
100
AcDbSpline
 62
7
  6
CONTINUOUS
 70
0
 71
3
 72
18
 73
14
 74
0
 42
0.0000001
 43
0.0000001
 44
0.0000000001
 40
0.0
 40
0.0
 40
0.0
 40
0.0
 40
0.1033448569
 40
0.1637831341
 40
0.229619659
 40
0.3736432407
 40
0.525149248
 40
0.6714987977
 40
0.8014281433
 40
0.8582434382
 40
0.9094573365
 40
0.9560427409
 40
1.0
 40
1.0
 40
1.0
 40
1.0
 10
314.6976856977
 20
247.6036254235
 30
0.0
 10
314.7552852207
 20
247.6617476683
 30
0.0
 10
314.8734843077
 20
247.7272058024
 30
0.0
 10
315.049362818
 20
247.7731327356
 30
0.0
 10
315.2628919769
 20
247.7969356486
 30
0.0
 10
315.5506891528
 20
247.7740306278
 30
0.0
 10
315.8889779834
 20
247.6762781964
 30
0.0
 10
316.1912647022
 20
247.5186270878
 30
0.0
 10
316.3941126136
 20
247.3440565807
 30
0.0
 10
316.5024995716
 20
247.1887512353
 30
0.0
 10
316.5516055784
 20
247.0754746041
 30
0.0
 10
316.5697029265
 20
246.9633487671
 30
0.0
 10
316.5596635491
 20
246.8909877319
 30
0.0
 10
316.5494097018
 20
246.8577270606
 30
0.0
  0
SPLINE
  5
43D
100
AcDbEntity
  8
0
100
AcDbSpline
 62
7
  6
CONTINUOUS
 70
0
 71
3
 72
9
 73
5
 74
0
 42
0.0000001
 43
0.0000001
 44
0.0000000001
 40
0.0
 40
0.0
 40
0.0
 40
0.0
 40
0.4775647967
 40
1.0
 40
1.0
 40
1.0
 40
1.0
 10
274.813842649
 20
196.5934964987
 30
0.0
 10
274.8000798048
 20
196.4069025457
 30
0.0
 10
274.834343511
 20
196.0101872416
 30
0.0
 10
274.9718544359
 20
195.6389823759
 30
0.0
 10
275.062024764
 20
195.455234461
 30
0.0
  0
SPLINE
  5
43E
100
AcDbEntity
  8
0
100
AcDbSpline
 62
7
  6
CONTINUOUS
 70
0
 71
3
 72
19
 73
15
 74
0
 42
0.0000001
 43
0.0000001
 44
0.0000000001
 40
0.0
 40
0.0
 40
0.0
 40
0.0
 40
0.1137035499
 40
0.1783381484
 40
0.2472334726
 40
0.3933565406
 40
0.5422146606
 40
0.6831087484
 40
0.7477950766
 40
0.8075097424
 40
0.861960467
 40
0.9114125184
 40
0.9568457108
 40
1.0
 40
1.0
 40
1.0
 40
1.0
 10
292.9359995955
 20
197.8358064598
 30
0.0
 10
293.0155654944
 20
197.673668112
 30
0.0
 10
293.1942727096
 20
197.4453972513
 30
0.0
 10
293.4908452531
 20
197.187852594
 30
0.0
 10
293.8589668401
 20
196.9373213493
 30
0.0
 10
294.385884373
 20
196.6900910731
 30
0.0
 10
295.0593717588
 20
196.5149350699
 30
0.0
 10
295.6259696554
 20
196.4788115153
 30
0.0
 10
296.045633124
 20
196.5269535783
 30
0.0
 10
296.3218981026
 20
196.5974994585
 30
0.0
 10
296.5614069154
 20
196.7017785956
 30
0.0
 10
296.7578593687
 20
196.8380477678
 30
0.0
 10
296.9050047629
 20
197.0037350867
 30
0.0
 10
296.966978984
 20
197.1326148143
 30
0.0
 10
296.9872436711
 20
197.1980980006
 30
0.0
  0
SPLINE
  5
43F
100
AcDbEntity
  8
0
100
AcDbSpline
 62
7
  6
CONTINUOUS
 70
0
 71
3
 72
15
 73
11
 74
0
 42
0.0000001
 43
0.0000001
 44
0.0000000001
 40
0.0
 40
0.0
 40
0.0
 40
0.0
 40
0.0863713105
 40
0.1829308048
 40
0.2950247727
 40
0.422871397
 40
0.5631417824
 40
0.7103293979
 40
0.8582330754
 40
1.0
 40
1.0
 40
1.0
 40
1.0
 10
307.8774278828
 20
201.2459771726
 30
0.0
 10
307.8924439571
 20
201.2944836247
 30
0.0
 10
307.8994663091
 20
201.4059159388
 30
0.0
 10
307.8393540796
 20
201.5722059371
 30
0.0
 10
307.7201041327
 20
201.732602355
 30
0.0
 10
307.5498770934
 20
201.8796199639
 30
0.0
 10
307.3391867428
 20
202.0050736257
 30
0.0
 10
307.1010703
 20
202.101498577
 30
0.0
 10
306.8507178971
 20
202.1625027703
 30
0.0
 10
306.6802205565
 20
202.1777514759
 30
0.0
 10
306.5968760362
 20
202.1777514759
 30
0.0
  0
SPLINE
  5
440
100
AcDbEntity
  8
0
100
AcDbSpline
 62
7
  6
CONTINUOUS
 70
0
 71
3
 72
9
 73
5
 74
0
 42
0.0000001
 43
0.0000001
 44
0.0000000001
 40
0.0
 40
0.0
 40
0.0
 40
0.0
 40
0.2628111772
 40
1.0
 40
1.0
 40
1.0
 40
1.0
 10
284.4037881226
 20
194.7698419329
 30
0.0
 10
284.4635095207
 20
194.6988392347
 30
0.0
 10
284.6835643559
 20
194.422844662
 30
0.0
 10
284.873996874
 20
194.1222162731
 30
0.0
 10
284.9886469967
 20
193.8885837178
 30
0.0
  0
SPLINE
  5
441
100
AcDbEntity
  8
0
100
AcDbSpline
 62
7
  6
CONTINUOUS
 70
0
 71
3
 72
26
 73
22
 74
0
 42
0.0000001
 43
0.0000001
 44
0.0000000001
 40
0.0
 40
0.0
 40
0.0
 40
0.0
 40
0.0510362314
 40
0.0747531903
 40
0.0976237184
 40
0.1200456492
 40
0.1424512687
 40
0.1652720255
 40
0.1889025659
 40
0.2397161256
 40
0.2966527956
 40
0.3600810717
 40
0.4294145351
 40
0.503402417
 40
0.5803623212
 40
0.6583669604
 40
0.7354094205
 40
0.8095566096
 40
0.8791125062
 40
0.942796952
 40
1.0
 40
1.0
 40
1.0
 40
1.0
 10
281.1146180594
 20
201.7830292017
 30
0.0
 10
281.2306287317
 20
201.5466242014
 30
0.0
 10
281.3633739956
 20
201.1780574377
 30
0.0
 10
281.4250505746
 20
200.6764778444
 30
0.0
 10
281.4119690074
 20
200.3189686006
 30
0.0
 10
281.3400257377
 20
199.9754024029
 30
0.0
 10
281.2102857786
 20
199.6495062609
 30
0.0
 10
281.0240740495
 20
199.3450009733
 30
0.0
 10
280.6961992572
 20
198.9625678247
 30
0.0
 10
280.1435597083
 20
198.5546306235
 30
0.0
 10
279.3248262609
 20
198.2078146983
 30
0.0
 10
278.3641309325
 20
197.9975538896
 30
0.0
 10
277.2960213741
 20
197.9300497754
 30
0.0
 10
276.1591233343
 20
198.0069081542
 30
0.0
 10
274.9955043918
 20
198.2252065713
 30
0.0
 10
273.8485951253
 20
198.57675429
 30
0.0
 10
272.7613056452
 20
199.0483822259
 30
0.0
 10
271.7743285566
 20
199.6225216184
 30
0.0
 10
270.924055418
 20
200.2781164127
 30
0.0
 10
270.2422934488
 20
200.9913187886
 30
0.0
 10
269.8980949746
 20
201.5180588672
 30
0.0
 10
269.7680665146
 20
201.7830292017
 30
0.0
  0
SPLINE
  5
442
100
AcDbEntity
  8
0
100
AcDbSpline
 62
7
  6
CONTINUOUS
 70
0
 71
3
 72
11
 73
7
 74
0
 42
0.0000001
 43
0.0000001
 44
0.0000000001
 40
0.0
 40
0.0
 40
0.0
 40
0.0
 40
0.2643786138
 40
0.5171038442
 40
0.7609091791
 40
1.0
 40
1.0
 40
1.0
 40
1.0
 10
317.0422561255
 20
226.0182706384
 30
0.0
 10
317.1377001473
 20
226.3271278929
 30
0.0
 10
317.2774612897
 20
226.9473271204
 30
0.0
 10
317.3196663437
 20
227.8819657788
 30
0.0
 10
317.1866988737
 20
228.7773329064
 30
0.0
 10
316.9815334804
 20
229.3362995432
 30
0.0
 10
316.8527550421
 20
229.5987557792
 30
0.0
  0
SPLINE
  5
443
100
AcDbEntity
  8
0
100
AcDbSpline
 62
7
  6
CONTINUOUS
 70
0
 71
3
 72
10
 73
6
 74
0
 42
0.0000001
 43
0.0000001
 44
0.0000000001
 40
0.0
 40
0.0
 40
0.0
 40
0.0
 40
0.5160733272
 40
0.7604988767
 40
1.0
 40
1.0
 40
1.0
 40
1.0
 10
318.6111520328
 20
222.6108278387
 30
0.0
 10
318.6402235274
 20
222.7049033173
 30
0.0
 10
318.6619732184
 20
222.8524996913
 30
0.0
 10
318.6336582745
 20
223.0421849822
 30
0.0
 10
318.6015345142
 20
223.129612013
 30
0.0
 10
318.5813793502
 20
223.1706228697
 30
0.0
  0
SPLINE
  5
444
100
AcDbEntity
  8
0
100
AcDbSpline
 62
7
  6
CONTINUOUS
 70
0
 71
3
 72
11
 73
7
 74
0
 42
0.0000001
 43
0.0000001
 44
0.0000000001
 40
0.0
 40
0.0
 40
0.0
 40
0.0
 40
0.2775891892
 40
0.5350805369
 40
0.7732515611
 40
1.0
 40
1.0
 40
1.0
 40
1.0
 10
316.3826368027
 20
222.212897754
 30
0.0
 10
316.4557056633
 20
222.212897754
 30
0.0
 10
316.5971432248
 20
222.1987118616
 30
0.0
 10
316.7914688287
 20
222.1310921673
 30
0.0
 10
316.9489154897
 20
222.0194697622
 30
0.0
 10
317.0224210731
 20
221.9182605104
 30
0.0
 10
317.0487309213
 20
221.8646859173
 30
0.0
  0
SPLINE
  5
445
100
AcDbEntity
  8
0
100
AcDbSpline
 62
7
  6
CONTINUOUS
 70
0
 71
3
 72
9
 73
5
 74
0
 42
0.0000001
 43
0.0000001
 44
0.0000000001
 40
0.0
 40
0.0
 40
0.0
 40
0.0
 40
0.2628111772
 40
1.0
 40
1.0
 40
1.0
 40
1.0
 10
292.2272350047
 20
202.6642874168
 30
0.0
 10
292.2869564028
 20
202.5932847186
 30
0.0
 10
292.507011238
 20
202.3172901459
 30
0.0
 10
292.6974437561
 20
202.016661757
 30
0.0
 10
292.8120938789
 20
201.7830292017
 30
0.0
  0
SPLINE
  5
446
100
AcDbEntity
  8
0
100
AcDbSpline
 62
7
  6
CONTINUOUS
 70
0
 71
3
 72
26
 73
22
 74
0
 42
0.0000001
 43
0.0000001
 44
0.0000000001
 40
0.0
 40
0.0
 40
0.0
 40
0.0
 40
0.0510362314
 40
0.0747531903
 40
0.0976237184
 40
0.1200456492
 40
0.1424512687
 40
0.1652720255
 40
0.1889025659
 40
0.2397161256
 40
0.2966527956
 40
0.3600810717
 40
0.4294145351
 40
0.503402417
 40
0.5803623212
 40
0.6583669604
 40
0.7354094205
 40
0.8095566096
 40
0.8791125062
 40
0.942796952
 40
1.0
 40
1.0
 40
1.0
 40
1.0
 10
292.8120938789
 20
201.7830292017
 30
0.0
 10
292.9281045512
 20
201.5466242014
 30
0.0
 10
293.060849815
 20
201.1780574377
 30
0.0
 10
293.122526394
 20
200.6764778444
 30
0.0
 10
293.1094448268
 20
200.3189686006
 30
0.0
 10
293.0375015571
 20
199.9754024029
 30
0.0
 10
292.907761598
 20
199.6495062609
 30
0.0
 10
292.7215498689
 20
199.3450009733
 30
0.0
 10
292.3936750767
 20
198.9625678247
 30
0.0
 10
291.8410355277
 20
198.5546306235
 30
0.0
 10
291.0223020803
 20
198.2078146983
 30
0.0
 10
290.0616067519
 20
197.9975538896
 30
0.0
 10
288.9934971935
 20
197.9300497754
 30
0.0
 10
287.8565991537
 20
198.0069081542
 30
0.0
 10
286.6929802112
 20
198.2252065713
 30
0.0
 10
285.5460709447
 20
198.57675429
 30
0.0
 10
284.4587814646
 20
199.0483822259
 30
0.0
 10
283.471804376
 20
199.6225216184
 30
0.0
 10
282.6215312374
 20
200.2781164127
 30
0.0
 10
281.9397692683
 20
200.9913187886
 30
0.0
 10
281.595570794
 20
201.5180588672
 30
0.0
 10
281.465542334
 20
201.7830292017
 30
0.0
  0
SPLINE
  5
447
100
AcDbEntity
  8
0
100
AcDbSpline
 62
7
  6
CONTINUOUS
 70
0
 71
3
 72
15
 73
11
 74
0
 42
0.0000001
 43
0.0000001
 44
0.0000000001
 40
0.0
 40
0.0
 40
0.0
 40
0.0
 40
0.1282542333
 40
0.2464722896
 40
0.3586228447
 40
0.470093605
 40
0.5863670567
 40
0.7118962418
 40
0.8494227942
 40
1.0
 40
1.0
 40
1.0
 40
1.0
 10
281.465542334
 20
201.7830292017
 30
0.0
 10
281.370858202
 20
201.9759752628
 30
0.0
 10
281.2217534983
 20
202.3648029037
 30
0.0
 10
281.1369490707
 20
202.9657018404
 30
0.0
 10
281.2086348817
 20
203.5414713068
 30
0.0
 10
281.436903454
 20
204.0714489618
 30
0.0
 10
281.8119900683
 20
204.5377509726
 30
0.0
 10
282.3194196639
 20
204.9288295472
 30
0.0
 10
282.9438080644
 20
205.2379633913
 30
0.0
 10
283.4075057153
 20
205.379711663
 30
0.0
 10
283.6531338991
 20
205.4375006209
 30
0.0
  0
SPLINE
  5
448
100
AcDbEntity
  8
0
100
AcDbSpline
 62
7
  6
CONTINUOUS
 70
0
 71
3
 72
26
 73
22
 74
0
 42
0.0000001
 43
0.0000001
 44
0.0000000001
 40
0.0
 40
0.0
 40
0.0
 40
0.0
 40
0.0510362314
 40
0.0747531903
 40
0.0976237184
 40
0.1200456492
 40
0.1424512687
 40
0.1652720255
 40
0.1889025659
 40
0.2397161256
 40
0.2966527956
 40
0.3600810717
 40
0.4294145351
 40
0.503402417
 40
0.5803623212
 40
0.6583669604
 40
0.7354094205
 40
0.8095566096
 40
0.8791125062
 40
0.942796952
 40
1.0
 40
1.0
 40
1.0
 40
1.0
 10
304.5095696983
 20
201.7830292017
 30
0.0
 10
304.6255803706
 20
201.5466242014
 30
0.0
 10
304.7583256344
 20
201.1780574377
 30
0.0
 10
304.8200022135
 20
200.6764778444
 30
0.0
 10
304.8069206462
 20
200.3189686006
 30
0.0
 10
304.7349773765
 20
199.9754024029
 30
0.0
 10
304.6052374174
 20
199.6495062609
 30
0.0
 10
304.4190256883
 20
199.3450009733
 30
0.0
 10
304.0911508961
 20
198.9625678247
 30
0.0
 10
303.5385113471
 20
198.5546306235
 30
0.0
 10
302.7197778998
 20
198.2078146983
 30
0.0
 10
301.7590825714
 20
197.9975538896
 30
0.0
 10
300.690973013
 20
197.9300497754
 30
0.0
 10
299.5540749731
 20
198.0069081542
 30
0.0
 10
298.3904560306
 20
198.2252065713
 30
0.0
 10
297.2435467641
 20
198.57675429
 30
0.0
 10
296.156257284
 20
199.0483822259
 30
0.0
 10
295.1692801954
 20
199.6225216184
 30
0.0
 10
294.3190070569
 20
200.2781164127
 30
0.0
 10
293.6372450877
 20
200.9913187886
 30
0.0
 10
293.2930466135
 20
201.5180588672
 30
0.0
 10
293.1630181534
 20
201.7830292017
 30
0.0
  0
SPLINE
  5
449
100
AcDbEntity
  8
0
100
AcDbSpline
 62
7
  6
CONTINUOUS
 70
0
 71
3
 72
26
 73
22
 74
0
 42
0.0000001
 43
0.0000001
 44
0.0000000001
 40
0.0
 40
0.0
 40
0.0
 40
0.0
 40
0.0510362314
 40
0.0747531903
 40
0.0976237184
 40
0.1200456492
 40
0.1424512687
 40
0.1652720255
 40
0.1889025659
 40
0.2397161256
 40
0.2966527956
 40
0.3600810717
 40
0.4294145351
 40
0.503402417
 40
0.5803623212
 40
0.6583669604
 40
0.7354094205
 40
0.8095566096
 40
0.8791125062
 40
0.942796952
 40
1.0
 40
1.0
 40
1.0
 40
1.0
 10
284.9886469967
 20
193.8885837178
 30
0.0
 10
285.1046576691
 20
193.6521787174
 30
0.0
 10
285.2374029329
 20
193.2836119538
 30
0.0
 10
285.2990795119
 20
192.7820323605
 30
0.0
 10
285.2859979447
 20
192.4245231167
 30
0.0
 10
285.214054675
 20
192.0809569189
 30
0.0
 10
285.0843147159
 20
191.755060777
 30
0.0
 10
284.8981029868
 20
191.4505554894
 30
0.0
 10
284.5702281946
 20
191.0681223408
 30
0.0
 10
284.0175886456
 20
190.6601851396
 30
0.0
 10
283.1988551982
 20
190.3133692144
 30
0.0
 10
282.2381598698
 20
190.1031084057
 30
0.0
 10
281.1700503114
 20
190.0356042915
 30
0.0
 10
280.0331522716
 20
190.1124626703
 30
0.0
 10
278.8695333291
 20
190.3307610874
 30
0.0
 10
277.7226240626
 20
190.6823088061
 30
0.0
 10
276.6353345825
 20
191.153936742
 30
0.0
 10
275.6483574939
 20
191.7280761345
 30
0.0
 10
274.7980843553
 20
192.3836709288
 30
0.0
 10
274.1163223861
 20
193.0968733047
 30
0.0
 10
273.7721239119
 20
193.6236133833
 30
0.0
 10
273.6420954519
 20
193.8885837178
 30
0.0
  0
SPLINE
  5
44A
100
AcDbEntity
  8
0
100
AcDbSpline
 62
7
  6
CONTINUOUS
 70
0
 71
3
 72
15
 73
11
 74
0
 42
0.0000001
 43
0.0000001
 44
0.0000000001
 40
0.0
 40
0.0
 40
0.0
 40
0.0
 40
0.1282542333
 40
0.2464722896
 40
0.3586228447
 40
0.470093605
 40
0.5863670567
 40
0.7118962418
 40
0.8494227942
 40
1.0
 40
1.0
 40
1.0
 40
1.0
 10
273.6420954519
 20
193.8885837178
 30
0.0
 10
273.5474113199
 20
194.0815297789
 30
0.0
 10
273.3983066162
 20
194.4703574198
 30
0.0
 10
273.3135021886
 20
195.0712563565
 30
0.0
 10
273.3851879996
 20
195.6470258229
 30
0.0
 10
273.6134565719
 20
196.1770034778
 30
0.0
 10
273.9885431862
 20
196.6433054887
 30
0.0
 10
274.4959727818
 20
197.0343840633
 30
0.0
 10
275.1203611823
 20
197.3435179074
 30
0.0
 10
275.5840588332
 20
197.4852661791
 30
0.0
 10
275.8296870169
 20
197.543055137
 30
0.0
  0
SPLINE
  5
44B
100
AcDbEntity
  8
0
100
AcDbSpline
 62
7
  6
CONTINUOUS
 70
0
 71
3
 72
9
 73
5
 74
0
 42
0.0000001
 43
0.0000001
 44
0.0000000001
 40
0.0
 40
0.0
 40
0.0
 40
0.0
 40
0.511896393
 40
1.0
 40
1.0
 40
1.0
 40
1.0
 10
320.0845742036
 20
221.3446212813
 30
0.0
 10
320.0932415623
 20
221.3913611753
 30
0.0
 10
320.0976674122
 20
221.4857158381
 30
0.0
 10
320.0714467976
 20
221.5769297554
 30
0.0
 10
320.0514959529
 20
221.6176301528
 30
0.0
  0
SPLINE
  5
44C
100
AcDbEntity
  8
0
100
AcDbSpline
 62
7
  6
CONTINUOUS
 70
0
 71
3
 72
15
 73
11
 74
0
 42
0.0000001
 43
0.0000001
 44
0.0000000001
 40
0.0
 40
0.0
 40
0.0
 40
0.0
 40
0.1282542333
 40
0.2464722896
 40
0.3586228447
 40
0.470093605
 40
0.5863670567
 40
0.7118962418
 40
0.8494227942
 40
1.0
 40
1.0
 40
1.0
 40
1.0
 10
285.3395712713
 20
193.8885837178
 30
0.0
 10
285.2448871393
 20
194.0815297789
 30
0.0
 10
285.0957824356
 20
194.4703574198
 30
0.0
 10
285.010978008
 20
195.0712563565
 30
0.0
 10
285.0826638191
 20
195.6470258229
 30
0.0
 10
285.3109323913
 20
196.1770034778
 30
0.0
 10
285.6860190056
 20
196.6433054887
 30
0.0
 10
286.1934486013
 20
197.0343840633
 30
0.0
 10
286.8178370018
 20
197.3435179074
 30
0.0
 10
287.2815346526
 20
197.4852661791
 30
0.0
 10
287.5271628364
 20
197.543055137
 30
0.0
  0
SPLINE
  5
44D
100
AcDbEntity
  8
0
100
AcDbSpline
 62
7
  6
CONTINUOUS
 70
0
 71
3
 72
23
 73
19
 74
0
 42
0.0000001
 43
0.0000001
 44
0.0000000001
 40
0.0
 40
0.0
 40
0.0
 40
0.0
 40
0.0431191825
 40
0.0885045253
 40
0.1379047004
 40
0.1922980383
 40
0.2519542737
 40
0.3165753895
 40
0.385442524
 40
0.4575382813
 40
0.5316455165
 40
0.6064320601
 40
0.680529345
 40
0.7526059885
 40
0.8214479589
 40
0.8860310569
 40
0.9456507888
 40
1.0
 40
1.0
 40
1.0
 40
1.0
 10
303.9965357422
 20
201.060691509
 30
0.0
 10
303.948355654
 20
200.9046211398
 30
0.0
 10
303.8010434862
 20
200.5973761111
 30
0.0
 10
303.450496143
 20
200.2025812014
 30
0.0
 10
302.9826862669
 20
199.8777063701
 30
0.0
 10
302.4121578611
 20
199.6290499053
 30
0.0
 10
301.7540299567
 20
199.4609912084
 30
0.0
 10
301.0252969143
 20
199.3770294757
 30
0.0
 10
300.2449491798
 20
199.3790132718
 30
0.0
 10
299.4335982826
 20
199.4667898182
 30
0.0
 10
298.6128629469
 20
199.6379889333
 30
0.0
 10
297.8047081142
 20
199.8880273544
 30
0.0
 10
297.0308171321
 20
200.2102403619
 30
0.0
 10
296.3118437439
 20
200.5959189702
 30
0.0
 10
295.6670749193
 20
201.0349053355
 30
0.0
 10
295.1134338819
 20
201.5156575004
 30
0.0
 10
294.6657673932
 20
202.0256228709
 30
0.0
 10
294.4354533697
 20
202.3940662215
 30
0.0
 10
294.3447553841
 20
202.578889371
 30
0.0
  0
SPLINE
  5
44E
100
AcDbEntity
  8
0
100
AcDbSpline
 62
7
  6
CONTINUOUS
 70
0
 71
3
 72
23
 73
19
 74
0
 42
0.0000001
 43
0.0000001
 44
0.0000000001
 40
0.0
 40
0.0
 40
0.0
 40
0.0
 40
0.0431191825
 40
0.0885045253
 40
0.1379047004
 40
0.1922980383
 40
0.2519542737
 40
0.3165753895
 40
0.385442524
 40
0.4575382813
 40
0.5316455165
 40
0.6064320601
 40
0.680529345
 40
0.7526059885
 40
0.8214479589
 40
0.8860310569
 40
0.9456507888
 40
1.0
 40
1.0
 40
1.0
 40
1.0
 10
280.6015841033
 20
201.060691509
 30
0.0
 10
280.5534040151
 20
200.9046211398
 30
0.0
 10
280.4060918473
 20
200.5973761111
 30
0.0
 10
280.0555445042
 20
200.2025812014
 30
0.0
 10
279.587734628
 20
199.8777063701
 30
0.0
 10
279.0172062222
 20
199.6290499053
 30
0.0
 10
278.3590783179
 20
199.4609912084
 30
0.0
 10
277.6303452754
 20
199.3770294757
 30
0.0
 10
276.8499975409
 20
199.3790132718
 30
0.0
 10
276.0386466437
 20
199.4667898182
 30
0.0
 10
275.2179113081
 20
199.6379889333
 30
0.0
 10
274.4097564753
 20
199.8880273544
 30
0.0
 10
273.6358654933
 20
200.2102403619
 30
0.0
 10
272.9168921051
 20
200.5959189702
 30
0.0
 10
272.2721232804
 20
201.0349053355
 30
0.0
 10
271.7184822431
 20
201.5156575004
 30
0.0
 10
271.2708157543
 20
202.0256228709
 30
0.0
 10
271.0405017309
 20
202.3940662215
 30
0.0
 10
270.9498037453
 20
202.578889371
 30
0.0
  0
SPLINE
  5
44F
100
AcDbEntity
  8
0
100
AcDbSpline
 62
7
  6
CONTINUOUS
 70
0
 71
3
 72
13
 73
9
 74
0
 42
0.0000001
 43
0.0000001
 44
0.0000000001
 40
0.0
 40
0.0
 40
0.0
 40
0.0
 40
0.1017955564
 40
0.2094773498
 40
0.3266114097
 40
0.453823827
 40
0.7271795785
 40
1.0
 40
1.0
 40
1.0
 40
1.0
 10
313.0694039137
 20
200.7150069157
 30
0.0
 10
313.0796012684
 20
200.6941663804
 30
0.0
 10
313.1088936045
 20
200.6548947509
 30
0.0
 10
313.1723377922
 20
200.6136276131
 30
0.0
 10
313.2502998409
 20
200.5908376399
 30
0.0
 10
313.3691853997
 20
200.5866931784
 30
0.0
 10
313.5204896951
 20
200.6303897666
 30
0.0
 10
313.6228808886
 20
200.7074019635
 30
0.0
 10
313.6633534017
 20
200.7546099919
 30
0.0
  0
SPLINE
  5
450
100
AcDbEntity
  8
0
100
AcDbSpline
 62
7
  6
CONTINUOUS
 70
0
 71
3
 72
9
 73
5
 74
0
 42
0.0000001
 43
0.0000001
 44
0.0000000001
 40
0.0
 40
0.0
 40
0.0
 40
0.0
 40
0.4775647967
 40
1.0
 40
1.0
 40
1.0
 40
1.0
 10
286.5113184685
 20
196.5934964987
 30
0.0
 10
286.4975556242
 20
196.4069025457
 30
0.0
 10
286.5318193304
 20
196.0101872416
 30
0.0
 10
286.6693302553
 20
195.6389823759
 30
0.0
 10
286.7595005835
 20
195.455234461
 30
0.0
  0
SPLINE
  5
451
100
AcDbEntity
  8
0
100
AcDbSpline
 62
7
  6
CONTINUOUS
 70
0
 71
3
 72
10
 73
6
 74
0
 42
0.0000001
 43
0.0000001
 44
0.0000000001
 40
0.0
 40
0.0
 40
0.0
 40
0.0
 40
0.2340947547
 40
0.4754055608
 40
1.0
 40
1.0
 40
1.0
 40
1.0
 10
292.8618972985
 20
198.473514919
 30
0.0
 10
292.8467724562
 20
198.4246405958
 30
0.0
 10
292.8269090631
 20
198.3216582008
 30
0.0
 10
292.831577491
 20
198.1019076737
 30
0.0
 10
292.8854916305
 20
197.93873093
 30
0.0
 10
292.9359995955
 20
197.8358064598
 30
0.0
  0
SPLINE
  5
452
100
AcDbEntity
  8
0
100
AcDbSpline
 62
7
  6
CONTINUOUS
 70
0
 71
3
 72
11
 73
7
 74
0
 42
0.0000001
 43
0.0000001
 44
0.0000000001
 40
0.0
 40
0.0
 40
0.0
 40
0.0
 40
0.2714522733
 40
0.5254857962
 40
0.7662982448
 40
1.0
 40
1.0
 40
1.0
 40
1.0
 10
286.521308502
 20
194.6844438871
 30
0.0
 10
286.4589688762
 20
194.8114787718
 30
0.0
 10
286.3555019727
 20
195.066544254
 30
0.0
 10
286.2696800939
 20
195.4589018588
 30
0.0
 10
286.261330922
 20
195.8411160045
 30
0.0
 10
286.3085478462
 20
196.086234727
 30
0.0
 10
286.3444834847
 20
196.2026415127
 30
0.0
  0
SPLINE
  5
453
100
AcDbEntity
  8
0
100
AcDbSpline
 62
7
  6
CONTINUOUS
 70
0
 71
3
 72
15
 73
11
 74
0
 42
0.0000001
 43
0.0000001
 44
0.0000000001
 40
0.0
 40
0.0
 40
0.0
 40
0.0
 40
0.1282542333
 40
0.2464722896
 40
0.3586228447
 40
0.470093605
 40
0.5863670567
 40
0.7118962418
 40
0.8494227942
 40
1.0
 40
1.0
 40
1.0
 40
1.0
 10
297.0370470908
 20
193.8885837178
 30
0.0
 10
296.9423629587
 20
194.0815297789
 30
0.0
 10
296.7932582551
 20
194.4703574198
 30
0.0
 10
296.7084538275
 20
195.0712563565
 30
0.0
 10
296.7801396385
 20
195.6470258229
 30
0.0
 10
297.0084082108
 20
196.1770034778
 30
0.0
 10
297.383494825
 20
196.6433054887
 30
0.0
 10
297.8909244207
 20
197.0343840633
 30
0.0
 10
298.5153128212
 20
197.3435179074
 30
0.0
 10
298.979010472
 20
197.4852661791
 30
0.0
 10
299.2246386558
 20
197.543055137
 30
0.0
  0
SPLINE
  5
454
100
AcDbEntity
  8
0
100
AcDbSpline
 62
7
  6
CONTINUOUS
 70
0
 71
3
 72
26
 73
22
 74
0
 42
0.0000001
 43
0.0000001
 44
0.0000000001
 40
0.0
 40
0.0
 40
0.0
 40
0.0
 40
0.0510362314
 40
0.0747531903
 40
0.0976237184
 40
0.1200456492
 40
0.1424512687
 40
0.1652720255
 40
0.1889025659
 40
0.2397161256
 40
0.2966527956
 40
0.3600810717
 40
0.4294145351
 40
0.503402417
 40
0.5803623212
 40
0.6583669604
 40
0.7354094205
 40
0.8095566096
 40
0.8791125062
 40
0.942796952
 40
1.0
 40
1.0
 40
1.0
 40
1.0
 10
308.3835986356
 20
193.8885837178
 30
0.0
 10
308.4996093079
 20
193.6521787174
 30
0.0
 10
308.6323545717
 20
193.2836119538
 30
0.0
 10
308.6940311508
 20
192.7820323605
 30
0.0
 10
308.6809495836
 20
192.4245231167
 30
0.0
 10
308.6090063139
 20
192.0809569189
 30
0.0
 10
308.4792663547
 20
191.755060777
 30
0.0
 10
308.2930546256
 20
191.4505554894
 30
0.0
 10
307.9651798334
 20
191.0681223408
 30
0.0
 10
307.4125402845
 20
190.6601851396
 30
0.0
 10
306.5938068371
 20
190.3133692144
 30
0.0
 10
305.6331115087
 20
190.1031084057
 30
0.0
 10
304.5650019503
 20
190.0356042915
 30
0.0
 10
303.4281039104
 20
190.1124626703
 30
0.0
 10
302.2644849679
 20
190.3307610874
 30
0.0
 10
301.1175757014
 20
190.6823088061
 30
0.0
 10
300.0302862213
 20
191.153936742
 30
0.0
 10
299.0433091327
 20
191.7280761345
 30
0.0
 10
298.1930359942
 20
192.3836709288
 30
0.0
 10
297.511274025
 20
193.0968733047
 30
0.0
 10
297.1670755508
 20
193.6236133833
 30
0.0
 10
297.0370470908
 20
193.8885837178
 30
0.0
  0
SPLINE
  5
455
100
AcDbEntity
  8
0
100
AcDbSpline
 62
7
  6
CONTINUOUS
 70
0
 71
3
 72
9
 73
5
 74
0
 42
0.0000001
 43
0.0000001
 44
0.0000000001
 40
0.0
 40
0.0
 40
0.0
 40
0.0
 40
0.2628111772
 40
1.0
 40
1.0
 40
1.0
 40
1.0
 10
307.7987397614
 20
194.7698419329
 30
0.0
 10
307.8584611595
 20
194.6988392347
 30
0.0
 10
308.0785159948
 20
194.422844662
 30
0.0
 10
308.2689485129
 20
194.1222162731
 30
0.0
 10
308.3835986356
 20
193.8885837178
 30
0.0
  0
SPLINE
  5
456
100
AcDbEntity
  8
0
100
AcDbSpline
 62
7
  6
CONTINUOUS
 70
0
 71
3
 72
10
 73
6
 74
0
 42
0.0000001
 43
0.0000001
 44
0.0000000001
 40
0.0
 40
0.0
 40
0.0
 40
0.0
 40
0.2340947547
 40
0.4754055608
 40
1.0
 40
1.0
 40
1.0
 40
1.0
 10
281.1644214791
 20
198.473514919
 30
0.0
 10
281.1492966368
 20
198.4246405958
 30
0.0
 10
281.1294332437
 20
198.3216582008
 30
0.0
 10
281.1341016716
 20
198.1019076737
 30
0.0
 10
281.1880158111
 20
197.93873093
 30
0.0
 10
281.2385237761
 20
197.8358064598
 30
0.0
  0
SPLINE
  5
457
100
AcDbEntity
  8
0
100
AcDbSpline
 62
7
  6
CONTINUOUS
 70
0
 71
3
 72
14
 73
10
 74
0
 42
0.0000001
 43
0.0000001
 44
0.0000000001
 40
0.0
 40
0.0
 40
0.0
 40
0.0
 40
0.1024246709
 40
0.2131163685
 40
0.3359111698
 40
0.4695802887
 40
0.6093263417
 40
0.7486177355
 40
1.0
 40
1.0
 40
1.0
 40
1.0
 10
316.3187755242
 20
218.6501878425
 30
0.0
 10
316.3403294626
 20
218.6062909661
 30
0.0
 10
316.4071207969
 20
218.5245690411
 30
0.0
 10
316.5530373485
 20
218.4499240338
 30
0.0
 10
316.7290577206
 20
218.4243222251
 30
0.0
 10
316.9186595425
 20
218.4477481926
 30
0.0
 10
317.1050578041
 20
218.5176584989
 30
0.0
 10
317.3173071745
 20
218.656706897
 30
0.0
 10
317.4382468264
 20
218.8153016746
 30
0.0
 10
317.473683394
 20
218.9299745559
 30
0.0
  0
SPLINE
  5
458
100
AcDbEntity
  8
0
100
AcDbSpline
 62
7
  6
CONTINUOUS
 70
0
 71
3
 72
23
 73
19
 74
0
 42
0.0000001
 43
0.0000001
 44
0.0000000001
 40
0.0
 40
0.0
 40
0.0
 40
0.0
 40
0.0431191825
 40
0.0885045253
 40
0.1379047004
 40
0.1922980383
 40
0.2519542737
 40
0.3165753895
 40
0.385442524
 40
0.4575382813
 40
0.5316455165
 40
0.6064320601
 40
0.680529345
 40
0.7526059885
 40
0.8214479589
 40
0.8860310569
 40
0.9456507888
 40
1.0
 40
1.0
 40
1.0
 40
1.0
 10
307.8705646795
 20
193.166246025
 30
0.0
 10
307.8223845913
 20
193.0101756559
 30
0.0
 10
307.6750724235
 20
192.7029306271
 30
0.0
 10
307.3245250804
 20
192.3081357175
 30
0.0
 10
306.8567152042
 20
191.9832608862
 30
0.0
 10
306.2861867984
 20
191.7346044214
 30
0.0
 10
305.628058894
 20
191.5665457245
 30
0.0
 10
304.8993258516
 20
191.4825839918
 30
0.0
 10
304.1189781171
 20
191.4845677879
 30
0.0
 10
303.3076272199
 20
191.5723443343
 30
0.0
 10
302.4868918843
 20
191.7435434494
 30
0.0
 10
301.6787370515
 20
191.9935818705
 30
0.0
 10
300.9048460694
 20
192.3157948779
 30
0.0
 10
300.1858726812
 20
192.7014734863
 30
0.0
 10
299.5411038566
 20
193.1404598516
 30
0.0
 10
298.9874628193
 20
193.6212120165
 30
0.0
 10
298.5397963305
 20
194.1311773869
 30
0.0
 10
298.309482307
 20
194.4996207376
 30
0.0
 10
298.2187843215
 20
194.6844438871
 30
0.0
  0
SPLINE
  5
459
100
AcDbEntity
  8
0
100
AcDbSpline
 62
7
  6
CONTINUOUS
 70
0
 71
3
 72
11
 73
7
 74
0
 42
0.0000001
 43
0.0000001
 44
0.0000000001
 40
0.0
 40
0.0
 40
0.0
 40
0.0
 40
0.2714522733
 40
0.5254857962
 40
0.7662982448
 40
1.0
 40
1.0
 40
1.0
 40
1.0
 10
298.2187843215
 20
194.6844438871
 30
0.0
 10
298.1564446957
 20
194.8114787718
 30
0.0
 10
298.0529777922
 20
195.066544254
 30
0.0
 10
297.9671559133
 20
195.4589018588
 30
0.0
 10
297.9588067414
 20
195.8411160045
 30
0.0
 10
298.0060236657
 20
196.086234727
 30
0.0
 10
298.0419593041
 20
196.2026415127
 30
0.0
  0
SPLINE
  5
45A
100
AcDbEntity
  8
0
100
AcDbSpline
 62
7
  6
CONTINUOUS
 70
0
 71
3
 72
11
 73
7
 74
0
 42
0.0000001
 43
0.0000001
 44
0.0000000001
 40
0.0
 40
0.0
 40
0.0
 40
0.0
 40
0.2714522733
 40
0.5254857962
 40
0.7662982448
 40
1.0
 40
1.0
 40
1.0
 40
1.0
 10
282.6472795647
 20
202.578889371
 30
0.0
 10
282.5849399389
 20
202.7059242557
 30
0.0
 10
282.4814730354
 20
202.9609897379
 30
0.0
 10
282.3956511566
 20
203.3533473427
 30
0.0
 10
282.3873019847
 20
203.7355614884
 30
0.0
 10
282.4345189089
 20
203.9806802109
 30
0.0
 10
282.4704545473
 20
204.0970869966
 30
0.0
  0
SPLINE
  5
45B
100
AcDbEntity
  8
0
100
AcDbSpline
 62
7
  6
CONTINUOUS
 70
0
 71
3
 72
19
 73
15
 74
0
 42
0.0000001
 43
0.0000001
 44
0.0000000001
 40
0.0
 40
0.0
 40
0.0
 40
0.0
 40
0.1137035499
 40
0.1783381484
 40
0.2472334726
 40
0.3933565406
 40
0.5422146606
 40
0.6831087484
 40
0.7477950766
 40
0.8075097424
 40
0.861960467
 40
0.9114125184
 40
0.9568457108
 40
1.0
 40
1.0
 40
1.0
 40
1.0
 10
281.2385237761
 20
197.8358064598
 30
0.0
 10
281.318089675
 20
197.673668112
 30
0.0
 10
281.4967968902
 20
197.4453972513
 30
0.0
 10
281.7933694337
 20
197.187852594
 30
0.0
 10
282.1614910207
 20
196.9373213493
 30
0.0
 10
282.6884085536
 20
196.6900910731
 30
0.0
 10
283.3618959394
 20
196.5149350699
 30
0.0
 10
283.928493836
 20
196.4788115153
 30
0.0
 10
284.3481573046
 20
196.5269535783
 30
0.0
 10
284.6244222832
 20
196.5974994585
 30
0.0
 10
284.8639310959
 20
196.7017785956
 30
0.0
 10
285.0603835493
 20
196.8380477678
 30
0.0
 10
285.2075289434
 20
197.0037350867
 30
0.0
 10
285.2695031646
 20
197.1326148143
 30
0.0
 10
285.2897678516
 20
197.1980980006
 30
0.0
  0
SPLINE
  5
45C
100
AcDbEntity
  8
0
100
AcDbSpline
 62
7
  6
CONTINUOUS
 70
0
 71
3
 72
9
 73
5
 74
0
 42
0.0000001
 43
0.0000001
 44
0.0000000001
 40
0.0
 40
0.0
 40
0.0
 40
0.0
 40
0.4775647967
 40
1.0
 40
1.0
 40
1.0
 40
1.0
 10
298.2087942879
 20
196.5934964987
 30
0.0
 10
298.1950314436
 20
196.4069025457
 30
0.0
 10
298.2292951498
 20
196.0101872416
 30
0.0
 10
298.3668060748
 20
195.6389823759
 30
0.0
 10
298.4569764029
 20
195.455234461
 30
0.0
  0
SPLINE
  5
45D
100
AcDbEntity
  8
0
100
AcDbSpline
 62
7
  6
CONTINUOUS
 70
0
 71
3
 72
23
 73
19
 74
0
 42
0.0000001
 43
0.0000001
 44
0.0000000001
 40
0.0
 40
0.0
 40
0.0
 40
0.0
 40
0.0431191825
 40
0.0885045253
 40
0.1379047004
 40
0.1922980383
 40
0.2519542737
 40
0.3165753895
 40
0.385442524
 40
0.4575382813
 40
0.5316455165
 40
0.6064320601
 40
0.680529345
 40
0.7526059885
 40
0.8214479589
 40
0.8860310569
 40
0.9456507888
 40
1.0
 40
1.0
 40
1.0
 40
1.0
 10
292.2990599228
 20
201.060691509
 30
0.0
 10
292.2508798345
 20
200.9046211398
 30
0.0
 10
292.1035676668
 20
200.5973761111
 30
0.0
 10
291.7530203236
 20
200.2025812014
 30
0.0
 10
291.2852104474
 20
199.8777063701
 30
0.0
 10
290.7146820416
 20
199.6290499053
 30
0.0
 10
290.0565541373
 20
199.4609912084
 30
0.0
 10
289.3278210948
 20
199.3770294757
 30
0.0
 10
288.5474733604
 20
199.3790132718
 30
0.0
 10
287.7361224632
 20
199.4667898182
 30
0.0
 10
286.9153871275
 20
199.6379889333
 30
0.0
 10
286.1072322948
 20
199.8880273544
 30
0.0
 10
285.3333413127
 20
200.2102403619
 30
0.0
 10
284.6143679245
 20
200.5959189702
 30
0.0
 10
283.9695990999
 20
201.0349053355
 30
0.0
 10
283.4159580625
 20
201.5156575004
 30
0.0
 10
282.9682915737
 20
202.0256228709
 30
0.0
 10
282.7379775503
 20
202.3940662215
 30
0.0
 10
282.6472795647
 20
202.578889371
 30
0.0
  0
SPLINE
  5
45E
100
AcDbEntity
  8
0
100
AcDbSpline
 62
7
  6
CONTINUOUS
 70
0
 71
3
 72
9
 73
5
 74
0
 42
0.0000001
 43
0.0000001
 44
0.0000000001
 40
0.0
 40
0.0
 40
0.0
 40
0.0
 40
0.2628111772
 40
1.0
 40
1.0
 40
1.0
 40
1.0
 10
296.101263942
 20
194.7698419329
 30
0.0
 10
296.1609853401
 20
194.6988392347
 30
0.0
 10
296.3810401753
 20
194.422844662
 30
0.0
 10
296.5714726934
 20
194.1222162731
 30
0.0
 10
296.6861228162
 20
193.8885837178
 30
0.0
  0
SPLINE
  5
45F
100
AcDbEntity
  8
0
100
AcDbSpline
 62
7
  6
CONTINUOUS
 70
0
 71
3
 72
11
 73
7
 74
0
 42
0.0000001
 43
0.0000001
 44
0.0000000001
 40
0.0
 40
0.0
 40
0.0
 40
0.0
 40
0.2390908209
 40
0.4828961558
 40
0.7356213862
 40
1.0
 40
1.0
 40
1.0
 40
1.0
 10
324.833254653
 20
213.3361980824
 30
0.0
 10
324.9620330913
 20
213.0737418463
 30
0.0
 10
325.1671984846
 20
212.5147752095
 30
0.0
 10
325.3001659546
 20
211.6194080819
 30
0.0
 10
325.2579609006
 20
210.6847694235
 30
0.0
 10
325.1181997582
 20
210.0645701961
 30
0.0
 10
325.0227557364
 20
209.7557129416
 30
0.0
  0
SPLINE
  5
460
100
AcDbEntity
  8
0
100
AcDbSpline
 62
7
  6
CONTINUOUS
 70
0
 71
3
 72
9
 73
5
 74
0
 42
0.0000001
 43
0.0000001
 44
0.0000000001
 40
0.0
 40
0.0
 40
0.0
 40
0.0
 40
0.4775647967
 40
1.0
 40
1.0
 40
1.0
 40
1.0
 10
282.6372895312
 20
204.4879419826
 30
0.0
 10
282.6235266869
 20
204.3013480297
 30
0.0
 10
282.6577903931
 20
203.9046327255
 30
0.0
 10
282.795301318
 20
203.5334278599
 30
0.0
 10
282.8854716461
 20
203.3496799449
 30
0.0
  0
SPLINE
  5
461
100
AcDbEntity
  8
0
100
AcDbSpline
 62
7
  6
CONTINUOUS
 70
0
 71
3
 72
11
 73
7
 74
0
 42
0.0000001
 43
0.0000001
 44
0.0000000001
 40
0.0
 40
0.0
 40
0.0
 40
0.0
 40
0.2714522733
 40
0.5254857962
 40
0.7662982448
 40
1.0
 40
1.0
 40
1.0
 40
1.0
 10
274.8238326826
 20
194.6844438871
 30
0.0
 10
274.7614930568
 20
194.8114787718
 30
0.0
 10
274.6580261533
 20
195.066544254
 30
0.0
 10
274.5722042745
 20
195.4589018588
 30
0.0
 10
274.5638551026
 20
195.8411160045
 30
0.0
 10
274.6110720268
 20
196.086234727
 30
0.0
 10
274.6470076652
 20
196.2026415127
 30
0.0
  0
SPLINE
  5
462
100
AcDbEntity
  8
0
100
AcDbSpline
 62
7
  6
CONTINUOUS
 70
0
 71
3
 72
20
 73
16
 74
0
 42
0.0000001
 43
0.0000001
 44
0.0000000001
 40
0.0
 40
0.0
 40
0.0
 40
0.0
 40
0.0524964805
 40
0.1096711307
 40
0.1712712143
 40
0.2368308657
 40
0.3765119379
 40
0.5212250777
 40
0.6623428604
 40
0.7290797454
 40
0.7920947603
 40
0.8507902748
 40
0.9048671582
 40
0.9544132248
 40
1.0
 40
1.0
 40
1.0
 40
1.0
 10
294.5829474656
 20
203.3496799449
 30
0.0
 10
294.6648591432
 20
203.1827613999
 30
0.0
 10
294.8687460873
 20
202.849675738
 30
0.0
 10
295.2598177641
 20
202.383704896
 30
0.0
 10
295.7406923897
 20
201.9397368811
 30
0.0
 10
296.5029776483
 20
201.3784737875
 30
0.0
 10
297.6067128579
 20
200.7973962146
 30
0.0
 10
299.0462875265
 20
200.330250345
 30
0.0
 10
300.2894716291
 20
200.1490424715
 30
0.0
 10
301.2502830883
 20
200.1497221413
 30
0.0
 10
301.9153555084
 20
200.2212141688
 30
0.0
 10
302.5235427848
 20
200.3622973316
 30
0.0
 10
303.0619052561
 20
200.5704527086
 30
0.0
 10
303.5185893488
 20
200.8417888518
 30
0.0
 10
303.770342966
 20
201.0705256703
 30
0.0
 10
303.8758813413
 20
201.1927189256
 30
0.0
  0
SPLINE
  5
463
100
AcDbEntity
  8
0
100
AcDbSpline
 62
7
  6
CONTINUOUS
 70
0
 71
3
 72
9
 73
5
 74
0
 42
0.0000001
 43
0.0000001
 44
0.0000000001
 40
0.0
 40
0.0
 40
0.0
 40
0.0
 40
0.2539052881
 40
1.0
 40
1.0
 40
1.0
 40
1.0
 10
303.8758813413
 20
201.1927189256
 30
0.0
 10
303.8942626694
 20
201.2140009882
 30
0.0
 10
303.9648875004
 20
201.2993264258
 30
0.0
 10
304.0281543995
 20
201.3907865591
 30
0.0
 10
304.0703041365
 20
201.4618616669
 30
0.0
  0
SPLINE
  5
464
100
AcDbEntity
  8
0
100
AcDbSpline
 62
7
  6
CONTINUOUS
 70
0
 71
3
 72
23
 73
19
 74
0
 42
0.0000001
 43
0.0000001
 44
0.0000000001
 40
0.0
 40
0.0
 40
0.0
 40
0.0
 40
0.0431191825
 40
0.0885045253
 40
0.1379047004
 40
0.1922980383
 40
0.2519542737
 40
0.3165753895
 40
0.385442524
 40
0.4575382813
 40
0.5316455165
 40
0.6064320601
 40
0.680529345
 40
0.7526059885
 40
0.8214479589
 40
0.8860310569
 40
0.9456507888
 40
1.0
 40
1.0
 40
1.0
 40
1.0
 10
284.4756130407
 20
193.166246025
 30
0.0
 10
284.4274329524
 20
193.0101756559
 30
0.0
 10
284.2801207847
 20
192.7029306271
 30
0.0
 10
283.9295734415
 20
192.3081357175
 30
0.0
 10
283.4617635653
 20
191.9832608862
 30
0.0
 10
282.8912351595
 20
191.7346044214
 30
0.0
 10
282.2331072552
 20
191.5665457245
 30
0.0
 10
281.5043742127
 20
191.4825839918
 30
0.0
 10
280.7240264783
 20
191.4845677879
 30
0.0
 10
279.9126755811
 20
191.5723443343
 30
0.0
 10
279.0919402454
 20
191.7435434494
 30
0.0
 10
278.2837854126
 20
191.9935818705
 30
0.0
 10
277.5098944306
 20
192.3157948779
 30
0.0
 10
276.7909210424
 20
192.7014734863
 30
0.0
 10
276.1461522178
 20
193.1404598516
 30
0.0
 10
275.5925111804
 20
193.6212120165
 30
0.0
 10
275.1448446916
 20
194.1311773869
 30
0.0
 10
274.9145306682
 20
194.4996207376
 30
0.0
 10
274.8238326826
 20
194.6844438871
 30
0.0
  0
SPLINE
  5
465
100
AcDbEntity
  8
0
100
AcDbSpline
 62
7
  6
CONTINUOUS
 70
0
 71
3
 72
20
 73
16
 74
0
 42
0.0000001
 43
0.0000001
 44
0.0000000001
 40
0.0
 40
0.0
 40
0.0
 40
0.0
 40
0.0524964805
 40
0.1096711307
 40
0.1712712143
 40
0.2368308657
 40
0.3765119379
 40
0.5212250777
 40
0.6623428604
 40
0.7290797454
 40
0.7920947603
 40
0.8507902748
 40
0.9048671582
 40
0.9544132248
 40
1.0
 40
1.0
 40
1.0
 40
1.0
 10
271.1879958267
 20
203.3496799449
 30
0.0
 10
271.2699075043
 20
203.1827613999
 30
0.0
 10
271.4737944484
 20
202.849675738
 30
0.0
 10
271.8648661253
 20
202.383704896
 30
0.0
 10
272.3457407508
 20
201.9397368811
 30
0.0
 10
273.1080260095
 20
201.3784737875
 30
0.0
 10
274.211761219
 20
200.7973962146
 30
0.0
 10
275.6513358876
 20
200.330250345
 30
0.0
 10
276.8945199903
 20
200.1490424715
 30
0.0
 10
277.8553314494
 20
200.1497221413
 30
0.0
 10
278.5204038695
 20
200.2212141688
 30
0.0
 10
279.128591146
 20
200.3622973316
 30
0.0
 10
279.6669536172
 20
200.5704527086
 30
0.0
 10
280.12363771
 20
200.8417888518
 30
0.0
 10
280.3753913271
 20
201.0705256703
 30
0.0
 10
280.4809297025
 20
201.1927189256
 30
0.0
  0
SPLINE
  5
466
100
AcDbEntity
  8
0
100
AcDbSpline
 62
7
  6
CONTINUOUS
 70
0
 71
3
 72
9
 73
5
 74
0
 42
0.0000001
 43
0.0000001
 44
0.0000000001
 40
0.0
 40
0.0
 40
0.0
 40
0.0
 40
0.2539052881
 40
1.0
 40
1.0
 40
1.0
 40
1.0
 10
280.4809297025
 20
201.1927189256
 30
0.0
 10
280.4993110305
 20
201.2140009882
 30
0.0
 10
280.5699358615
 20
201.2993264258
 30
0.0
 10
280.6332027606
 20
201.3907865591
 30
0.0
 10
280.6753524976
 20
201.4618616669
 30
0.0
  0
SPLINE
  5
467
100
AcDbEntity
  8
0
100
AcDbSpline
 62
7
  6
CONTINUOUS
 70
0
 71
3
 72
20
 73
16
 74
0
 42
0.0000001
 43
0.0000001
 44
0.0000000001
 40
0.0
 40
0.0
 40
0.0
 40
0.0
 40
0.0524964805
 40
0.1096711307
 40
0.1712712143
 40
0.2368308657
 40
0.3765119379
 40
0.5212250777
 40
0.6623428604
 40
0.7290797454
 40
0.7920947603
 40
0.8507902748
 40
0.9048671582
 40
0.9544132248
 40
1.0
 40
1.0
 40
1.0
 40
1.0
 10
275.062024764
 20
195.455234461
 30
0.0
 10
275.1439364417
 20
195.288315916
 30
0.0
 10
275.3478233857
 20
194.9552302541
 30
0.0
 10
275.7388950626
 20
194.4892594121
 30
0.0
 10
276.2197696881
 20
194.0452913972
 30
0.0
 10
276.9820549468
 20
193.4840283036
 30
0.0
 10
278.0857901564
 20
192.9029507307
 30
0.0
 10
279.525364825
 20
192.4358048611
 30
0.0
 10
280.7685489276
 20
192.2545969875
 30
0.0
 10
281.7293603867
 20
192.2552766574
 30
0.0
 10
282.3944328068
 20
192.3267686849
 30
0.0
 10
283.0026200833
 20
192.4678518476
 30
0.0
 10
283.5409825546
 20
192.6760072247
 30
0.0
 10
283.9976666473
 20
192.9473433679
 30
0.0
 10
284.2494202644
 20
193.1760801864
 30
0.0
 10
284.3549586398
 20
193.2982734417
 30
0.0
  0
SPLINE
  5
468
100
AcDbEntity
  8
0
100
AcDbSpline
 62
7
  6
CONTINUOUS
 70
0
 71
3
 72
9
 73
5
 74
0
 42
0.0000001
 43
0.0000001
 44
0.0000000001
 40
0.0
 40
0.0
 40
0.0
 40
0.0
 40
0.2539052881
 40
1.0
 40
1.0
 40
1.0
 40
1.0
 10
284.3549586398
 20
193.2982734417
 30
0.0
 10
284.3733399678
 20
193.3195555043
 30
0.0
 10
284.4439647988
 20
193.4048809419
 30
0.0
 10
284.5072316979
 20
193.4963410751
 30
0.0
 10
284.5493814349
 20
193.567416183
 30
0.0
  0
SPLINE
  5
469
100
AcDbEntity
  8
0
100
AcDbSpline
 62
7
  6
CONTINUOUS
 70
0
 71
3
 72
20
 73
16
 74
0
 42
0.0000001
 43
0.0000001
 44
0.0000000001
 40
0.0
 40
0.0
 40
0.0
 40
0.0
 40
0.0524964805
 40
0.1096711307
 40
0.1712712143
 40
0.2368308657
 40
0.3765119379
 40
0.5212250777
 40
0.6623428604
 40
0.7290797454
 40
0.7920947603
 40
0.8507902748
 40
0.9048671582
 40
0.9544132248
 40
1.0
 40
1.0
 40
1.0
 40
1.0
 10
282.8854716461
 20
203.3496799449
 30
0.0
 10
282.9673833238
 20
203.1827613999
 30
0.0
 10
283.1712702678
 20
202.849675738
 30
0.0
 10
283.5623419447
 20
202.383704896
 30
0.0
 10
284.0432165702
 20
201.9397368811
 30
0.0
 10
284.8055018289
 20
201.3784737875
 30
0.0
 10
285.9092370385
 20
200.7973962146
 30
0.0
 10
287.3488117071
 20
200.330250345
 30
0.0
 10
288.5919958097
 20
200.1490424715
 30
0.0
 10
289.5528072688
 20
200.1497221413
 30
0.0
 10
290.2178796889
 20
200.2212141688
 30
0.0
 10
290.8260669654
 20
200.3622973316
 30
0.0
 10
291.3644294367
 20
200.5704527086
 30
0.0
 10
291.8211135294
 20
200.8417888518
 30
0.0
 10
292.0728671465
 20
201.0705256703
 30
0.0
 10
292.1784055219
 20
201.1927189256
 30
0.0
  0
SPLINE
  5
46A
100
AcDbEntity
  8
0
100
AcDbSpline
 62
7
  6
CONTINUOUS
 70
0
 71
3
 72
9
 73
5
 74
0
 42
0.0000001
 43
0.0000001
 44
0.0000000001
 40
0.0
 40
0.0
 40
0.0
 40
0.0
 40
0.2539052881
 40
1.0
 40
1.0
 40
1.0
 40
1.0
 10
292.1784055219
 20
201.1927189256
 30
0.0
 10
292.19678685
 20
201.2140009882
 30
0.0
 10
292.2674116809
 20
201.2993264258
 30
0.0
 10
292.33067858
 20
201.3907865591
 30
0.0
 10
292.372828317
 20
201.4618616669
 30
0.0
  0
SPLINE
  5
46B
100
AcDbEntity
  8
0
100
AcDbSpline
 62
7
  6
CONTINUOUS
 70
0
 71
3
 72
20
 73
16
 74
0
 42
0.0000001
 43
0.0000001
 44
0.0000000001
 40
0.0
 40
0.0
 40
0.0
 40
0.0
 40
0.0524964805
 40
0.1096711307
 40
0.1712712143
 40
0.2368308657
 40
0.3765119379
 40
0.5212250777
 40
0.6623428604
 40
0.7290797454
 40
0.7920947603
 40
0.8507902748
 40
0.9048671582
 40
0.9544132248
 40
1.0
 40
1.0
 40
1.0
 40
1.0
 10
298.4569764029
 20
195.455234461
 30
0.0
 10
298.5388880805
 20
195.288315916
 30
0.0
 10
298.7427750246
 20
194.9552302541
 30
0.0
 10
299.1338467015
 20
194.4892594121
 30
0.0
 10
299.614721327
 20
194.0452913972
 30
0.0
 10
300.3770065856
 20
193.4840283036
 30
0.0
 10
301.4807417952
 20
192.9029507307
 30
0.0
 10
302.9203164638
 20
192.4358048611
 30
0.0
 10
304.1635005664
 20
192.2545969875
 30
0.0
 10
305.1243120256
 20
192.2552766574
 30
0.0
 10
305.7893844457
 20
192.3267686849
 30
0.0
 10
306.3975717222
 20
192.4678518476
 30
0.0
 10
306.9359341934
 20
192.6760072247
 30
0.0
 10
307.3926182862
 20
192.9473433679
 30
0.0
 10
307.6443719033
 20
193.1760801864
 30
0.0
 10
307.7499102787
 20
193.2982734417
 30
0.0
  0
SPLINE
  5
46C
100
AcDbEntity
  8
0
100
AcDbSpline
 62
7
  6
CONTINUOUS
 70
0
 71
3
 72
9
 73
5
 74
0
 42
0.0000001
 43
0.0000001
 44
0.0000000001
 40
0.0
 40
0.0
 40
0.0
 40
0.0
 40
0.2539052881
 40
1.0
 40
1.0
 40
1.0
 40
1.0
 10
307.7499102787
 20
193.2982734417
 30
0.0
 10
307.7682916067
 20
193.3195555043
 30
0.0
 10
307.8389164377
 20
193.4048809419
 30
0.0
 10
307.9021833368
 20
193.4963410751
 30
0.0
 10
307.9443330738
 20
193.567416183
 30
0.0
  0
SPLINE
  5
46D
100
AcDbEntity
  8
0
100
AcDbSpline
 62
7
  6
CONTINUOUS
 70
0
 71
3
 72
15
 73
11
 74
0
 42
0.0000001
 43
0.0000001
 44
0.0000000001
 40
0.0
 40
0.0
 40
0.0
 40
0.0
 40
0.1126985864
 40
0.2356256683
 40
0.3660443189
 40
0.5003494633
 40
0.6346020296
 40
0.7648781601
 40
0.887614083
 40
1.0
 40
1.0
 40
1.0
 40
1.0
 10
293.6304976412
 20
199.0872234192
 30
0.0
 10
293.7122038804
 20
198.9908876888
 30
0.0
 10
293.9033978946
 20
198.8064055819
 30
0.0
 10
294.2399225236
 20
198.5695493174
 30
0.0
 10
294.6263400854
 20
198.3682495775
 30
0.0
 10
295.0462321425
 20
198.2113102641
 30
0.0
 10
295.4816165204
 20
198.1053167148
 30
0.0
 10
295.9139493749
 20
198.054807538
 30
0.0
 10
296.3247046437
 20
198.06189467
 30
0.0
 10
296.5858914488
 20
198.1073899903
 30
0.0
 10
296.7072306107
 20
198.1412259803
 30
0.0
  0
SPLINE
  5
46E
100
AcDbEntity
  8
0
100
AcDbSpline
 62
7
  6
CONTINUOUS
 70
0
 71
3
 72
15
 73
11
 74
0
 42
0.0000001
 43
0.0000001
 44
0.0000000001
 40
0.0
 40
0.0
 40
0.0
 40
0.0
 40
0.1126985864
 40
0.2356256683
 40
0.3660443189
 40
0.5003494633
 40
0.6346020296
 40
0.7648781601
 40
0.887614083
 40
1.0
 40
1.0
 40
1.0
 40
1.0
 10
281.9330218218
 20
199.0872234192
 30
0.0
 10
282.014728061
 20
198.9908876888
 30
0.0
 10
282.2059220751
 20
198.8064055819
 30
0.0
 10
282.5424467042
 20
198.5695493174
 30
0.0
 10
282.928864266
 20
198.3682495775
 30
0.0
 10
283.3487563231
 20
198.2113102641
 30
0.0
 10
283.784140701
 20
198.1053167148
 30
0.0
 10
284.2164735555
 20
198.054807538
 30
0.0
 10
284.6272288243
 20
198.06189467
 30
0.0
 10
284.8884156294
 20
198.1073899903
 30
0.0
 10
285.0097547912
 20
198.1412259803
 30
0.0
  0
ENDSEC
  0
SECTION
  2
OBJECTS
  0
DICTIONARY
  5
46F
100
AcDbDictionary
  3
ACAD_GROUP
350
470
  3
ACAD_MLINESTYLE
350
471
  0
DICTIONARY
  5
470
102
{ACAD_REACTORS
330
46F
102
}
100
AcDbDictionary
  0
DICTIONARY
  5
471
102
{ACAD_REACTORS
330
46F
102
}
100
AcDbDictionary
  3
STANDARD
350
472
  0
MLINESTYLE
  5
472
102
{ACAD_REACTORS
330
471
102
}
100
AcDbMlineStyle
  2
STANDARD
 70
0
  3

 62
256
 51
90.0
 52
90.0
 71
2
 49
0.5
 62
256
  6
BYLAYER
 49
-0.5
 62
256
  6
BYLAYER
  0
ENDSEC
  0
EOF
