  0
SECTION
  2
HEADER
  9
$ACADVER
  1
AC1014
  9
$ACADMAINTVER
 70
     9
  9
$DWGCODEPAGE
  3
ANSI_1252
  9
$INSBASE
 10
0.0
 20
0.0
 30
0.0
  9
$EXTMIN
 10
-89.107207
 20
-59.219192
 30
0.0
  9
$EXTMAX
 10
93.047057
 20
15.0
 30
0.0
  9
$LIMMIN
 10
0.0
 20
0.0
  9
$LIMMAX
 10
0.0
 20
0.0
  9
$ORTHOMODE
 70
     0
  9
$REGENMODE
 70
     1
  9
$FILLMODE
 70
     1
  9
$QTEXTMODE
 70
     0
  9
$MIRRTEXT
 70
     1
  9
$DRAGMODE
 70
     2
  9
$LTSCALE
 40
5.0
  9
$OSMODE
 70
     0
  9
$ATTMODE
 70
     1
  9
$TEXTSIZE
 40
3.5
  9
$TRACEWID
 40
0.05
  9
$TEXTSTYLE
  7
STANDARD
  9
$CLAYER
  8
0
  9
$CELTYPE
  6
CONTINUOUS
  9
$CECOLOR
 62
   256
  9
$CELTSCALE
 40
1.0
  9
$DELOBJ
 70
     1
  9
$DISPSILH
 70
     0
  9
$DIMSCALE
 40
1.0
  9
$DIMASZ
 40
3.5
  9
$DIMEXO
 40
0.1
  9
$DIMDLI
 40
0.38
  9
$DIMRND
 40
0.0
  9
$DIMDLE
 40
1.75
  9
$DIMEXE
 40
0.18
  9
$DIMTP
 40
0.0
  9
$DIMTM
 40
0.0
  9
$DIMTXT
 40
3.5
  9
$DIMCEN
 40
0.09
  9
$DIMTSZ
 40
0.0
  9
$DIMTOL
 70
     0
  9
$DIMLIM
 70
     0
  9
$DIMTIH
 70
     1
  9
$DIMTOH
 70
     1
  9
$DIMSE1
 70
     0
  9
$DIMSE2
 70
     0
  9
$DIMTAD
 70
     1
  9
$DIMZIN
 70
     0
  9
$DIMBLK
  1

  9
$DIMASO
 70
     1
  9
$DIMSHO
 70
     1
  9
$DIMPOST
  1

  9
$DIMAPOST
  1

  9
$DIMALT
 70
     0
  9
$DIMALTD
 70
     2
  9
$DIMALTF
 40
0.0394
  9
$DIMLFAC
 40
1.0
  9
$DIMTOFL
 70
     0
  9
$DIMTVP
 40
0.0
  9
$DIMTIX
 70
     0
  9
$DIMSOXD
 70
     0
  9
$DIMSAH
 70
     0
  9
$DIMBLK1
  1

  9
$DIMBLK2
  1

  9
$DIMSTYLE
  2
STANDARD
  9
$DIMCLRD
 70
     0
  9
$DIMCLRE
 70
     0
  9
$DIMCLRT
 70
     0
  9
$DIMTFAC
 40
1.0
  9
$DIMGAP
 40
0.1
  9
$DIMJUST
 70
     0
  9
$DIMSD1
 70
     0
  9
$DIMSD2
 70
     0
  9
$DIMTOLJ
 70
     1
  9
$DIMTZIN
 70
     0
  9
$DIMALTZ
 70
     0
  9
$DIMALTTZ
 70
     0
  9
$DIMFIT
 70
     3
  9
$DIMUPT
 70
     0
  9
$DIMUNIT
 70
     2
  9
$DIMDEC
 70
     4
  9
$DIMTDEC
 70
     4
  9
$DIMALTU
 70
     2
  9
$DIMALTTD
 70
     2
  9
$DIMTXSTY
  7
STANDARD
  9
$DIMAUNIT
 70
     0
  9
$LUNITS
 70
     2
  9
$LUPREC
 70
     2
  9
$SKETCHINC
 40
0.1
  9
$FILLETRAD
 40
0.0
  9
$AUNITS
 70
     0
  9
$AUPREC
 70
     2
  9
$MENU
  1
acad
  9
$ELEVATION
 40
0.0
  9
$PELEVATION
 40
0.0
  9
$THICKNESS
 40
0.0
  9
$LIMCHECK
 70
     0
  9
$BLIPMODE
 70
     1
  9
$CHAMFERA
 40
0.0
  9
$CHAMFERB
 40
0.0
  9
$CHAMFERC
 40
0.0
  9
$CHAMFERD
 40
0.0
  9
$SKPOLY
 70
     0
  9
$TDCREATE
 40
2452298.521790254
  9
$TDUPDATE
 40
2452298.565430208
  9
$TDINDWG
 40
0.0436399537
  9
$TDUSRTIMER
 40
0.0436399537
  9
$USRTIMER
 70
     1
  9
$ANGBASE
 50
0.0
  9
$ANGDIR
 70
     0
  9
$PDMODE
 70
     0
  9
$PDSIZE
 40
-1.0
  9
$PLINEWID
 40
0.0
  9
$COORDS
 70
     0
  9
$SPLFRAME
 70
     0
  9
$SPLINETYPE
 70
     6
  9
$SPLINESEGS
 70
     8
  9
$ATTDIA
 70
     0
  9
$ATTREQ
 70
     1
  9
$HANDLING
 70
     1
  9
$HANDSEED
  5
335
  9
$SURFTAB1
 70
     6
  9
$SURFTAB2
 70
     6
  9
$SURFTYPE
 70
     6
  9
$SURFU
 70
     6
  9
$SURFV
 70
     6
  9
$UCSNAME
  2
KCSM_UCS
  9
$UCSORG
 10
0.0
 20
0.0
 30
0.0
  9
$UCSXDIR
 10
1.0
 20
0.0
 30
0.0
  9
$UCSYDIR
 10
0.0
 20
1.0
 30
0.0
  9
$PUCSNAME
  2

  9
$PUCSORG
 10
0.0
 20
0.0
 30
0.0
  9
$PUCSXDIR
 10
1.0
 20
0.0
 30
0.0
  9
$PUCSYDIR
 10
0.0
 20
1.0
 30
0.0
  9
$USERI1
 70
     0
  9
$USERI2
 70
     0
  9
$USERI3
 70
     0
  9
$USERI4
 70
     0
  9
$USERI5
 70
     0
  9
$USERR1
 40
0.0
  9
$USERR2
 40
0.0
  9
$USERR3
 40
0.0
  9
$USERR4
 40
0.0
  9
$USERR5
 40
0.0
  9
$WORLDVIEW
 70
     1
  9
$SHADEDGE
 70
     3
  9
$SHADEDIF
 70
    70
  9
$TILEMODE
 70
     1
  9
$MAXACTVP
 70
    16
  9
$PINSBASE
 10
0.0
 20
0.0
 30
0.0
  9
$PLIMCHECK
 70
     0
  9
$PEXTMIN
 10
1.000000E+20
 20
1.000000E+20
 30
1.000000E+20
  9
$PEXTMAX
 10
-1.000000E+20
 20
-1.000000E+20
 30
-1.000000E+20
  9
$PLIMMIN
 10
0.0
 20
0.0
  9
$PLIMMAX
 10
12.0
 20
9.0
  9
$UNITMODE
 70
     0
  9
$VISRETAIN
 70
     0
  9
$PLINEGEN
 70
     1
  9
$PSLTSCALE
 70
     1
  9
$TREEDEPTH
 70
  3020
  9
$PICKSTYLE
 70
     1
  9
$CMLSTYLE
  2
STANDARD
  9
$CMLJUST
 70
     0
  9
$CMLSCALE
 40
1.0
  9
$PROXYGRAPHICS
 70
     1
  9
$MEASUREMENT
 70
     0
  0
ENDSEC
  0
SECTION
  2
CLASSES
  0
CLASS
  1
LWPOLYLINE
  2
AcDbPolyline
  3
"AutoCAD"
 90
        0
280
     0
281
     1
  0
CLASS
  1
IMAGE
  2
AcDbRasterImage
  3
ISM
 90
        0
280
     0
281
     1
  0
CLASS
  1
OLE2FRAME
  2
AcDbOle2Frame
  3
""
 90
        0
280
     0
281
     1
  0
CLASS
  1
HATCH
  2
AcDbHatch
  3
"ACAD_SEDONA"
 90
        0
280
     0
281
     1
  0
CLASS
  1
DICTIONARYVAR
  2
AcDbDictionaryVar
  3
"AutoCAD"
 90
        0
280
     0
281
     0
  0
CLASS
  1
RASTERVARIABLES
  2
AcDbRasterVariables
  3
ISM
 90
        0
280
     0
281
     0
  0
CLASS
  1
IMAGEDEF
  2
AcDbRasterImageDef
  3
ISM
 90
        0
280
     0
281
     0
  0
CLASS
  1
IMAGEDEF_REACTOR
  2
AcDbRasterImageDefReactor
  3
ISM
 90
        0
280
     0
281
     0
  0
CLASS
  1
IDBUFFER
  2
AcDbIdBuffer
  3
"Acad"
 90
        0
280
     0
281
     0
  0
CLASS
  1
SPATIAL_FILTER
  2
AcDbSpatialFilter
  3
"Acad"
 90
        0
280
     0
281
     0
  0
CLASS
  1
XRECORD
  2
AcDbXrecord
  3
"<Built In>"
 90
        0
280
     0
281
     0
  0
CLASS
  1
SORTENTSTABLE
  2
AcDbSortentsTable
  3
"AutoCAD"
 90
        0
280
     0
281
     0
  0
CLASS
  1
LAYER_INDEX
  2
AcDbLayerIndex
  3
"Acad"
 90
        0
280
     0
281
     0
  0
CLASS
  1
SPATIAL_INDEX
  2
AcDbSpatialIndex
  3
"Acad"
 90
        0
280
     0
281
     0
  0
CLASS
  1
OBJECT_PTR
  2
CAseDLPNTableRecord
  3
"ASE-LPNTableRecord"
 90
        0
280
     0
281
     0
  0
CLASS
  1
LAYOUT
  2
AcDbLayout
  3
"AutoCAD 2000"
 90
        0
280
     0
281
     0
  0
CLASS
  1
PLOTSETTINGS
  2
AcDbPlotSettings
  3
"AutoCAD 2000"
 90
        0
280
     0
281
     0
  0
CLASS
  1
ACDBDICTIONARYWDFLT
  2
AcDbDictionaryWithDefault
  3
"AutoCAD 2000"
 90
        0
280
     0
281
     0
  0
CLASS
  1
ACDBPLACEHOLDER
  2
AcDbPlaceHolder
  3
"AutoCAD 2000"
 90
        0
280
     0
281
     0
  0
CLASS
  1
VBA_PROJECT
  2
AcDbVbaProject
  3
"acadvba"
 90
        0
280
     0
281
     0
  0
CLASS
  1
WIPEOUT
  2
AcDbWipeout
  3
WipeOut|AutoCAD Express Tool|expresstools@autodesk.com
 90
        0
280
     0
281
     1
  0
CLASS
  1
WIPEOUTVARIABLES
  2
AcDbWipeoutVariables
  3
WipeOut|AutoCAD Express Tool|expresstools@autodesk.com
 90
        0
280
     0
281
     0
  0
CLASS
  1
RTEXT
  2
RText
  3
RText|AutoCAD Express Tool|expresstools@autodesk.com
 90
        0
280
     0
281
     1
  0
CLASS
  1
ARCALIGNEDTEXT
  2
AcDbArcAlignedText
  3
ATEXT|AutoCAD Express Tool|expresstools@autodesk.com
 90
        0
280
     0
281
     1
  0
ENDSEC
  0
SECTION
  2
TABLES
  0
TABLE
  2
VPORT
  5
7
100
AcDbSymbolTable
 70
     7
  0
VPORT
  5
334
100
AcDbSymbolTableRecord
100
AcDbViewportTableRecord
  2
*ACTIVE
 70
     0
 10
0.0
 20
0.0
 11
1.0
 21
1.0
 12
1.968906
 22
-22.10525
 13
0.0
 23
0.0
 14
1.0
 24
1.0
 15
0.0
 25
0.0
 16
0.0
 26
0.0
 36
1.0
 17
0.0
 27
0.0
 37
0.0
 40
132.765294
 41
1.379227
 42
50.0
 43
0.0
 44
0.0
 50
0.0
 51
0.0
 71
     0
 72
  2000
 73
     1
 74
     1
 75
     0
 76
     0
 77
     0
 78
     0
  0
ENDTAB
  0
TABLE
  2
LTYPE
  5
4
100
AcDbSymbolTable
 70
    20
  0
LTYPE
  5
11
100
AcDbSymbolTableRecord
100
AcDbLinetypeTableRecord
  2
BYBLOCK
 70
     0
  3

 72
    65
 73
     0
 40
0.0
  0
LTYPE
  5
12
100
AcDbSymbolTableRecord
100
AcDbLinetypeTableRecord
  2
BYLAYER
 70
     0
  3

 72
    65
 73
     0
 40
0.0
  0
LTYPE
  5
13
100
AcDbSymbolTableRecord
100
AcDbLinetypeTableRecord
  2
CONTINUOUS
 70
     0
  3
Solid line
 72
    65
 73
     0
 40
0.0
  0
LTYPE
  5
1E4
100
AcDbSymbolTableRecord
100
AcDbLinetypeTableRecord
  2
VERDECKT
 70
     0
  3
__ __ __ __ __ __ __ __ __ __ __ __ __ __ __ __
 72
    65
 73
     2
 40
0.375
 49
0.25
 74
     0
 49
-0.125
 74
     0
  0
LTYPE
  5
1E5
100
AcDbSymbolTableRecord
100
AcDbLinetypeTableRecord
  2
STRICHPUNKT
 70
     0
  3
__ . __ . __ . __ . __ . __ . __ . __ . __ . __
 72
    65
 73
     4
 40
1.0
 49
0.5
 74
     0
 49
-0.25
 74
     0
 49
0.0
 74
     0
 49
-0.25
 74
     0
  0
ENDTAB
  0
TABLE
  2
LAYER
  5
2
100
AcDbSymbolTable
 70
    20
  0
LAYER
  5
14
100
AcDbSymbolTableRecord
100
AcDbLayerTableRecord
  2
0
 70
     0
 62
     7
  6
CONTINUOUS
  0
LAYER
  5
3A
100
AcDbSymbolTableRecord
100
AcDbLayerTableRecord
  2
UMRISS025
 70
     0
 62
     1
  6
CONTINUOUS
  0
LAYER
  5
3B
100
AcDbSymbolTableRecord
100
AcDbLayerTableRecord
  2
UMRISS07
 70
     0
 62
     6
  6
CONTINUOUS
  0
LAYER
  5
40
100
AcDbSymbolTableRecord
100
AcDbLayerTableRecord
  2
UMRISS05
 70
     0
 62
     3
  6
CONTINUOUS
  0
LAYER
  5
42
100
AcDbSymbolTableRecord
100
AcDbLayerTableRecord
  2
UMRISS035
 70
     0
 62
     2
  6
CONTINUOUS
  0
LAYER
  5
43
100
AcDbSymbolTableRecord
100
AcDbLayerTableRecord
  2
TEXT025
 70
     0
 62
     1
  6
CONTINUOUS
  0
LAYER
  5
1E6
100
AcDbSymbolTableRecord
100
AcDbLayerTableRecord
  2
KONTUR
 70
     0
 62
     7
  6
CONTINUOUS
  0
LAYER
  5
1E8
100
AcDbSymbolTableRecord
100
AcDbLayerTableRecord
  2
SYMMETRIE
 70
     0
 62
     4
  6
STRICHPUNKT
  0
LAYER
  5
1E9
100
AcDbSymbolTableRecord
100
AcDbLayerTableRecord
  2
VERBORGEN
 70
     0
 62
     3
  6
VERDECKT
  0
LAYER
  5
1EA
100
AcDbSymbolTableRecord
100
AcDbLayerTableRecord
  2
GEWINDE
 70
     0
 62
     1
  6
CONTINUOUS
  0
ENDTAB
  0
TABLE
  2
STYLE
  5
3
100
AcDbSymbolTable
 70
     4
  0
STYLE
  5
17
100
AcDbSymbolTableRecord
100
AcDbTextStyleTableRecord
  2
STANDARD
 70
     0
 40
0.0
 41
1.0
 50
0.0
 71
     0
 42
0.0
  3
txt
  4

  0
STYLE
  5
1EB
100
AcDbSymbolTableRecord
100
AcDbTextStyleTableRecord
  2
NORM
 70
     0
 40
0.0
 41
1.0
 50
0.0
 71
     0
 42
2.5
  3
SIMPLEX
  4

  0
STYLE
  5
1EC
100
AcDbSymbolTableRecord
100
AcDbTextStyleTableRecord
  2
ISO
 70
     0
 40
0.0
 41
1.0
 50
0.0
 71
     0
 42
3.5
  3
iso8
  4

  0
ENDTAB
  0
TABLE
  2
VIEW
  5
5
100
AcDbSymbolTable
 70
     0
  0
ENDTAB
  0
TABLE
  2
UCS
  5
6
100
AcDbSymbolTable
 70
     1
  0
UCS
  5
32C
100
AcDbSymbolTableRecord
100
AcDbUCSTableRecord
  2
KCSM_UCS
 70
     0
 10
0.0
 20
0.0
 30
0.0
 11
1.0
 21
0.0
 31
0.0
 12
0.0
 22
1.0
 32
0.0
  0
ENDTAB
  0
TABLE
  2
APPID
  5
8
100
AcDbSymbolTable
 70
     3
  0
APPID
  5
16
100
AcDbSymbolTableRecord
100
AcDbRegAppTableRecord
  2
ACAD
 70
     0
  0
APPID
  5
1EE
100
AcDbSymbolTableRecord
100
AcDbRegAppTableRecord
  2
ACA_CADIMENU
 70
     0
  0
APPID
  5
1EF
100
AcDbSymbolTableRecord
100
AcDbRegAppTableRecord
  2
AMM_ACADM
 70
     0
  0
ENDTAB
  0
TABLE
  2
DIMSTYLE
  5
9
100
AcDbSymbolTable
 70
     1
  0
DIMSTYLE
105
18
100
AcDbSymbolTableRecord
100
AcDbDimStyleTableRecord
  2
STANDARD
 70
     0
  3

  4

  5

  6

  7

 40
1.0
 41
0.18
 42
0.0625
 43
0.38
 44
0.18
 45
0.0
 46
0.0
 47
0.0
 48
0.0
140
0.18
141
0.09
142
0.0
143
25.4
144
1.0
145
0.0
146
1.0
147
0.09
 71
     0
 72
     0
 73
     1
 74
     1
 75
     0
 76
     0
 77
     0
 78
     0
170
     0
171
     2
172
     0
173
     0
174
     0
175
     0
176
     0
177
     0
178
     0
270
     2
271
     4
272
     4
273
     2
274
     2
340
17
275
     0
280
     0
281
     0
282
     0
283
     1
284
     0
285
     0
286
     0
287
     0
288
     0
  0
ENDTAB
  0
TABLE
  2
BLOCK_RECORD
  5
1
100
AcDbSymbolTable
 70
     3
  0
BLOCK_RECORD
  5
A
100
AcDbSymbolTableRecord
100
AcDbBlockTableRecord
  2
*MODEL_SPACE
  0
BLOCK_RECORD
  5
B
100
AcDbSymbolTableRecord
100
AcDbBlockTableRecord
  2
*PAPER_SPACE
  0
BLOCK_RECORD
  5
189
100
AcDbSymbolTableRecord
100
AcDbBlockTableRecord
  2
MONO
  0
ENDTAB
  0
ENDSEC
  0
SECTION
  2
BLOCKS
  0
BLOCK
  5
D
100
AcDbEntity
  8
0
100
AcDbBlockBegin
  2
*MODEL_SPACE
 70
     0
 10
0.0
 20
0.0
 30
0.0
  3
*MODEL_SPACE
  1

  0
ENDBLK
  5
E
100
AcDbEntity
  8
0
100
AcDbBlockEnd
  0
BLOCK
  5
F
100
AcDbEntity
 67
     1
  8
0
100
AcDbBlockBegin
  2
*PAPER_SPACE
 70
     0
 10
0.0
 20
0.0
 30
0.0
  3
*PAPER_SPACE
  1

  0
ENDBLK
  5
10
100
AcDbEntity
 67
     1
  8
0
100
AcDbBlockEnd
  0
BLOCK
  5
1CC
100
AcDbEntity
  8
0
100
AcDbBlockBegin
  2
MONO
 70
     2
 10
0.0
 20
0.0
 30
0.0
  3
MONO
  1

  0
ATTDEF
  5
18A
100
AcDbEntity
  8
UMRISS05
100
AcDbText
 10
0.0
 20
-7.0
 30
0.0
 40
2.5
  1

  7
NORM
 72
     1
 11
0.0
 21
-7.0
 31
0.0
100
AcDbAttributeDefinition
  3

  2
BEZEI
 70
     4
  0
TEXT
  5
18B
100
AcDbEntity
  8
TEXT025
100
AcDbText
 10
-24.5
 20
-3.5
 30
0.0
 40
2.536044
  1
STOSSDŽMPFER FšR DIE INDUSTRIE
  7
ISO
 72
     3
 11
24.5
 21
-3.5
 31
0.0
100
AcDbText
  0
TEXT
  5
18C
100
AcDbEntity
  8
TEXT025
100
AcDbText
 10
22.357607
 20
1.08583
 30
0.0
 40
1.5625
  1
R
  7
ISO
100
AcDbText
  0
CIRCLE
  5
18D
100
AcDbEntity
  8
UMRISS025
100
AcDbCircle
 10
22.589637
 20
1.884717
 30
0.0
 40
1.5625
  0
LINE
  5
18E
100
AcDbEntity
  8
UMRISS035
100
AcDbLine
 10
24.5
 20
14.0
 30
0.0
 11
-24.5
 21
14.0
 31
0.0
  0
LINE
  5
18F
100
AcDbEntity
  8
UMRISS035
100
AcDbLine
 10
24.5
 20
0.0
 30
0.0
 11
24.5
 21
14.0
 31
0.0
  0
LINE
  5
190
100
AcDbEntity
  8
UMRISS035
100
AcDbLine
 10
-24.5
 20
0.0
 30
0.0
 11
24.5
 21
0.0
 31
0.0
  0
LINE
  5
191
100
AcDbEntity
  8
UMRISS035
100
AcDbLine
 10
-24.5
 20
14.0
 30
0.0
 11
-24.5
 21
0.0
 31
0.0
  0
LINE
  5
192
100
AcDbEntity
  8
UMRISS07
100
AcDbLine
 10
20.5
 20
2.5
 30
0.0
 11
14.0
 21
2.5
 31
0.0
  0
LINE
  5
193
100
AcDbEntity
  8
UMRISS07
100
AcDbLine
 10
20.5
 20
4.5
 30
0.0
 11
20.5
 21
2.5
 31
0.0
  0
LINE
  5
194
100
AcDbEntity
  8
UMRISS07
100
AcDbLine
 10
16.5
 20
4.5
 30
0.0
 11
20.5
 21
4.5
 31
0.0
  0
LINE
  5
195
100
AcDbEntity
  8
UMRISS07
100
AcDbLine
 10
16.5
 20
6.0
 30
0.0
 11
16.5
 21
4.5
 31
0.0
  0
LINE
  5
196
100
AcDbEntity
  8
UMRISS07
100
AcDbLine
 10
19.5
 20
6.0
 30
0.0
 11
16.5
 21
6.0
 31
0.0
  0
LINE
  5
197
100
AcDbEntity
  8
UMRISS07
100
AcDbLine
 10
19.5
 20
8.0
 30
0.0
 11
19.5
 21
6.0
 31
0.0
  0
LINE
  5
198
100
AcDbEntity
  8
UMRISS07
100
AcDbLine
 10
16.5
 20
8.0
 30
0.0
 11
19.5
 21
8.0
 31
0.0
  0
LINE
  5
199
100
AcDbEntity
  8
UMRISS07
100
AcDbLine
 10
16.5
 20
9.5
 30
0.0
 11
16.5
 21
8.0
 31
0.0
  0
LINE
  5
19A
100
AcDbEntity
  8
UMRISS07
100
AcDbLine
 10
20.5
 20
9.5
 30
0.0
 11
16.5
 21
9.5
 31
0.0
  0
LINE
  5
19B
100
AcDbEntity
  8
UMRISS07
100
AcDbLine
 10
20.5
 20
11.5
 30
0.0
 11
20.5
 21
9.5
 31
0.0
  0
LINE
  5
19C
100
AcDbEntity
  8
UMRISS07
100
AcDbLine
 10
14.0
 20
11.5
 30
0.0
 11
20.5
 21
11.5
 31
0.0
  0
LINE
  5
19D
100
AcDbEntity
  8
UMRISS07
100
AcDbLine
 10
14.0
 20
2.5
 30
0.0
 11
14.0
 21
11.5
 31
0.0
  0
LINE
  5
19E
100
AcDbEntity
  8
UMRISS07
100
AcDbLine
 10
9.0
 20
2.5
 30
0.0
 11
7.0
 21
2.5
 31
0.0
  0
LINE
  5
19F
100
AcDbEntity
  8
UMRISS07
100
AcDbLine
 10
9.0
 20
7.5
 30
0.0
 11
9.0
 21
2.5
 31
0.0
  0
LINE
  5
1A0
100
AcDbEntity
  8
UMRISS07
100
AcDbLine
 10
10.5
 20
2.5
 30
0.0
 11
9.0
 21
7.5
 31
0.0
  0
LINE
  5
1A1
100
AcDbEntity
  8
UMRISS07
100
AcDbLine
 10
13.5
 20
2.5
 30
0.0
 11
10.5
 21
2.5
 31
0.0
  0
LINE
  5
1A2
100
AcDbEntity
  8
UMRISS07
100
AcDbLine
 10
13.5
 20
11.5
 30
0.0
 11
13.5
 21
2.5
 31
0.0
  0
LINE
  5
1A3
100
AcDbEntity
  8
UMRISS07
100
AcDbLine
 10
11.5
 20
11.5
 30
0.0
 11
13.5
 21
11.5
 31
0.0
  0
LINE
  5
1A4
100
AcDbEntity
  8
UMRISS07
100
AcDbLine
 10
11.5
 20
7.5
 30
0.0
 11
11.5
 21
11.5
 31
0.0
  0
LINE
  5
1A5
100
AcDbEntity
  8
UMRISS07
100
AcDbLine
 10
10.0
 20
11.5
 30
0.0
 11
11.5
 21
7.5
 31
0.0
  0
LINE
  5
1A6
100
AcDbEntity
  8
UMRISS07
100
AcDbLine
 10
7.0
 20
11.5
 30
0.0
 11
10.0
 21
11.5
 31
0.0
  0
LINE
  5
1A7
100
AcDbEntity
  8
UMRISS07
100
AcDbLine
 10
7.0
 20
2.5
 30
0.0
 11
7.0
 21
11.5
 31
0.0
  0
LINE
  5
1A8
100
AcDbEntity
  8
UMRISS07
100
AcDbLine
 10
6.5
 20
2.5
 30
0.0
 11
3.5
 21
2.5
 31
0.0
  0
LINE
  5
1A9
100
AcDbEntity
  8
UMRISS07
100
AcDbLine
 10
6.5
 20
11.5
 30
0.0
 11
6.5
 21
2.5
 31
0.0
  0
LINE
  5
1AA
100
AcDbEntity
  8
UMRISS07
100
AcDbLine
 10
3.5
 20
11.5
 30
0.0
 11
6.5
 21
11.5
 31
0.0
  0
LINE
  5
1AB
100
AcDbEntity
  8
UMRISS07
100
AcDbLine
 10
3.5
 20
2.5
 30
0.0
 11
3.5
 21
11.5
 31
0.0
  0
ARC
  5
1AC
100
AcDbEntity
  8
UMRISS07
100
AcDbCircle
 10
-2.0
 20
7.0
 30
0.0
 40
2.5
100
AcDbArc
 50
270.0
 51
90.0
  0
LINE
  5
1AD
100
AcDbEntity
  8
UMRISS07
100
AcDbLine
 10
-2.0
 20
9.5
 30
0.0
 11
-2.0
 21
4.5
 31
0.0
  0
LINE
  5
1AE
100
AcDbEntity
  8
UMRISS07
100
AcDbLine
 10
-5.0
 20
11.5
 30
0.0
 11
-5.0
 21
2.5
 31
0.0
  0
LINE
  5
1AF
100
AcDbEntity
  8
UMRISS07
100
AcDbLine
 10
0.0
 20
11.5
 30
0.0
 11
-5.0
 21
11.5
 31
0.0
  0
ARC
  5
1B0
100
AcDbEntity
  8
UMRISS07
100
AcDbCircle
 10
-1.142857
 20
7.0
 30
0.0
 40
4.642857
100
AcDbArc
 50
284.250033
 51
75.749967
  0
LINE
  5
1B1
100
AcDbEntity
  8
UMRISS07
100
AcDbLine
 10
-5.0
 20
2.5
 30
0.0
 11
0.0
 21
2.5
 31
0.0
  0
LINE
  5
1B2
100
AcDbEntity
  8
UMRISS07
100
AcDbLine
 10
-8.5
 20
2.5
 30
0.0
 11
-8.5
 21
11.5
 31
0.0
  0
LINE
  5
1B3
100
AcDbEntity
  8
UMRISS07
100
AcDbLine
 10
-5.5
 20
2.5
 30
0.0
 11
-8.5
 21
2.5
 31
0.0
  0
LINE
  5
1B4
100
AcDbEntity
  8
UMRISS07
100
AcDbLine
 10
-5.5
 20
11.5
 30
0.0
 11
-5.5
 21
2.5
 31
0.0
  0
LINE
  5
1B5
100
AcDbEntity
  8
UMRISS07
100
AcDbLine
 10
-8.5
 20
11.5
 30
0.0
 11
-5.5
 21
11.5
 31
0.0
  0
LINE
  5
1B6
100
AcDbEntity
  8
UMRISS07
100
AcDbLine
 10
-13.5
 20
2.5
 30
0.0
 11
-15.5
 21
2.5
 31
0.0
  0
LINE
  5
1B7
100
AcDbEntity
  8
UMRISS07
100
AcDbLine
 10
-13.5
 20
7.5
 30
0.0
 11
-13.5
 21
2.5
 31
0.0
  0
LINE
  5
1B8
100
AcDbEntity
  8
UMRISS07
100
AcDbLine
 10
-12.0
 20
2.5
 30
0.0
 11
-13.5
 21
7.5
 31
0.0
  0
LINE
  5
1B9
100
AcDbEntity
  8
UMRISS07
100
AcDbLine
 10
-9.0
 20
2.5
 30
0.0
 11
-12.0
 21
2.5
 31
0.0
  0
LINE
  5
1BA
100
AcDbEntity
  8
UMRISS07
100
AcDbLine
 10
-9.0
 20
11.5
 30
0.0
 11
-9.0
 21
2.5
 31
0.0
  0
LINE
  5
1BB
100
AcDbEntity
  8
UMRISS07
100
AcDbLine
 10
-11.0
 20
11.5
 30
0.0
 11
-9.0
 21
11.5
 31
0.0
  0
LINE
  5
1BC
100
AcDbEntity
  8
UMRISS07
100
AcDbLine
 10
-11.0
 20
7.5
 30
0.0
 11
-11.0
 21
11.5
 31
0.0
  0
LINE
  5
1BD
100
AcDbEntity
  8
UMRISS07
100
AcDbLine
 10
-12.5
 20
11.5
 30
0.0
 11
-11.0
 21
7.5
 31
0.0
  0
LINE
  5
1BE
100
AcDbEntity
  8
UMRISS07
100
AcDbLine
 10
-15.5
 20
11.5
 30
0.0
 11
-12.5
 21
11.5
 31
0.0
  0
LINE
  5
1BF
100
AcDbEntity
  8
UMRISS07
100
AcDbLine
 10
-15.5
 20
2.5
 30
0.0
 11
-15.5
 21
11.5
 31
0.0
  0
LINE
  5
1C0
100
AcDbEntity
  8
UMRISS07
100
AcDbLine
 10
-22.5
 20
2.5
 30
0.0
 11
-22.5
 21
11.5
 31
0.0
  0
LINE
  5
1C1
100
AcDbEntity
  8
UMRISS07
100
AcDbLine
 10
-16.0
 20
2.5
 30
0.0
 11
-22.5
 21
2.5
 31
0.0
  0
LINE
  5
1C2
100
AcDbEntity
  8
UMRISS07
100
AcDbLine
 10
-16.0
 20
4.5
 30
0.0
 11
-16.0
 21
2.5
 31
0.0
  0
LINE
  5
1C3
100
AcDbEntity
  8
UMRISS07
100
AcDbLine
 10
-20.0
 20
4.5
 30
0.0
 11
-16.0
 21
4.5
 31
0.0
  0
LINE
  5
1C4
100
AcDbEntity
  8
UMRISS07
100
AcDbLine
 10
-20.0
 20
6.0
 30
0.0
 11
-20.0
 21
4.5
 31
0.0
  0
LINE
  5
1C5
100
AcDbEntity
  8
UMRISS07
100
AcDbLine
 10
-17.0
 20
6.0
 30
0.0
 11
-20.0
 21
6.0
 31
0.0
  0
LINE
  5
1C6
100
AcDbEntity
  8
UMRISS07
100
AcDbLine
 10
-17.0
 20
8.0
 30
0.0
 11
-17.0
 21
6.0
 31
0.0
  0
LINE
  5
1C7
100
AcDbEntity
  8
UMRISS07
100
AcDbLine
 10
-20.0
 20
8.0
 30
0.0
 11
-17.0
 21
8.0
 31
0.0
  0
LINE
  5
1C8
100
AcDbEntity
  8
UMRISS07
100
AcDbLine
 10
-20.0
 20
9.5
 30
0.0
 11
-20.0
 21
8.0
 31
0.0
  0
LINE
  5
1C9
100
AcDbEntity
  8
UMRISS07
100
AcDbLine
 10
-16.0
 20
9.5
 30
0.0
 11
-20.0
 21
9.5
 31
0.0
  0
LINE
  5
1CA
100
AcDbEntity
  8
UMRISS07
100
AcDbLine
 10
-16.0
 20
11.5
 30
0.0
 11
-16.0
 21
9.5
 31
0.0
  0
LINE
  5
1CB
100
AcDbEntity
  8
UMRISS07
100
AcDbLine
 10
-22.5
 20
11.5
 30
0.0
 11
-16.0
 21
11.5
 31
0.0
  0
ENDBLK
  5
1CD
100
AcDbEntity
  8
0
100
AcDbBlockEnd
  0
ENDSEC
  0
SECTION
  2
ENTITIES
  0
LINE
  5
49
100
AcDbEntity
  8
KONTUR
100
AcDbLine
 10
-2.032
 20
9.779
 30
0.0
 11
-65.151
 21
9.779
 31
0.0
  0
LINE
  5
4A
100
AcDbEntity
  8
KONTUR
100
AcDbLine
 10
-65.151
 20
-9.779
 30
0.0
 11
-2.032
 21
-9.779
 31
0.0
  0
LINE
  5
4B
100
AcDbEntity
  8
KONTUR
100
AcDbLine
 10
-2.032
 20
-9.779
 30
0.0
 11
-0.508
 21
-8.255
 31
0.0
  0
LINE
  5
4C
100
AcDbEntity
  8
KONTUR
100
AcDbLine
 10
-0.508
 20
8.255
 30
0.0
 11
-2.032
 21
9.779
 31
0.0
  0
LINE
  5
4D
100
AcDbEntity
  8
KONTUR
100
AcDbLine
 10
-65.151
 20
9.779
 30
0.0
 11
-67.056
 21
7.874
 31
0.0
  0
LINE
  5
4E
100
AcDbEntity
  8
KONTUR
100
AcDbLine
 10
-67.056
 20
-7.874
 30
0.0
 11
-65.151
 21
-9.779
 31
0.0
  0
LINE
  5
4F
100
AcDbEntity
  8
KONTUR
100
AcDbLine
 10
0.0
 20
8.255
 30
0.0
 11
-0.508
 21
8.255
 31
0.0
  0
LINE
  5
50
100
AcDbEntity
  8
KONTUR
100
AcDbLine
 10
-0.508
 20
-8.255
 30
0.0
 11
0.0
 21
-8.255
 31
0.0
  0
LINE
  5
51
100
AcDbEntity
  8
KONTUR
100
AcDbLine
 10
-70.358
 20
-8.1915
 30
0.0
 11
-69.088
 21
-8.1915
 31
0.0
  0
LINE
  5
52
100
AcDbEntity
  8
KONTUR
100
AcDbLine
 10
-69.088
 20
8.1915
 30
0.0
 11
-70.358
 21
8.1915
 31
0.0
  0
LINE
  5
53
100
AcDbEntity
  8
KONTUR
100
AcDbLine
 10
-69.088
 20
-7.874
 30
0.0
 11
-67.056
 21
-7.874
 31
0.0
  0
LINE
  5
54
100
AcDbEntity
  8
KONTUR
100
AcDbLine
 10
-67.056
 20
7.874
 30
0.0
 11
-69.088
 21
7.874
 31
0.0
  0
LINE
  5
55
100
AcDbEntity
  8
KONTUR
100
AcDbLine
 10
-70.358
 20
8.128
 30
0.0
 11
-72.263
 21
8.128
 31
0.0
  0
LINE
  5
56
100
AcDbEntity
  8
KONTUR
100
AcDbLine
 10
-72.263
 20
-8.128
 30
0.0
 11
-70.358
 21
-8.128
 31
0.0
  0
LINE
  5
57
100
AcDbEntity
  8
KONTUR
100
AcDbLine
 10
-72.263
 20
8.001
 30
0.0
 11
-75.438
 21
8.001
 31
0.0
  0
LINE
  5
58
100
AcDbEntity
  8
KONTUR
100
AcDbLine
 10
-75.438
 20
-8.001
 30
0.0
 11
-72.263
 21
-8.001
 31
0.0
  0
LINE
  5
59
100
AcDbEntity
  8
KONTUR
100
AcDbLine
 10
-83.8508
 20
8.001
 30
0.0
 11
-84.3588
 21
7.493
 31
0.0
  0
LINE
  5
5A
100
AcDbEntity
  8
KONTUR
100
AcDbLine
 10
-84.3588
 20
-7.493
 30
0.0
 11
-83.8508
 21
-8.001
 31
0.0
  0
LINE
  5
5B
100
AcDbEntity
  8
KONTUR
100
AcDbLine
 10
-78.7708
 20
8.001
 30
0.0
 11
-83.8508
 21
8.001
 31
0.0
  0
LINE
  5
5C
100
AcDbEntity
  8
KONTUR
100
AcDbLine
 10
-83.8508
 20
-8.001
 30
0.0
 11
-78.7708
 21
-8.001
 31
0.0
  0
LINE
  5
5D
100
AcDbEntity
  8
KONTUR
100
AcDbLine
 10
-78.7708
 20
-8.001
 30
0.0
 11
-78.2628
 21
-7.493
 31
0.0
  0
LINE
  5
5E
100
AcDbEntity
  8
KONTUR
100
AcDbLine
 10
-78.2628
 20
7.493
 30
0.0
 11
-78.7708
 21
8.001
 31
0.0
  0
ARC
  5
5F
100
AcDbEntity
  8
KONTUR
100
AcDbCircle
 10
-77.6278
 20
3.1242
 30
0.0
 40
0.635
100
AcDbArc
 50
180.0
 51
270.0
  0
ARC
  5
60
100
AcDbEntity
  8
KONTUR
100
AcDbCircle
 10
-77.6278
 20
-3.1242
 30
0.0
 40
0.635
100
AcDbArc
 50
90.0
 51
180.0
  0
LINE
  5
61
100
AcDbEntity
  8
KONTUR
100
AcDbLine
 10
-77.0128
 20
2.4892
 30
0.0
 11
-77.6278
 21
2.4892
 31
0.0
  0
LINE
  5
62
100
AcDbEntity
  8
KONTUR
100
AcDbLine
 10
-77.6278
 20
-2.4892
 30
0.0
 11
-77.0128
 21
-2.4892
 31
0.0
  0
LINE
  5
63
100
AcDbEntity
  8
KONTUR
100
AcDbLine
 10
-78.23454
 20
7.127184
 30
0.0
 11
-78.2628
 21
7.098924
 31
0.0
  0
LINE
  5
64
100
AcDbEntity
  8
KONTUR
100
AcDbLine
 10
-78.2628
 20
4.330964
 30
0.0
 11
-78.23454
 21
4.302704
 31
0.0
  0
LINE
  5
65
100
AcDbEntity
  8
KONTUR
100
AcDbLine
 10
-77.0128
 20
7.127184
 30
0.0
 11
-78.23454
 21
7.127184
 31
0.0
  0
LINE
  5
66
100
AcDbEntity
  8
KONTUR
100
AcDbLine
 10
-78.23454
 20
4.302704
 30
0.0
 11
-77.0128
 21
4.302704
 31
0.0
  0
LINE
  5
67
100
AcDbEntity
  8
KONTUR
100
AcDbLine
 10
14.4526
 20
2.37617
 30
0.0
 11
0.0
 21
2.37617
 31
0.0
  0
LINE
  5
68
100
AcDbEntity
  8
KONTUR
100
AcDbLine
 10
0.0
 20
-2.37617
 30
0.0
 11
14.4526
 21
-2.37617
 31
0.0
  0
LINE
  5
69
100
AcDbEntity
  8
KONTUR
100
AcDbLine
 10
14.7026
 20
5.5
 30
0.0
 11
14.4526
 21
5.25
 31
0.0
  0
LINE
  5
6A
100
AcDbEntity
  8
KONTUR
100
AcDbLine
 10
14.4526
 20
-5.25
 30
0.0
 11
14.7026
 21
-5.5
 31
0.0
  0
LINE
  5
6B
100
AcDbEntity
  8
KONTUR
100
AcDbLine
 10
16.1026
 20
5.5
 30
0.0
 11
14.7026
 21
5.5
 31
0.0
  0
LINE
  5
6C
100
AcDbEntity
  8
KONTUR
100
AcDbLine
 10
14.7026
 20
-5.5
 30
0.0
 11
16.1026
 21
-5.5
 31
0.0
  0
LINE
  5
6D
100
AcDbEntity
  8
KONTUR
100
AcDbLine
 10
16.1026
 20
-5.5
 30
0.0
 11
16.3526
 21
-5.25
 31
0.0
  0
LINE
  5
6E
100
AcDbEntity
  8
KONTUR
100
AcDbLine
 10
16.3526
 20
5.25
 30
0.0
 11
16.1026
 21
5.5
 31
0.0
  0
ARC
  5
6F
100
AcDbEntity
  8
KONTUR
100
AcDbCircle
 10
16.7026
 20
3.525
 30
0.0
 40
0.35
100
AcDbArc
 50
180.0
 51
270.0
  0
ARC
  5
70
100
AcDbEntity
  8
KONTUR
100
AcDbCircle
 10
16.7026
 20
-3.525
 30
0.0
 40
0.35
100
AcDbArc
 50
90.0
 51
180.0
  0
LINE
  5
71
100
AcDbEntity
  8
KONTUR
100
AcDbLine
 10
16.7406
 20
3.175
 30
0.0
 11
16.7026
 21
3.175
 31
0.0
  0
LINE
  5
72
100
AcDbEntity
  8
KONTUR
100
AcDbLine
 10
16.7026
 20
-3.175
 30
0.0
 11
16.7406
 21
-3.175
 31
0.0
  0
LINE
  5
73
100
AcDbEntity
  8
KONTUR
100
AcDbLine
 10
25.6814
 20
6.35
 30
0.0
 11
16.7406
 21
6.35
 31
0.0
  0
LINE
  5
74
100
AcDbEntity
  8
KONTUR
100
AcDbLine
 10
16.7406
 20
-6.35
 30
0.0
 11
25.6814
 21
-6.35
 31
0.0
  0
ARC
  5
75
100
AcDbEntity
  8
KONTUR
100
AcDbCircle
 10
25.6814
 20
5.588
 30
0.0
 40
0.762
100
AcDbArc
 50
0.0
 51
90.0
  0
ARC
  5
76
100
AcDbEntity
  8
KONTUR
100
AcDbCircle
 10
25.6814
 20
-5.588
 30
0.0
 40
0.762
100
AcDbArc
 50
270.0
 51
0.0
  0
LINE
  5
77
100
AcDbEntity
  8
KONTUR
100
AcDbLine
 10
-2.032
 20
9.779
 30
0.0
 11
-2.032
 21
-9.779
 31
0.0
  0
LINE
  5
78
100
AcDbEntity
  8
KONTUR
100
AcDbLine
 10
-65.151
 20
-9.779
 30
0.0
 11
-65.151
 21
-4.128887
 31
0.0
  0
LINE
  5
79
100
AcDbEntity
  8
KONTUR
100
AcDbLine
 10
-54.356
 20
-4.128887
 30
0.0
 11
-65.151
 21
-4.128887
 31
0.0
  0
LINE
  5
7A
100
AcDbEntity
  8
KONTUR
100
AcDbLine
 10
-54.356
 20
-4.128887
 30
0.0
 11
-54.356
 21
4.128887
 31
0.0
  0
LINE
  5
7B
100
AcDbEntity
  8
KONTUR
100
AcDbLine
 10
-54.356
 20
4.128887
 30
0.0
 11
-65.151
 21
4.128887
 31
0.0
  0
LINE
  5
7C
100
AcDbEntity
  8
KONTUR
100
AcDbLine
 10
-65.151
 20
4.128887
 30
0.0
 11
-65.151
 21
9.779
 31
0.0
  0
LINE
  5
7D
100
AcDbEntity
  8
KONTUR
100
AcDbLine
 10
-0.508
 20
8.255
 30
0.0
 11
-0.508
 21
-8.255
 31
0.0
  0
LWPOLYLINE
  5
7E
100
AcDbEntity
  8
KONTUR
100
AcDbPolyline
 90
        7
 70
   128
 43
0.0
 10
-65.151
 20
-4.128887
 10
-65.594141
 20
-2.928675
 10
-65.923588
 20
-1.585017
 10
-66.062915
 20
-0.209932
 10
-65.944359
 20
1.453001
 10
-65.547265
 20
3.074831
 10
-65.151
 20
4.128887
  0
LINE
  5
87
100
AcDbEntity
  8
KONTUR
100
AcDbLine
 10
-67.056
 20
0.0
 30
0.0
 11
-67.056
 21
7.874
 31
0.0
  0
LINE
  5
88
100
AcDbEntity
  8
KONTUR
100
AcDbLine
 10
-67.056
 20
-7.874
 30
0.0
 11
-67.056
 21
0.0
 31
0.0
  0
LINE
  5
89
100
AcDbEntity
  8
KONTUR
100
AcDbLine
 10
0.0
 20
8.255
 30
0.0
 11
0.0
 21
-8.255
 31
0.0
  0
LINE
  5
8A
100
AcDbEntity
  8
KONTUR
100
AcDbLine
 10
-69.088
 20
0.0
 30
0.0
 11
-69.088
 21
8.1915
 31
0.0
  0
LINE
  5
8B
100
AcDbEntity
  8
KONTUR
100
AcDbLine
 10
-69.088
 20
-8.1915
 30
0.0
 11
-69.088
 21
0.0
 31
0.0
  0
LINE
  5
8C
100
AcDbEntity
  8
KONTUR
100
AcDbLine
 10
-70.358
 20
0.0
 30
0.0
 11
-70.358
 21
8.1915
 31
0.0
  0
LINE
  5
8D
100
AcDbEntity
  8
KONTUR
100
AcDbLine
 10
-70.358
 20
-8.1915
 30
0.0
 11
-70.358
 21
0.0
 31
0.0
  0
LINE
  5
8E
100
AcDbEntity
  8
KONTUR
100
AcDbLine
 10
-72.263
 20
8.128
 30
0.0
 11
-72.263
 21
-8.128
 31
0.0
  0
LINE
  5
8F
100
AcDbEntity
  8
KONTUR
100
AcDbLine
 10
-76.5048
 20
7.878096
 30
0.0
 11
-76.5048
 21
-7.878096
 31
0.0
  0
LINE
  5
90
100
AcDbEntity
  8
KONTUR
100
AcDbLine
 10
-75.438
 20
7.878096
 30
0.0
 11
-76.5048
 21
7.878096
 31
0.0
  0
LINE
  5
91
100
AcDbEntity
  8
KONTUR
100
AcDbLine
 10
-75.438
 20
7.878096
 30
0.0
 11
-75.438
 21
8.001
 31
0.0
  0
LINE
  5
92
100
AcDbEntity
  8
KONTUR
100
AcDbLine
 10
-75.438
 20
-8.001
 30
0.0
 11
-75.438
 21
-7.878096
 31
0.0
  0
LINE
  5
93
100
AcDbEntity
  8
KONTUR
100
AcDbLine
 10
-75.438
 20
-7.878096
 30
0.0
 11
-76.5048
 21
-7.878096
 31
0.0
  0
LWPOLYLINE
  5
94
100
AcDbEntity
  8
KONTUR
100
AcDbPolyline
 90
       21
 70
   128
 43
0.0
 10
-76.120057
 20
0.0
 10
-76.004841
 20
0.615291
 10
-75.659856
 20
1.134361
 10
-75.151811
 20
1.487071
 10
-74.862522
 20
1.574866
 10
-74.549724
 20
1.604158
 10
-74.237053
 20
1.575055
 10
-73.947644
 20
1.487402
 10
-73.438607
 20
1.134834
 10
-73.093261
 20
0.616189
 10
-72.977943
 20
0.000036
 10
-73.092865
 20
-0.615379
 10
-73.438235
 20
-1.134454
 10
-73.946848
 20
-1.486937
 10
-74.236562
 20
-1.574753
 10
-74.549881
 20
-1.604158
 10
-74.862001
 20
-1.575151
 10
-75.151013
 20
-1.487477
 10
-75.659714
 20
-1.134507
 10
-76.005136
 20
-0.615435
 10
-76.120057
 20
0.0
  0
LWPOLYLINE
  5
AB
100
AcDbEntity
  8
KONTUR
100
AcDbPolyline
 90
       25
 70
   128
 43
0.0
 10
-75.9714
 20
0.0
 10
-75.887564
 20
-0.481112
 10
-75.759116
 20
-0.747556
 10
-75.554615
 20
-1.005962
 10
-75.294111
 20
-1.211623
 10
-75.026862
 20
-1.339728
 10
-74.549797
 20
-1.4224
 10
-74.072104
 20
-1.340072
 10
-73.804353
 20
-1.211909
 10
-73.543338
 20
-1.005915
 10
-73.338727
 20
-0.747303
 10
-73.210311
 20
-0.480765
 10
-73.1266
 20
0.000032
 10
-73.210284
 20
0.480689
 10
-73.338786
 20
0.747397
 10
-73.543675
 20
1.006252
 10
-73.804355
 20
1.21191
 10
-74.071861
 20
1.339985
 10
-74.549656
 20
1.4224
 10
-75.026528
 20
1.339847
 10
-75.293958
 20
1.211718
 10
-75.554745
 20
1.005832
 10
-75.75924
 20
0.747356
 10
-75.887639
 20
0.480903
 10
-75.9714
 20
0.0
  0
LINE
  5
C6
100
AcDbEntity
  8
KONTUR
100
AcDbLine
 10
-77.0128
 20
-7.361619
 30
0.0
 11
-77.0128
 21
7.361619
 31
0.0
  0
LINE
  5
C7
100
AcDbEntity
  8
KONTUR
100
AcDbLine
 10
-77.0128
 20
7.361619
 30
0.0
 11
-76.5048
 21
7.878096
 31
0.0
  0
LINE
  5
C8
100
AcDbEntity
  8
KONTUR
100
AcDbLine
 10
-76.5048
 20
-7.878096
 30
0.0
 11
-77.0128
 21
-7.361619
 31
0.0
  0
LINE
  5
C9
100
AcDbEntity
  8
KONTUR
100
AcDbLine
 10
-83.8508
 20
8.001
 30
0.0
 11
-83.8508
 21
-8.001
 31
0.0
  0
LINE
  5
CA
100
AcDbEntity
  8
KONTUR
100
AcDbLine
 10
-84.3588
 20
-7.493
 30
0.0
 11
-84.3588
 21
7.493
 31
0.0
  0
LINE
  5
CB
100
AcDbEntity
  8
KONTUR
100
AcDbLine
 10
-78.7708
 20
0.03556
 30
0.0
 11
-78.7708
 21
8.001
 31
0.0
  0
LINE
  5
CC
100
AcDbEntity
  8
KONTUR
100
AcDbLine
 10
-78.7708
 20
-8.001
 30
0.0
 11
-78.7708
 21
0.03556
 31
0.0
  0
LINE
  5
CD
100
AcDbEntity
  8
KONTUR
100
AcDbLine
 10
-78.2628
 20
0.033302
 30
0.0
 11
-78.2628
 21
-7.493
 31
0.0
  0
LINE
  5
CE
100
AcDbEntity
  8
KONTUR
100
AcDbLine
 10
-78.2628
 20
7.493
 30
0.0
 11
-78.2628
 21
0.033302
 31
0.0
  0
LINE
  5
CF
100
AcDbEntity
  8
KONTUR
100
AcDbLine
 10
-78.23454
 20
7.127184
 30
0.0
 11
-78.23454
 21
4.302704
 31
0.0
  0
LINE
  5
D0
100
AcDbEntity
  8
KONTUR
100
AcDbLine
 10
14.7026
 20
5.5
 30
0.0
 11
14.7026
 21
-5.5
 31
0.0
  0
LINE
  5
D1
100
AcDbEntity
  8
KONTUR
100
AcDbLine
 10
14.4526
 20
-5.25
 30
0.0
 11
14.4526
 21
5.25
 31
0.0
  0
LINE
  5
D2
100
AcDbEntity
  8
KONTUR
100
AcDbLine
 10
16.1026
 20
-5.5
 30
0.0
 11
16.1026
 21
5.5
 31
0.0
  0
LINE
  5
D3
100
AcDbEntity
  8
KONTUR
100
AcDbLine
 10
16.3526
 20
5.25
 30
0.0
 11
16.3526
 21
-5.25
 31
0.0
  0
LINE
  5
D4
100
AcDbEntity
  8
KONTUR
100
AcDbLine
 10
16.7406
 20
6.35
 30
0.0
 11
16.7406
 21
-6.35
 31
0.0
  0
LINE
  5
D5
100
AcDbEntity
  8
KONTUR
100
AcDbLine
 10
26.4434
 20
5.588
 30
0.0
 11
26.4434
 21
-5.588
 31
0.0
  0
LINE
  5
D6
100
AcDbEntity
  8
KONTUR
100
AcDbLine
 10
-77.6278
 20
2.4892
 30
0.0
 11
-77.6278
 21
-2.4892
 31
0.0
  0
LINE
  5
D7
100
AcDbEntity
  8
KONTUR
100
AcDbLine
 10
16.7026
 20
3.175
 30
0.0
 11
16.7026
 21
-3.175
 31
0.0
  0
LINE
  5
D8
100
AcDbEntity
  8
KONTUR
100
AcDbLine
 10
25.6814
 20
-6.35
 30
0.0
 11
25.6814
 21
6.35
 31
0.0
  0
LINE
  5
DA
100
AcDbEntity
  8
SYMMETRIE
100
AcDbLine
 10
-74.549
 20
-5.0
 30
0.0
 11
-74.549
 21
5.0
 31
0.0
  0
LINE
  5
DB
100
AcDbEntity
  8
GEWINDE
100
AcDbLine
 10
-1.333
 20
9.08
 30
0.0
 11
-65.85
 21
9.08
 31
0.0
  0
LINE
  5
DC
100
AcDbEntity
  8
KONTUR
100
AcDbLine
 10
-65.85
 20
9.08
 30
0.0
 11
-65.85
 21
9.08
 31
0.0
  0
LINE
  5
DD
100
AcDbEntity
  8
GEWINDE
100
AcDbLine
 10
-1.333
 20
-9.08
 30
0.0
 11
-65.85
 21
-9.08
 31
0.0
  0
LINE
  5
DE
100
AcDbEntity
  8
KONTUR
100
AcDbLine
 10
-65.85
 20
-9.08
 30
0.0
 11
-65.85
 21
-9.08
 31
0.0
  0
LINE
  5
DF
100
AcDbEntity
  8
KONTUR
100
AcDbLine
 10
-65.85
 20
9.08
 30
0.0
 11
-65.85
 21
9.08
 31
0.0
  0
LINE
  5
E0
100
AcDbEntity
  8
KONTUR
100
AcDbLine
 10
-65.85
 20
9.08
 30
0.0
 11
-65.85
 21
9.08
 31
0.0
  0
CIRCLE
  5
E1
100
AcDbEntity
  8
KONTUR
100
AcDbCircle
 10
78.047057
 20
0.0
 30
0.0
 40
8.1915
  0
LINE
  5
E2
100
AcDbEntity
  8
KONTUR
100
AcDbLine
 10
86.911657
 20
-4.128887
 30
0.0
 11
86.911657
 21
4.128887
 31
0.0
  0
ARC
  5
E3
100
AcDbEntity
  8
KONTUR
100
AcDbCircle
 10
78.047057
 20
0.0
 30
0.0
 40
9.779
100
AcDbArc
 50
204.97481
 51
335.02519
  0
LINE
  5
E4
100
AcDbEntity
  8
KONTUR
100
AcDbLine
 10
69.182457
 20
4.128887
 30
0.0
 11
69.182457
 21
-4.128887
 31
0.0
  0
ARC
  5
E5
100
AcDbEntity
  8
KONTUR
100
AcDbCircle
 10
78.047057
 20
0.0
 30
0.0
 40
9.779
100
AcDbArc
 50
24.97481
 51
155.02519
  0
ARC
  5
E6
100
AcDbEntity
  8
KONTUR
100
AcDbCircle
 10
78.047057
 20
0.0
 30
0.0
 40
9.779
100
AcDbArc
 50
155.02519
 51
204.97481
  0
ARC
  5
E7
100
AcDbEntity
  8
KONTUR
100
AcDbCircle
 10
78.047057
 20
0.0
 30
0.0
 40
9.779
100
AcDbArc
 50
335.02519
 51
24.97481
  0
CIRCLE
  5
E8
100
AcDbEntity
  8
KONTUR
100
AcDbCircle
 10
78.047057
 20
0.0
 30
0.0
 40
8.128
  0
CIRCLE
  5
E9
100
AcDbEntity
  8
KONTUR
100
AcDbCircle
 10
78.047057
 20
0.0
 30
0.0
 40
8.001
  0
CIRCLE
  5
EA
100
AcDbEntity
  8
KONTUR
100
AcDbCircle
 10
78.047057
 20
0.0
 30
0.0
 40
7.493
  0
CIRCLE
  5
EB
100
AcDbEntity
  8
KONTUR
100
AcDbCircle
 10
78.021657
 20
5.714944
 30
0.0
 40
1.651
  0
CIRCLE
  5
EC
100
AcDbEntity
  8
KONTUR
100
AcDbCircle
 10
78.021657
 20
5.714944
 30
0.0
 40
1.4224
  0
CIRCLE
  5
ED
100
AcDbEntity
  8
KONTUR
100
AcDbCircle
 10
78.021657
 20
5.714944
 30
0.0
 40
1.03378
  0
CIRCLE
  5
EE
100
AcDbEntity
  8
KONTUR
100
AcDbCircle
 10
78.021657
 20
5.714944
 30
0.0
 40
1.41224
  0
ARC
  5
F7
100
AcDbEntity
  8
GEWINDE
100
AcDbCircle
 10
78.047057
 20
0.0
 30
0.0
 40
9.08
100
AcDbArc
 50
75.0
 51
345.0
  0
LINE
  5
F8
100
AcDbEntity
  8
KONTUR
100
AcDbLine
 10
-2.032
 20
-34.440192
 30
0.0
 11
-65.151
 21
-34.440192
 31
0.0
  0
LINE
  5
F9
100
AcDbEntity
  8
KONTUR
100
AcDbLine
 10
-65.151
 20
-53.998192
 30
0.0
 11
-2.032
 21
-53.998192
 31
0.0
  0
LINE
  5
FA
100
AcDbEntity
  8
KONTUR
100
AcDbLine
 10
-2.032
 20
-53.998192
 30
0.0
 11
-0.508
 21
-52.474192
 31
0.0
  0
LINE
  5
FB
100
AcDbEntity
  8
KONTUR
100
AcDbLine
 10
-0.508
 20
-35.964192
 30
0.0
 11
-2.032
 21
-34.440192
 31
0.0
  0
LINE
  5
FC
100
AcDbEntity
  8
KONTUR
100
AcDbLine
 10
-65.151
 20
-34.440192
 30
0.0
 11
-67.056
 21
-36.345192
 31
0.0
  0
LINE
  5
FD
100
AcDbEntity
  8
KONTUR
100
AcDbLine
 10
-67.056
 20
-52.093192
 30
0.0
 11
-65.151
 21
-53.998192
 31
0.0
  0
LINE
  5
FE
100
AcDbEntity
  8
KONTUR
100
AcDbLine
 10
0.0
 20
-35.964192
 30
0.0
 11
-0.508
 21
-35.964192
 31
0.0
  0
LINE
  5
FF
100
AcDbEntity
  8
KONTUR
100
AcDbLine
 10
-0.508
 20
-52.474192
 30
0.0
 11
0.0
 21
-52.474192
 31
0.0
  0
LINE
  5
100
100
AcDbEntity
  8
KONTUR
100
AcDbLine
 10
-70.358
 20
-52.410692
 30
0.0
 11
-69.088
 21
-52.410692
 31
0.0
  0
LINE
  5
101
100
AcDbEntity
  8
KONTUR
100
AcDbLine
 10
-69.088
 20
-36.027692
 30
0.0
 11
-70.358
 21
-36.027692
 31
0.0
  0
LINE
  5
102
100
AcDbEntity
  8
KONTUR
100
AcDbLine
 10
-69.088
 20
-52.093192
 30
0.0
 11
-67.056
 21
-52.093192
 31
0.0
  0
LINE
  5
103
100
AcDbEntity
  8
KONTUR
100
AcDbLine
 10
-67.056
 20
-36.345192
 30
0.0
 11
-69.088
 21
-36.345192
 31
0.0
  0
LINE
  5
104
100
AcDbEntity
  8
KONTUR
100
AcDbLine
 10
13.6906
 20
-41.843022
 30
0.0
 11
0.0
 21
-41.843022
 31
0.0
  0
LINE
  5
105
100
AcDbEntity
  8
KONTUR
100
AcDbLine
 10
0.0
 20
-46.595362
 30
0.0
 11
13.6906
 21
-46.595362
 31
0.0
  0
ARC
  5
106
100
AcDbEntity
  8
KONTUR
100
AcDbCircle
 10
13.6906
 20
-42.605022
 30
0.0
 40
0.762
100
AcDbArc
 50
0.0
 51
90.0
  0
ARC
  5
107
100
AcDbEntity
  8
KONTUR
100
AcDbCircle
 10
13.6906
 20
-45.833362
 30
0.0
 40
0.762
100
AcDbArc
 50
270.0
 51
0.0
  0
LINE
  5
108
100
AcDbEntity
  8
KONTUR
100
AcDbLine
 10
-70.358
 20
-36.091192
 30
0.0
 11
-72.263
 21
-36.091192
 31
0.0
  0
LINE
  5
109
100
AcDbEntity
  8
KONTUR
100
AcDbLine
 10
-72.263
 20
-52.347192
 30
0.0
 11
-70.358
 21
-52.347192
 31
0.0
  0
LINE
  5
10A
100
AcDbEntity
  8
KONTUR
100
AcDbLine
 10
-72.263
 20
-36.218192
 30
0.0
 11
-75.438
 21
-36.218192
 31
0.0
  0
LINE
  5
10B
100
AcDbEntity
  8
KONTUR
100
AcDbLine
 10
-75.438
 20
-52.220192
 30
0.0
 11
-72.263
 21
-52.220192
 31
0.0
  0
LINE
  5
10C
100
AcDbEntity
  8
KONTUR
100
AcDbLine
 10
-83.8508
 20
-36.218192
 30
0.0
 11
-84.3588
 21
-36.726192
 31
0.0
  0
LINE
  5
10D
100
AcDbEntity
  8
KONTUR
100
AcDbLine
 10
-84.3588
 20
-51.712192
 30
0.0
 11
-83.8508
 21
-52.220192
 31
0.0
  0
LINE
  5
10E
100
AcDbEntity
  8
KONTUR
100
AcDbLine
 10
-78.7708
 20
-36.218192
 30
0.0
 11
-83.8508
 21
-36.218192
 31
0.0
  0
LINE
  5
10F
100
AcDbEntity
  8
KONTUR
100
AcDbLine
 10
-83.8508
 20
-52.220192
 30
0.0
 11
-78.7708
 21
-52.220192
 31
0.0
  0
LINE
  5
110
100
AcDbEntity
  8
KONTUR
100
AcDbLine
 10
-78.7708
 20
-52.220192
 30
0.0
 11
-78.2628
 21
-51.712192
 31
0.0
  0
LINE
  5
111
100
AcDbEntity
  8
KONTUR
100
AcDbLine
 10
-78.2628
 20
-36.726192
 30
0.0
 11
-78.7708
 21
-36.218192
 31
0.0
  0
ARC
  5
112
100
AcDbEntity
  8
KONTUR
100
AcDbCircle
 10
-77.6278
 20
-41.094992
 30
0.0
 40
0.635
100
AcDbArc
 50
180.0
 51
270.0
  0
ARC
  5
113
100
AcDbEntity
  8
KONTUR
100
AcDbCircle
 10
-77.6278
 20
-47.343392
 30
0.0
 40
0.635
100
AcDbArc
 50
90.0
 51
180.0
  0
LINE
  5
114
100
AcDbEntity
  8
KONTUR
100
AcDbLine
 10
-77.0128
 20
-41.729992
 30
0.0
 11
-77.6278
 21
-41.729992
 31
0.0
  0
LINE
  5
115
100
AcDbEntity
  8
KONTUR
100
AcDbLine
 10
-77.6278
 20
-46.708392
 30
0.0
 11
-77.0128
 21
-46.708392
 31
0.0
  0
LINE
  5
116
100
AcDbEntity
  8
KONTUR
100
AcDbLine
 10
-78.23454
 20
-37.092008
 30
0.0
 11
-78.2628
 21
-37.120268
 31
0.0
  0
LINE
  5
117
100
AcDbEntity
  8
KONTUR
100
AcDbLine
 10
-78.2628
 20
-39.888228
 30
0.0
 11
-78.23454
 21
-39.916488
 31
0.0
  0
LINE
  5
118
100
AcDbEntity
  8
KONTUR
100
AcDbLine
 10
-77.0128
 20
-37.092008
 30
0.0
 11
-78.23454
 21
-37.092008
 31
0.0
  0
LINE
  5
119
100
AcDbEntity
  8
KONTUR
100
AcDbLine
 10
-78.23454
 20
-39.916488
 30
0.0
 11
-77.0128
 21
-39.916488
 31
0.0
  0
LINE
  5
11A
100
AcDbEntity
  8
KONTUR
100
AcDbLine
 10
-2.032
 20
-34.440192
 30
0.0
 11
-2.032
 21
-53.998192
 31
0.0
  0
LINE
  5
11B
100
AcDbEntity
  8
KONTUR
100
AcDbLine
 10
-65.151
 20
-53.998192
 30
0.0
 11
-65.151
 21
-48.348079
 31
0.0
  0
LINE
  5
11C
100
AcDbEntity
  8
KONTUR
100
AcDbLine
 10
-54.356
 20
-48.348079
 30
0.0
 11
-65.151
 21
-48.348079
 31
0.0
  0
LINE
  5
11D
100
AcDbEntity
  8
KONTUR
100
AcDbLine
 10
-54.356
 20
-48.348079
 30
0.0
 11
-54.356
 21
-40.090305
 31
0.0
  0
LINE
  5
11E
100
AcDbEntity
  8
KONTUR
100
AcDbLine
 10
-54.356
 20
-40.090305
 30
0.0
 11
-65.151
 21
-40.090305
 31
0.0
  0
LINE
  5
11F
100
AcDbEntity
  8
KONTUR
100
AcDbLine
 10
-65.151
 20
-40.090305
 30
0.0
 11
-65.151
 21
-34.440192
 31
0.0
  0
LINE
  5
120
100
AcDbEntity
  8
KONTUR
100
AcDbLine
 10
-0.508
 20
-35.964192
 30
0.0
 11
-0.508
 21
-52.474192
 31
0.0
  0
LWPOLYLINE
  5
121
100
AcDbEntity
  8
KONTUR
100
AcDbPolyline
 90
        7
 70
   128
 43
0.0
 10
-65.151
 20
-48.348079
 10
-65.594141
 20
-47.147866
 10
-65.923588
 20
-45.804209
 10
-66.062915
 20
-44.429123
 10
-65.944359
 20
-42.766191
 10
-65.547265
 20
-41.14436
 10
-65.151
 20
-40.090305
  0
LINE
  5
12A
100
AcDbEntity
  8
KONTUR
100
AcDbLine
 10
-67.056
 20
-44.219192
 30
0.0
 11
-67.056
 21
-36.345192
 31
0.0
  0
LINE
  5
12B
100
AcDbEntity
  8
KONTUR
100
AcDbLine
 10
-67.056
 20
-52.093192
 30
0.0
 11
-67.056
 21
-44.219192
 31
0.0
  0
LINE
  5
12C
100
AcDbEntity
  8
KONTUR
100
AcDbLine
 10
0.0
 20
-35.964192
 30
0.0
 11
0.0
 21
-52.474192
 31
0.0
  0
LINE
  5
12D
100
AcDbEntity
  8
KONTUR
100
AcDbLine
 10
-69.088
 20
-44.219192
 30
0.0
 11
-69.088
 21
-36.027692
 31
0.0
  0
LINE
  5
12E
100
AcDbEntity
  8
KONTUR
100
AcDbLine
 10
-69.088
 20
-52.410692
 30
0.0
 11
-69.088
 21
-44.219192
 31
0.0
  0
LINE
  5
12F
100
AcDbEntity
  8
KONTUR
100
AcDbLine
 10
-70.358
 20
-44.219192
 30
0.0
 11
-70.358
 21
-36.027692
 31
0.0
  0
LINE
  5
130
100
AcDbEntity
  8
KONTUR
100
AcDbLine
 10
-70.358
 20
-52.410692
 30
0.0
 11
-70.358
 21
-44.219192
 31
0.0
  0
LINE
  5
131
100
AcDbEntity
  8
KONTUR
100
AcDbLine
 10
14.4526
 20
-42.605022
 30
0.0
 11
14.4526
 21
-45.833362
 31
0.0
  0
LINE
  5
132
100
AcDbEntity
  8
KONTUR
100
AcDbLine
 10
-72.263
 20
-36.091192
 30
0.0
 11
-72.263
 21
-52.347192
 31
0.0
  0
LINE
  5
133
100
AcDbEntity
  8
KONTUR
100
AcDbLine
 10
-76.5048
 20
-36.341096
 30
0.0
 11
-76.5048
 21
-52.097287
 31
0.0
  0
LINE
  5
134
100
AcDbEntity
  8
KONTUR
100
AcDbLine
 10
-75.438
 20
-36.341096
 30
0.0
 11
-76.5048
 21
-36.341096
 31
0.0
  0
LINE
  5
135
100
AcDbEntity
  8
KONTUR
100
AcDbLine
 10
-75.438
 20
-36.341096
 30
0.0
 11
-75.438
 21
-36.218192
 31
0.0
  0
LINE
  5
136
100
AcDbEntity
  8
KONTUR
100
AcDbLine
 10
-75.438
 20
-52.220192
 30
0.0
 11
-75.438
 21
-52.097287
 31
0.0
  0
LINE
  5
137
100
AcDbEntity
  8
KONTUR
100
AcDbLine
 10
-75.438
 20
-52.097287
 30
0.0
 11
-76.5048
 21
-52.097287
 31
0.0
  0
LWPOLYLINE
  5
138
100
AcDbEntity
  8
KONTUR
100
AcDbPolyline
 90
       21
 70
   128
 43
0.0
 10
-76.120057
 20
-44.219192
 10
-76.004841
 20
-43.603901
 10
-75.659856
 20
-43.084831
 10
-75.151811
 20
-42.73212
 10
-74.862522
 20
-42.644326
 10
-74.549724
 20
-42.615034
 10
-74.237053
 20
-42.644137
 10
-73.947644
 20
-42.731789
 10
-73.438607
 20
-43.084358
 10
-73.093261
 20
-43.603003
 10
-72.977943
 20
-44.219156
 10
-73.092865
 20
-44.834571
 10
-73.438235
 20
-45.353645
 10
-73.946848
 20
-45.706129
 10
-74.236562
 20
-45.793945
 10
-74.549881
 20
-45.82335
 10
-74.862001
 20
-45.794343
 10
-75.151013
 20
-45.706669
 10
-75.659714
 20
-45.353698
 10
-76.005136
 20
-44.834627
 10
-76.120057
 20
-44.219192
  0
LWPOLYLINE
  5
14F
100
AcDbEntity
  8
KONTUR
100
AcDbPolyline
 90
       25
 70
   128
 43
0.0
 10
-75.9714
 20
-44.219192
 10
-75.887564
 20
-44.700304
 10
-75.759116
 20
-44.966748
 10
-75.554615
 20
-45.225154
 10
-75.294111
 20
-45.430815
 10
-75.026862
 20
-45.558919
 10
-74.549797
 20
-45.641591
 10
-74.072104
 20
-45.559263
 10
-73.804353
 20
-45.4311
 10
-73.543338
 20
-45.225107
 10
-73.338727
 20
-44.966495
 10
-73.210311
 20
-44.699957
 10
-73.1266
 20
-44.21916
 10
-73.210284
 20
-43.738503
 10
-73.338786
 20
-43.471794
 10
-73.543675
 20
-43.21294
 10
-73.804355
 20
-43.007282
 10
-74.071861
 20
-42.879207
 10
-74.549656
 20
-42.796792
 10
-75.026528
 20
-42.879345
 10
-75.293958
 20
-43.007474
 10
-75.554745
 20
-43.213359
 10
-75.75924
 20
-43.471835
 10
-75.887639
 20
-43.738289
 10
-75.9714
 20
-44.219192
  0
LINE
  5
16A
100
AcDbEntity
  8
KONTUR
100
AcDbLine
 10
-77.0128
 20
-51.580811
 30
0.0
 11
-77.0128
 21
-36.857572
 31
0.0
  0
LINE
  5
16B
100
AcDbEntity
  8
KONTUR
100
AcDbLine
 10
-77.0128
 20
-36.857572
 30
0.0
 11
-76.5048
 21
-36.341096
 31
0.0
  0
LINE
  5
16C
100
AcDbEntity
  8
KONTUR
100
AcDbLine
 10
-76.5048
 20
-52.097287
 30
0.0
 11
-77.0128
 21
-51.580811
 31
0.0
  0
LINE
  5
16D
100
AcDbEntity
  8
KONTUR
100
AcDbLine
 10
-83.8508
 20
-36.218192
 30
0.0
 11
-83.8508
 21
-52.220192
 31
0.0
  0
LINE
  5
16E
100
AcDbEntity
  8
KONTUR
100
AcDbLine
 10
-84.3588
 20
-51.712192
 30
0.0
 11
-84.3588
 21
-36.726192
 31
0.0
  0
LINE
  5
16F
100
AcDbEntity
  8
KONTUR
100
AcDbLine
 10
-78.7708
 20
-44.183632
 30
0.0
 11
-78.7708
 21
-36.218192
 31
0.0
  0
LINE
  5
170
100
AcDbEntity
  8
KONTUR
100
AcDbLine
 10
-78.7708
 20
-52.220192
 30
0.0
 11
-78.7708
 21
-44.183632
 31
0.0
  0
LINE
  5
171
100
AcDbEntity
  8
KONTUR
100
AcDbLine
 10
-78.2628
 20
-44.185889
 30
0.0
 11
-78.2628
 21
-51.712192
 31
0.0
  0
LINE
  5
172
100
AcDbEntity
  8
KONTUR
100
AcDbLine
 10
-78.2628
 20
-36.726192
 30
0.0
 11
-78.2628
 21
-44.185889
 31
0.0
  0
LINE
  5
173
100
AcDbEntity
  8
KONTUR
100
AcDbLine
 10
-78.23454
 20
-37.092008
 30
0.0
 11
-78.23454
 21
-39.916488
 31
0.0
  0
LINE
  5
174
100
AcDbEntity
  8
KONTUR
100
AcDbLine
 10
13.6906
 20
-46.595362
 30
0.0
 11
13.6906
 21
-41.843022
 31
0.0
  0
LINE
  5
175
100
AcDbEntity
  8
KONTUR
100
AcDbLine
 10
-77.6278
 20
-41.729992
 30
0.0
 11
-77.6278
 21
-46.708392
 31
0.0
  0
CIRCLE
  5
176
100
AcDbEntity
  8
KONTUR
100
AcDbCircle
 10
78.047057
 20
-44.219192
 30
0.0
 40
8.1915
  0
LINE
  5
177
100
AcDbEntity
  8
KONTUR
100
AcDbLine
 10
86.911657
 20
-48.348079
 30
0.0
 11
86.911657
 21
-40.090305
 31
0.0
  0
ARC
  5
178
100
AcDbEntity
  8
KONTUR
100
AcDbCircle
 10
78.047057
 20
-44.219192
 30
0.0
 40
9.779
100
AcDbArc
 50
204.97481
 51
335.02519
  0
LINE
  5
179
100
AcDbEntity
  8
KONTUR
100
AcDbLine
 10
69.182457
 20
-40.090305
 30
0.0
 11
69.182457
 21
-48.348079
 31
0.0
  0
ARC
  5
17A
100
AcDbEntity
  8
KONTUR
100
AcDbCircle
 10
78.047057
 20
-44.219192
 30
0.0
 40
9.779
100
AcDbArc
 50
24.97481
 51
155.02519
  0
ARC
  5
17B
100
AcDbEntity
  8
KONTUR
100
AcDbCircle
 10
78.047057
 20
-44.219192
 30
0.0
 40
9.779
100
AcDbArc
 50
155.02519
 51
204.97481
  0
ARC
  5
17C
100
AcDbEntity
  8
KONTUR
100
AcDbCircle
 10
78.047057
 20
-44.219192
 30
0.0
 40
9.779
100
AcDbArc
 50
335.02519
 51
24.97481
  0
CIRCLE
  5
17D
100
AcDbEntity
  8
KONTUR
100
AcDbCircle
 10
78.047057
 20
-44.219192
 30
0.0
 40
8.128
  0
CIRCLE
  5
17E
100
AcDbEntity
  8
KONTUR
100
AcDbCircle
 10
78.047057
 20
-44.219192
 30
0.0
 40
8.001
  0
CIRCLE
  5
17F
100
AcDbEntity
  8
KONTUR
100
AcDbCircle
 10
78.047057
 20
-44.219192
 30
0.0
 40
7.493
  0
CIRCLE
  5
180
100
AcDbEntity
  8
KONTUR
100
AcDbCircle
 10
78.021657
 20
-38.504248
 30
0.0
 40
1.651
  0
CIRCLE
  5
181
100
AcDbEntity
  8
KONTUR
100
AcDbCircle
 10
78.021657
 20
-38.504248
 30
0.0
 40
1.4224
  0
CIRCLE
  5
182
100
AcDbEntity
  8
KONTUR
100
AcDbCircle
 10
78.021657
 20
-38.504248
 30
0.0
 40
1.03378
  0
CIRCLE
  5
183
100
AcDbEntity
  8
KONTUR
100
AcDbCircle
 10
78.021657
 20
-38.504248
 30
0.0
 40
1.41224
  0
LINE
  5
28B
100
AcDbEntity
  8
SYMMETRIE
100
AcDbLine
 10
93.047057
 20
-44.219192
 30
0.0
 11
78.047057
 21
-44.219192
 31
0.0
  0
LINE
  5
28F
100
AcDbEntity
  8
SYMMETRIE
100
AcDbLine
 10
78.047057
 20
-29.219192
 30
0.0
 11
78.047057
 21
-44.219192
 31
0.0
  0
LINE
  5
290
100
AcDbEntity
  8
SYMMETRIE
100
AcDbLine
 10
63.047057
 20
-44.219192
 30
0.0
 11
78.047057
 21
-44.219192
 31
0.0
  0
LINE
  5
291
100
AcDbEntity
  8
SYMMETRIE
100
AcDbLine
 10
78.047057
 20
-59.219192
 30
0.0
 11
78.047057
 21
-44.219192
 31
0.0
  0
LINE
  5
292
100
AcDbEntity
  8
SYMMETRIE
100
AcDbLine
 10
78.047057
 20
-15.0
 30
0.0
 11
78.047057
 21
0.0
 31
0.0
  0
LINE
  5
293
100
AcDbEntity
  8
SYMMETRIE
100
AcDbLine
 10
63.047057
 20
0.0
 30
0.0
 11
78.047057
 21
0.0
 31
0.0
  0
LINE
  5
294
100
AcDbEntity
  8
SYMMETRIE
100
AcDbLine
 10
78.047057
 20
15.0
 30
0.0
 11
78.047057
 21
0.0
 31
0.0
  0
LINE
  5
29A
100
AcDbEntity
  8
SYMMETRIE
100
AcDbLine
 10
93.047057
 20
0.0
 30
0.0
 11
78.047057
 21
0.0
 31
0.0
  0
INSERT
  5
29B
100
AcDbEntity
  8
KONTUR
100
AcDbBlockReference
 66
     1
  2
MONO
 10
-36.70683
 20
-44.145739
 30
0.0
 41
0.6
 42
0.6
 43
0.6
  0
ATTRIB
  5
29C
100
AcDbEntity
  8
UMRISS05
100
AcDbText
 10
-41.349687
 20
-48.345739
 30
0.0
 40
1.5
  1
OEM .5M
  7
NORM
 72
     1
 11
-36.70683
 21
-48.345739
 31
0.0
100
AcDbAttribute
  2
BEZEI
 70
     4
  0
SEQEND
  5
29D
100
AcDbEntity
  8
KONTUR
  0
INSERT
  5
2E7
100
AcDbEntity
  8
KONTUR
100
AcDbBlockReference
 66
     1
  2
MONO
 10
-36.70683
 20
0.073453
 30
0.0
 41
0.6
 42
0.6
 43
0.6
  0
ATTRIB
  5
2E8
100
AcDbEntity
  8
UMRISS05
100
AcDbText
 10
-42.135402
 20
-4.126547
 30
0.0
 40
1.5
  1
OEM .5MB
  7
NORM
 72
     1
 11
-36.70683
 21
-4.126547
 31
0.0
100
AcDbAttribute
  2
BEZEI
 70
     4
  0
SEQEND
  5
2E9
100
AcDbEntity
  8
KONTUR
  0
LINE
  5
31F
100
AcDbEntity
  8
SYMMETRIE
100
AcDbLine
 10
18.192793
 20
6.2
 30
0.0
 11
18.192793
 21
0.0
 31
0.0
  0
ARC
  5
320
100
AcDbEntity
  8
VERBORGEN
100
AcDbCircle
 10
19.992793
 20
1.68
 30
0.0
 40
0.7
100
AcDbArc
 50
0.0
 51
90.0
  0
CIRCLE
  5
321
100
AcDbEntity
  8
VERBORGEN
100
AcDbCircle
 10
18.192793
 20
0.0
 30
0.0
 40
1.2
  0
LINE
  5
322
100
AcDbEntity
  8
VERBORGEN
100
AcDbLine
 10
19.992793
 20
2.38
 30
0.0
 11
14.392793
 21
2.38
 31
0.0
  0
LINE
  5
323
100
AcDbEntity
  8
SYMMETRIE
100
AcDbLine
 10
18.192793
 20
-6.2
 30
0.0
 11
18.192793
 21
0.0
 31
0.0
  0
LINE
  5
324
100
AcDbEntity
  8
VERBORGEN
100
AcDbLine
 10
19.992793
 20
-2.38
 30
0.0
 11
14.392793
 21
-2.38
 31
0.0
  0
ARC
  5
325
100
AcDbEntity
  8
VERBORGEN
100
AcDbCircle
 10
19.992793
 20
-1.68
 30
0.0
 40
0.7
100
AcDbArc
 50
270.0
 51
0.0
  0
LINE
  5
326
100
AcDbEntity
  8
VERBORGEN
100
AcDbLine
 10
20.692793
 20
-1.68
 30
0.0
 11
20.692793
 21
1.68
 31
0.0
  0
LINE
  5
327
100
AcDbEntity
  8
GEWINDE
100
AcDbLine
 10
-1.333
 20
-35.139192
 30
0.0
 11
-65.85
 21
-35.139192
 31
0.0
  0
LINE
  5
328
100
AcDbEntity
  8
GEWINDE
100
AcDbLine
 10
-1.333
 20
-53.299192
 30
0.0
 11
-65.85
 21
-53.299192
 31
0.0
  0
LINE
  5
329
100
AcDbEntity
  8
SYMMETRIE
100
AcDbLine
 10
19.5
 20
-44.219192
 30
0.0
 11
-89.107207
 21
-44.219192
 31
0.0
  0
LINE
  5
32A
100
AcDbEntity
  8
SYMMETRIE
100
AcDbLine
 10
31.392793
 20
0.0
 30
0.0
 11
-89.107207
 21
0.0
 31
0.0
  0
ARC
  5
32B
100
AcDbEntity
  8
GEWINDE
100
AcDbCircle
 10
78.047057
 20
-44.219192
 30
0.0
 40
9.08
100
AcDbArc
 50
75.0
 51
345.0
  0
VIEWPORT
  5
332
100
AcDbEntity
 67
     1
  8
0
  6
CONTINUOUS
100
AcDbViewport
 10
6.206522
 20
4.5
 30
0.0
 40
12.413043
 41
9.0
 68
    -1
 69
     1
1001
ACAD
1000
MVIEW
1002
{
1070
    16
1010
0.0
1020
0.0
1030
0.0
1010
0.0
1020
0.0
1030
1.0
1040
0.0
1040
9.0
1040
6.206522
1040
4.5
1040
50.0
1040
0.0
1040
0.0
1070
     0
1070
  2000
1070
     1
1070
     1
1070
     0
1070
     0
1070
     0
1070
     0
1040
0.0
1040
0.0
1040
0.0
1040
1.0
1040
1.0
1040
0.0
1040
0.0
1070
     0
1002
{
1002
}
1002
}
  0
ENDSEC
  0
SECTION
  2
OBJECTS
  0
DICTIONARY
  5
19
100
AcDbDictionary
  3
ACAD_GROUP
350
1A
  3
ACAD_MLINESTYLE
350
1B
  0
DICTIONARY
  5
1A
102
{ACAD_REACTORS
330
19
102
}
100
AcDbDictionary
  0
DICTIONARY
  5
1B
102
{ACAD_REACTORS
330
19
102
}
100
AcDbDictionary
  3
STANDARD
350
1C
  0
MLINESTYLE
  5
1C
102
{ACAD_REACTORS
330
1B
102
}
100
AcDbMlineStyle
  2
STANDARD
 70
     0
  3

 62
     0
 51
90.0
 52
90.0
 71
     2
 49
0.5
 62
   256
  6
BYLAYER
 49
-0.5
 62
   256
  6
BYLAYER
  0
ENDSEC
  0
EOF
