  0
SECTION
  2
HEADER
  9
$ACADVER
  1
AC1014
  9
$ACADMAINTVER
 70
     9
  9
$DWGCODEPAGE
  3
ANSI_1252
  9
$INSBASE
 10
0.0
 20
0.0
 30
0.0
  9
$EXTMIN
 10
-109.880912
 20
-102.997161
 30
0.0
  9
$EXTMAX
 10
137.28864
 20
17.109306
 30
0.0
  9
$LIMMIN
 10
0.0
 20
0.0
  9
$LIMMAX
 10
410.0
 20
287.0
  9
$ORTHOMODE
 70
     1
  9
$REGENMODE
 70
     1
  9
$FILLMODE
 70
     1
  9
$QTEXTMODE
 70
     0
  9
$MIRRTEXT
 70
     0
  9
$DRAGMODE
 70
     2
  9
$LTSCALE
 40
20.0
  9
$OSMODE
 70
     0
  9
$ATTMODE
 70
     1
  9
$TEXTSIZE
 40
5.0
  9
$TRACEWID
 40
1.0
  9
$TEXTSTYLE
  7
PASSDIN
  9
$CLAYER
  8
UMRISS05
  9
$CELTYPE
  6
BYLAYER
  9
$CECOLOR
 62
   256
  9
$CELTSCALE
 40
1.0
  9
$DELOBJ
 70
     1
  9
$DISPSILH
 70
     0
  9
$DIMSCALE
 40
1.0
  9
$DIMASZ
 40
3.5
  9
$DIMEXO
 40
0.1
  9
$DIMDLI
 40
7.0
  9
$DIMRND
 40
0.0
  9
$DIMDLE
 40
0.0
  9
$DIMEXE
 40
1.8
  9
$DIMTP
 40
0.0
  9
$DIMTM
 40
0.0
  9
$DIMTXT
 40
3.5
  9
$DIMCEN
 40
1.5
  9
$DIMTSZ
 40
0.0
  9
$DIMTOL
 70
     0
  9
$DIMLIM
 70
     0
  9
$DIMTIH
 70
     0
  9
$DIMTOH
 70
     0
  9
$DIMSE1
 70
     0
  9
$DIMSE2
 70
     0
  9
$DIMTAD
 70
     0
  9
$DIMZIN
 70
     0
  9
$DIMBLK
  1

  9
$DIMASO
 70
     1
  9
$DIMSHO
 70
     0
  9
$DIMPOST
  1

  9
$DIMAPOST
  1

  9
$DIMALT
 70
     0
  9
$DIMALTD
 70
     2
  9
$DIMALTF
 40
25.4
  9
$DIMLFAC
 40
1.0
  9
$DIMTOFL
 70
     0
  9
$DIMTVP
 40
0.0
  9
$DIMTIX
 70
     0
  9
$DIMSOXD
 70
     0
  9
$DIMSAH
 70
     0
  9
$DIMBLK1
  1

  9
$DIMBLK2
  1

  9
$DIMSTYLE
  2
STANDARD
  9
$DIMCLRD
 70
     0
  9
$DIMCLRE
 70
     0
  9
$DIMCLRT
 70
     0
  9
$DIMTFAC
 40
1.0
  9
$DIMGAP
 40
0.09
  9
$DIMJUST
 70
     0
  9
$DIMSD1
 70
     0
  9
$DIMSD2
 70
     0
  9
$DIMTOLJ
 70
     1
  9
$DIMTZIN
 70
     0
  9
$DIMALTZ
 70
     0
  9
$DIMALTTZ
 70
     0
  9
$DIMFIT
 70
     5
  9
$DIMUPT
 70
     0
  9
$DIMUNIT
 70
     2
  9
$DIMDEC
 70
     2
  9
$DIMTDEC
 70
     2
  9
$DIMALTU
 70
     2
  9
$DIMALTTD
 70
     2
  9
$DIMTXSTY
  7
PASSDIN
  9
$DIMAUNIT
 70
     0
  9
$LUNITS
 70
     2
  9
$LUPREC
 70
     2
  9
$SKETCHINC
 40
1.0
  9
$FILLETRAD
 40
0.8
  9
$AUNITS
 70
     0
  9
$AUPREC
 70
     0
  9
$MENU
  1
C:\ACA_CMEN\CADIM
  9
$ELEVATION
 40
0.0
  9
$PELEVATION
 40
0.0
  9
$THICKNESS
 40
0.0
  9
$LIMCHECK
 70
     0
  9
$BLIPMODE
 70
     1
  9
$CHAMFERA
 40
0.8
  9
$CHAMFERB
 40
0.8
  9
$CHAMFERC
 40
0.0
  9
$CHAMFERD
 40
0.0
  9
$SKPOLY
 70
     0
  9
$TDCREATE
 40
2448813.397927546
  9
$TDUPDATE
 40
2450851.678845717
  9
$TDINDWG
 40
0.0275228009
  9
$TDUSRTIMER
 40
0.0275228009
  9
$USRTIMER
 70
     1
  9
$ANGBASE
 50
0.0
  9
$ANGDIR
 70
     0
  9
$PDMODE
 70
     0
  9
$PDSIZE
 40
0.0
  9
$PLINEWID
 40
0.0
  9
$COORDS
 70
     2
  9
$SPLFRAME
 70
     0
  9
$SPLINETYPE
 70
     6
  9
$SPLINESEGS
 70
     8
  9
$ATTDIA
 70
     0
  9
$ATTREQ
 70
     1
  9
$HANDLING
 70
     1
  9
$HANDSEED
  5
A764
  9
$SURFTAB1
 70
     6
  9
$SURFTAB2
 70
     6
  9
$SURFTYPE
 70
     6
  9
$SURFU
 70
     6
  9
$SURFV
 70
     6
  9
$UCSNAME
  2
KCSM_UCS
  9
$UCSORG
 10
0.0
 20
0.0
 30
0.0
  9
$UCSXDIR
 10
1.0
 20
0.0
 30
0.0
  9
$UCSYDIR
 10
0.0
 20
1.0
 30
0.0
  9
$PUCSNAME
  2

  9
$PUCSORG
 10
0.0
 20
0.0
 30
0.0
  9
$PUCSXDIR
 10
1.0
 20
0.0
 30
0.0
  9
$PUCSYDIR
 10
0.0
 20
1.0
 30
0.0
  9
$USERI1
 70
     0
  9
$USERI2
 70
     0
  9
$USERI3
 70
     0
  9
$USERI4
 70
     0
  9
$USERI5
 70
     0
  9
$USERR1
 40
0.0
  9
$USERR2
 40
0.0
  9
$USERR3
 40
0.0
  9
$USERR4
 40
0.0
  9
$USERR5
 40
0.0
  9
$WORLDVIEW
 70
     1
  9
$SHADEDGE
 70
     3
  9
$SHADEDIF
 70
    70
  9
$TILEMODE
 70
     1
  9
$MAXACTVP
 70
    16
  9
$PINSBASE
 10
0.0
 20
0.0
 30
0.0
  9
$PLIMCHECK
 70
     0
  9
$PEXTMIN
 10
1.000000E+20
 20
1.000000E+20
 30
1.000000E+20
  9
$PEXTMAX
 10
-1.000000E+20
 20
-1.000000E+20
 30
-1.000000E+20
  9
$PLIMMIN
 10
0.0
 20
0.0
  9
$PLIMMAX
 10
12.0
 20
9.0
  9
$UNITMODE
 70
     0
  9
$VISRETAIN
 70
     0
  9
$PLINEGEN
 70
     0
  9
$PSLTSCALE
 70
     0
  9
$TREEDEPTH
 70
  3020
  9
$PICKSTYLE
 70
     1
  9
$CMLSTYLE
  2
STANDARD
  9
$CMLJUST
 70
     0
  9
$CMLSCALE
 40
1.0
  9
$PROXYGRAPHICS
 70
     1
  9
$MEASUREMENT
 70
     0
  0
ENDSEC
  0
SECTION
  2
CLASSES
  0
CLASS
  1
DICTIONARYVAR
  2
AcDbDictionaryVar
  3
"AutoCAD"
 90
        0
280
     0
281
     0
  0
ENDSEC
  0
SECTION
  2
TABLES
  0
TABLE
  2
VPORT
  5
A708
100
AcDbSymbolTable
 70
     2
  0
VPORT
  5
A763
100
AcDbSymbolTableRecord
100
AcDbViewportTableRecord
  2
*ACTIVE
 70
     0
 10
0.0
 20
0.0
 11
1.0
 21
1.0
 12
13.703864
 22
-42.943928
 13
0.0
 23
0.0
 14
1.0
 24
1.0
 15
10.0
 25
10.0
 16
0.0
 26
0.0
 36
1.0
 17
0.0
 27
0.0
 37
0.0
 40
200.165737
 41
1.379227
 42
50.0
 43
0.0
 44
0.0
 50
0.0
 51
0.0
 71
     0
 72
   100
 73
     1
 74
     1
 75
     0
 76
     0
 77
     0
 78
     0
  0
ENDTAB
  0
TABLE
  2
LTYPE
  5
A705
100
AcDbSymbolTable
 70
     4
  0
LTYPE
  5
A711
100
AcDbSymbolTableRecord
100
AcDbLinetypeTableRecord
  2
BYBLOCK
 70
     0
  3

 72
    65
 73
     0
 40
0.0
  0
LTYPE
  5
A712
100
AcDbSymbolTableRecord
100
AcDbLinetypeTableRecord
  2
BYLAYER
 70
     0
  3

 72
    65
 73
     0
 40
0.0
  0
LTYPE
  5
A713
100
AcDbSymbolTableRecord
100
AcDbLinetypeTableRecord
  2
CONTINUOUS
 70
     0
  3
Ausgezogene Linie
 72
    65
 73
     0
 40
0.0
  0
LTYPE
  5
A723
100
AcDbSymbolTableRecord
100
AcDbLinetypeTableRecord
  2
STRICHPUNKT
 70
     0
  3
__ . __ . __ . __ . __ . __ . __ . __ . __ . __
 72
    65
 73
     4
 40
1.0
 49
0.5
 74
     0
 49
-0.25
 74
     0
 49
0.0
 74
     0
 49
-0.25
 74
     0
  0
LTYPE
  5
A724
100
AcDbSymbolTableRecord
100
AcDbLinetypeTableRecord
  2
SOLID
 70
     0
  3
SOLID
 72
    65
 73
     0
 40
0.0
  0
LTYPE
  5
A752
100
AcDbSymbolTableRecord
100
AcDbLinetypeTableRecord
  2
VERDECKT
 70
     0
  3
Verdeckt __ __ __ __ __ __ __ __ __ __ __ __ __
 72
    65
 73
     2
 40
0.375
 49
0.25
 74
     0
 49
-0.125
 74
     0
  0
ENDTAB
  0
TABLE
  2
LAYER
  5
A702
100
AcDbSymbolTable
 70
    11
  0
LAYER
  5
A70E
100
AcDbSymbolTableRecord
100
AcDbLayerTableRecord
  2
0
 70
     0
 62
     7
  6
CONTINUOUS
  0
LAYER
  5
A72A
100
AcDbSymbolTableRecord
100
AcDbLayerTableRecord
  2
KONTUR
 70
     0
 62
     7
  6
CONTINUOUS
  0
LAYER
  5
A72B
100
AcDbSymbolTableRecord
100
AcDbLayerTableRecord
  2
SYMMETRIE
 70
     0
 62
     4
  6
STRICHPUNKT
  0
LAYER
  5
A72C
100
AcDbSymbolTableRecord
100
AcDbLayerTableRecord
  2
GEWINDE
 70
     0
 62
     1
  6
CONTINUOUS
  0
LAYER
  5
A72E
100
AcDbSymbolTableRecord
100
AcDbLayerTableRecord
  2
UMRISS05
 70
     0
 62
     3
  6
CONTINUOUS
  0
LAYER
  5
A72F
100
AcDbSymbolTableRecord
100
AcDbLayerTableRecord
  2
UMRISS07
 70
     0
 62
     6
  6
CONTINUOUS
  0
LAYER
  5
A730
100
AcDbSymbolTableRecord
100
AcDbLayerTableRecord
  2
UMRISS035
 70
     0
 62
     2
  6
CONTINUOUS
  0
LAYER
  5
A731
100
AcDbSymbolTableRecord
100
AcDbLayerTableRecord
  2
UMRISS025
 70
     0
 62
     1
  6
CONTINUOUS
  0
LAYER
  5
A732
100
AcDbSymbolTableRecord
100
AcDbLayerTableRecord
  2
TEXT025
 70
     0
 62
     1
  6
CONTINUOUS
  0
LAYER
  5
A733
100
AcDbSymbolTableRecord
100
AcDbLayerTableRecord
  2
40
 70
     0
 62
     7
  6
SOLID
  0
LAYER
  5
A753
100
AcDbSymbolTableRecord
100
AcDbLayerTableRecord
  2
VERBORGEN
 70
     0
 62
     3
  6
VERDECKT
  0
ENDTAB
  0
TABLE
  2
STYLE
  5
A703
100
AcDbSymbolTable
 70
     4
  0
STYLE
  5
A70F
100
AcDbSymbolTableRecord
100
AcDbTextStyleTableRecord
  2
STANDARD
 70
     0
 40
0.0
 41
1.0
 50
0.0
 71
     0
 42
3.5
  3
txt8
  4

  0
STYLE
  5
A720
100
AcDbSymbolTableRecord
100
AcDbTextStyleTableRecord
  2
NORM
 70
     0
 40
0.0
 41
1.0
 50
0.0
 71
     0
 42
2.5
  3
SIMPLEX
  4

  0
STYLE
  5
A721
100
AcDbSymbolTableRecord
100
AcDbTextStyleTableRecord
  2
ISO
 70
     0
 40
0.0
 41
1.0
 50
0.0
 71
     0
 42
3.5
  3
iso8
  4

  0
STYLE
  5
A722
100
AcDbSymbolTableRecord
100
AcDbTextStyleTableRecord
  2
PASSDIN
 70
     0
 40
0.0
 41
1.0
 50
0.0
 71
     0
 42
5.0
  3
DINMONOB
  4

  0
ENDTAB
  0
TABLE
  2
VIEW
  5
A706
100
AcDbSymbolTable
 70
     0
  0
ENDTAB
  0
TABLE
  2
UCS
  5
A707
100
AcDbSymbolTable
 70
     1
  0
UCS
  5
A73F
100
AcDbSymbolTableRecord
100
AcDbUCSTableRecord
  2
KCSM_UCS
 70
     0
 10
0.0
 20
0.0
 30
0.0
 11
1.0
 21
0.0
 31
0.0
 12
0.0
 22
1.0
 32
0.0
  0
ENDTAB
  0
TABLE
  2
APPID
  5
A709
100
AcDbSymbolTable
 70
     3
  0
APPID
  5
A710
100
AcDbSymbolTableRecord
100
AcDbRegAppTableRecord
  2
ACAD
 70
     0
  0
APPID
  5
A727
100
AcDbSymbolTableRecord
100
AcDbRegAppTableRecord
  2
ACA_CADIMENU
 70
     0
  0
APPID
  5
A729
100
AcDbSymbolTableRecord
100
AcDbRegAppTableRecord
  2
AMM_ACADM
 70
     0
  0
ENDTAB
  0
TABLE
  2
DIMSTYLE
  5
A70A
100
AcDbSymbolTable
 70
     1
  0
DIMSTYLE
105
A73D
100
AcDbSymbolTableRecord
100
AcDbDimStyleTableRecord
  2
STANDARD
 70
     0
  3

  4

  5

  6

  7

 40
1.0
 41
0.18
 42
0.0625
 43
0.38
 44
0.18
 45
0.0
 46
0.0
 47
0.0
 48
0.0
140
0.18
141
0.09
142
0.0
143
25.4
144
1.0
145
0.0
146
1.0
147
0.09
 71
     0
 72
     0
 73
     1
 74
     1
 75
     0
 76
     0
 77
     0
 78
     0
170
     0
171
     2
172
     0
173
     0
174
     0
175
     0
176
     0
177
     0
178
     0
270
     2
271
     4
272
     4
273
     2
274
     2
340
A70F
275
     0
280
     0
281
     0
282
     0
283
     1
284
     0
285
     0
286
     0
287
     3
288
     0
  0
ENDTAB
  0
TABLE
  2
BLOCK_RECORD
  5
A701
100
AcDbSymbolTable
 70
     2
  0
BLOCK_RECORD
  5
A717
100
AcDbSymbolTableRecord
100
AcDbBlockTableRecord
  2
*MODEL_SPACE
  0
BLOCK_RECORD
  5
A714
100
AcDbSymbolTableRecord
100
AcDbBlockTableRecord
  2
*PAPER_SPACE
  0
BLOCK_RECORD
  5
A71E
100
AcDbSymbolTableRecord
100
AcDbBlockTableRecord
  2
MONO
  0
BLOCK_RECORD
  5
A71F
100
AcDbSymbolTableRecord
100
AcDbBlockTableRecord
  2
*B1
  0
ENDTAB
  0
ENDSEC
  0
SECTION
  2
BLOCKS
  0
BLOCK
  5
A736
100
AcDbEntity
  8
0
100
AcDbBlockBegin
  2
*MODEL_SPACE
 70
     0
 10
0.0
 20
0.0
 30
0.0
  3
*MODEL_SPACE
  1

  0
ENDBLK
  5
A737
100
AcDbEntity
  8
0
100
AcDbBlockEnd
  0
BLOCK
  5
A734
100
AcDbEntity
 67
     1
  8
0
100
AcDbBlockBegin
  2
*PAPER_SPACE
 70
     0
 10
0.0
 20
0.0
 30
0.0
  3
*PAPER_SPACE
  1

  0
ENDBLK
  5
A735
100
AcDbEntity
 67
     1
  8
0
100
AcDbBlockEnd
  0
BLOCK
  5
9E
100
AcDbEntity
  8
0
100
AcDbBlockBegin
  2
MONO
 70
     2
 10
0.0
 20
0.0
 30
0.0
  3
MONO
  1

  0
ATTDEF
  5
9F
100
AcDbEntity
  8
UMRISS05
100
AcDbText
 10
0.0
 20
-7.0
 30
0.0
 40
2.5
  1

  7
NORM
 72
     1
 11
0.0
 21
-7.0
 31
0.0
100
AcDbAttributeDefinition
  3

  2
BEZEI
 70
     4
  0
TEXT
  5
A0
100
AcDbEntity
  8
TEXT025
100
AcDbText
 10
-24.5
 20
-3.5
 30
0.0
 40
2.536044
  1
STOSSDŽMPFER FšR DIE INDUSTRIE
  7
ISO
 72
     3
 11
24.5
 21
-3.5
 31
0.0
100
AcDbText
  0
TEXT
  5
A1
100
AcDbEntity
  8
TEXT025
100
AcDbText
 10
22.357607
 20
1.08583
 30
0.0
 40
1.5625
  1
R
  7
ISO
100
AcDbText
  0
CIRCLE
  5
A2
100
AcDbEntity
  8
UMRISS025
100
AcDbCircle
 10
22.589637
 20
1.884717
 30
0.0
 40
1.5625
  0
LINE
  5
A3
100
AcDbEntity
  8
UMRISS035
100
AcDbLine
 10
24.5
 20
14.0
 30
0.0
 11
-24.5
 21
14.0
 31
0.0
  0
LINE
  5
A4
100
AcDbEntity
  8
UMRISS035
100
AcDbLine
 10
24.5
 20
0.0
 30
0.0
 11
24.5
 21
14.0
 31
0.0
  0
LINE
  5
A5
100
AcDbEntity
  8
UMRISS035
100
AcDbLine
 10
-24.5
 20
0.0
 30
0.0
 11
24.5
 21
0.0
 31
0.0
  0
LINE
  5
A6
100
AcDbEntity
  8
UMRISS035
100
AcDbLine
 10
-24.5
 20
14.0
 30
0.0
 11
-24.5
 21
0.0
 31
0.0
  0
LINE
  5
A7
100
AcDbEntity
  8
UMRISS07
100
AcDbLine
 10
20.5
 20
2.5
 30
0.0
 11
14.0
 21
2.5
 31
0.0
  0
LINE
  5
A8
100
AcDbEntity
  8
UMRISS07
100
AcDbLine
 10
20.5
 20
4.5
 30
0.0
 11
20.5
 21
2.5
 31
0.0
  0
LINE
  5
A9
100
AcDbEntity
  8
UMRISS07
100
AcDbLine
 10
16.5
 20
4.5
 30
0.0
 11
20.5
 21
4.5
 31
0.0
  0
LINE
  5
AA
100
AcDbEntity
  8
UMRISS07
100
AcDbLine
 10
16.5
 20
6.0
 30
0.0
 11
16.5
 21
4.5
 31
0.0
  0
LINE
  5
AB
100
AcDbEntity
  8
UMRISS07
100
AcDbLine
 10
19.5
 20
6.0
 30
0.0
 11
16.5
 21
6.0
 31
0.0
  0
LINE
  5
AC
100
AcDbEntity
  8
UMRISS07
100
AcDbLine
 10
19.5
 20
8.0
 30
0.0
 11
19.5
 21
6.0
 31
0.0
  0
LINE
  5
AD
100
AcDbEntity
  8
UMRISS07
100
AcDbLine
 10
16.5
 20
8.0
 30
0.0
 11
19.5
 21
8.0
 31
0.0
  0
LINE
  5
AE
100
AcDbEntity
  8
UMRISS07
100
AcDbLine
 10
16.5
 20
9.5
 30
0.0
 11
16.5
 21
8.0
 31
0.0
  0
LINE
  5
AF
100
AcDbEntity
  8
UMRISS07
100
AcDbLine
 10
20.5
 20
9.5
 30
0.0
 11
16.5
 21
9.5
 31
0.0
  0
LINE
  5
B0
100
AcDbEntity
  8
UMRISS07
100
AcDbLine
 10
20.5
 20
11.5
 30
0.0
 11
20.5
 21
9.5
 31
0.0
  0
LINE
  5
B1
100
AcDbEntity
  8
UMRISS07
100
AcDbLine
 10
14.0
 20
11.5
 30
0.0
 11
20.5
 21
11.5
 31
0.0
  0
LINE
  5
B2
100
AcDbEntity
  8
UMRISS07
100
AcDbLine
 10
14.0
 20
2.5
 30
0.0
 11
14.0
 21
11.5
 31
0.0
  0
LINE
  5
B3
100
AcDbEntity
  8
UMRISS07
100
AcDbLine
 10
9.0
 20
2.5
 30
0.0
 11
7.0
 21
2.5
 31
0.0
  0
LINE
  5
B4
100
AcDbEntity
  8
UMRISS07
100
AcDbLine
 10
9.0
 20
7.5
 30
0.0
 11
9.0
 21
2.5
 31
0.0
  0
LINE
  5
B5
100
AcDbEntity
  8
UMRISS07
100
AcDbLine
 10
10.5
 20
2.5
 30
0.0
 11
9.0
 21
7.5
 31
0.0
  0
LINE
  5
B6
100
AcDbEntity
  8
UMRISS07
100
AcDbLine
 10
13.5
 20
2.5
 30
0.0
 11
10.5
 21
2.5
 31
0.0
  0
LINE
  5
B7
100
AcDbEntity
  8
UMRISS07
100
AcDbLine
 10
13.5
 20
11.5
 30
0.0
 11
13.5
 21
2.5
 31
0.0
  0
LINE
  5
B8
100
AcDbEntity
  8
UMRISS07
100
AcDbLine
 10
11.5
 20
11.5
 30
0.0
 11
13.5
 21
11.5
 31
0.0
  0
LINE
  5
B9
100
AcDbEntity
  8
UMRISS07
100
AcDbLine
 10
11.5
 20
7.5
 30
0.0
 11
11.5
 21
11.5
 31
0.0
  0
LINE
  5
BA
100
AcDbEntity
  8
UMRISS07
100
AcDbLine
 10
10.0
 20
11.5
 30
0.0
 11
11.5
 21
7.5
 31
0.0
  0
LINE
  5
BB
100
AcDbEntity
  8
UMRISS07
100
AcDbLine
 10
7.0
 20
11.5
 30
0.0
 11
10.0
 21
11.5
 31
0.0
  0
LINE
  5
BC
100
AcDbEntity
  8
UMRISS07
100
AcDbLine
 10
7.0
 20
2.5
 30
0.0
 11
7.0
 21
11.5
 31
0.0
  0
LINE
  5
BD
100
AcDbEntity
  8
UMRISS07
100
AcDbLine
 10
6.5
 20
2.5
 30
0.0
 11
3.5
 21
2.5
 31
0.0
  0
LINE
  5
BE
100
AcDbEntity
  8
UMRISS07
100
AcDbLine
 10
6.5
 20
11.5
 30
0.0
 11
6.5
 21
2.5
 31
0.0
  0
LINE
  5
BF
100
AcDbEntity
  8
UMRISS07
100
AcDbLine
 10
3.5
 20
11.5
 30
0.0
 11
6.5
 21
11.5
 31
0.0
  0
LINE
  5
C0
100
AcDbEntity
  8
UMRISS07
100
AcDbLine
 10
3.5
 20
2.5
 30
0.0
 11
3.5
 21
11.5
 31
0.0
  0
ARC
  5
C1
100
AcDbEntity
  8
UMRISS07
100
AcDbCircle
 10
-2.0
 20
7.0
 30
0.0
 40
2.5
100
AcDbArc
 50
270.0
 51
90.0
  0
LINE
  5
C2
100
AcDbEntity
  8
UMRISS07
100
AcDbLine
 10
-2.0
 20
9.5
 30
0.0
 11
-2.0
 21
4.5
 31
0.0
  0
LINE
  5
C3
100
AcDbEntity
  8
UMRISS07
100
AcDbLine
 10
-5.0
 20
11.5
 30
0.0
 11
-5.0
 21
2.5
 31
0.0
  0
LINE
  5
C4
100
AcDbEntity
  8
UMRISS07
100
AcDbLine
 10
0.0
 20
11.5
 30
0.0
 11
-5.0
 21
11.5
 31
0.0
  0
ARC
  5
C5
100
AcDbEntity
  8
UMRISS07
100
AcDbCircle
 10
-1.142857
 20
7.0
 30
0.0
 40
4.642857
100
AcDbArc
 50
284.250033
 51
75.749967
  0
LINE
  5
C6
100
AcDbEntity
  8
UMRISS07
100
AcDbLine
 10
-5.0
 20
2.5
 30
0.0
 11
0.0
 21
2.5
 31
0.0
  0
LINE
  5
C7
100
AcDbEntity
  8
UMRISS07
100
AcDbLine
 10
-8.5
 20
2.5
 30
0.0
 11
-8.5
 21
11.5
 31
0.0
  0
LINE
  5
C8
100
AcDbEntity
  8
UMRISS07
100
AcDbLine
 10
-5.5
 20
2.5
 30
0.0
 11
-8.5
 21
2.5
 31
0.0
  0
LINE
  5
C9
100
AcDbEntity
  8
UMRISS07
100
AcDbLine
 10
-5.5
 20
11.5
 30
0.0
 11
-5.5
 21
2.5
 31
0.0
  0
LINE
  5
CA
100
AcDbEntity
  8
UMRISS07
100
AcDbLine
 10
-8.5
 20
11.5
 30
0.0
 11
-5.5
 21
11.5
 31
0.0
  0
LINE
  5
CB
100
AcDbEntity
  8
UMRISS07
100
AcDbLine
 10
-13.5
 20
2.5
 30
0.0
 11
-15.5
 21
2.5
 31
0.0
  0
LINE
  5
CC
100
AcDbEntity
  8
UMRISS07
100
AcDbLine
 10
-13.5
 20
7.5
 30
0.0
 11
-13.5
 21
2.5
 31
0.0
  0
LINE
  5
CD
100
AcDbEntity
  8
UMRISS07
100
AcDbLine
 10
-12.0
 20
2.5
 30
0.0
 11
-13.5
 21
7.5
 31
0.0
  0
LINE
  5
CE
100
AcDbEntity
  8
UMRISS07
100
AcDbLine
 10
-9.0
 20
2.5
 30
0.0
 11
-12.0
 21
2.5
 31
0.0
  0
LINE
  5
CF
100
AcDbEntity
  8
UMRISS07
100
AcDbLine
 10
-9.0
 20
11.5
 30
0.0
 11
-9.0
 21
2.5
 31
0.0
  0
LINE
  5
D0
100
AcDbEntity
  8
UMRISS07
100
AcDbLine
 10
-11.0
 20
11.5
 30
0.0
 11
-9.0
 21
11.5
 31
0.0
  0
LINE
  5
D1
100
AcDbEntity
  8
UMRISS07
100
AcDbLine
 10
-11.0
 20
7.5
 30
0.0
 11
-11.0
 21
11.5
 31
0.0
  0
LINE
  5
D2
100
AcDbEntity
  8
UMRISS07
100
AcDbLine
 10
-12.5
 20
11.5
 30
0.0
 11
-11.0
 21
7.5
 31
0.0
  0
LINE
  5
D3
100
AcDbEntity
  8
UMRISS07
100
AcDbLine
 10
-15.5
 20
11.5
 30
0.0
 11
-12.5
 21
11.5
 31
0.0
  0
LINE
  5
D4
100
AcDbEntity
  8
UMRISS07
100
AcDbLine
 10
-15.5
 20
2.5
 30
0.0
 11
-15.5
 21
11.5
 31
0.0
  0
LINE
  5
D5
100
AcDbEntity
  8
UMRISS07
100
AcDbLine
 10
-22.5
 20
2.5
 30
0.0
 11
-22.5
 21
11.5
 31
0.0
  0
LINE
  5
D6
100
AcDbEntity
  8
UMRISS07
100
AcDbLine
 10
-16.0
 20
2.5
 30
0.0
 11
-22.5
 21
2.5
 31
0.0
  0
LINE
  5
D7
100
AcDbEntity
  8
UMRISS07
100
AcDbLine
 10
-16.0
 20
4.5
 30
0.0
 11
-16.0
 21
2.5
 31
0.0
  0
LINE
  5
D8
100
AcDbEntity
  8
UMRISS07
100
AcDbLine
 10
-20.0
 20
4.5
 30
0.0
 11
-16.0
 21
4.5
 31
0.0
  0
LINE
  5
D9
100
AcDbEntity
  8
UMRISS07
100
AcDbLine
 10
-20.0
 20
6.0
 30
0.0
 11
-20.0
 21
4.5
 31
0.0
  0
LINE
  5
DA
100
AcDbEntity
  8
UMRISS07
100
AcDbLine
 10
-17.0
 20
6.0
 30
0.0
 11
-20.0
 21
6.0
 31
0.0
  0
LINE
  5
DB
100
AcDbEntity
  8
UMRISS07
100
AcDbLine
 10
-17.0
 20
8.0
 30
0.0
 11
-17.0
 21
6.0
 31
0.0
  0
LINE
  5
DC
100
AcDbEntity
  8
UMRISS07
100
AcDbLine
 10
-20.0
 20
8.0
 30
0.0
 11
-17.0
 21
8.0
 31
0.0
  0
LINE
  5
DD
100
AcDbEntity
  8
UMRISS07
100
AcDbLine
 10
-20.0
 20
9.5
 30
0.0
 11
-20.0
 21
8.0
 31
0.0
  0
LINE
  5
DE
100
AcDbEntity
  8
UMRISS07
100
AcDbLine
 10
-16.0
 20
9.5
 30
0.0
 11
-20.0
 21
9.5
 31
0.0
  0
LINE
  5
DF
100
AcDbEntity
  8
UMRISS07
100
AcDbLine
 10
-16.0
 20
11.5
 30
0.0
 11
-16.0
 21
9.5
 31
0.0
  0
LINE
  5
E0
100
AcDbEntity
  8
UMRISS07
100
AcDbLine
 10
-22.5
 20
11.5
 30
0.0
 11
-16.0
 21
11.5
 31
0.0
  0
ENDBLK
  5
E1
100
AcDbEntity
  8
0
100
AcDbBlockEnd
  0
BLOCK
  5
8787
100
AcDbEntity
  8
0
100
AcDbBlockBegin
  2
*B1
 70
     1
 10
0.0
 20
0.0
 30
0.0
  3
*B1
  1

  0
LINE
  5
8788
100
AcDbEntity
  8
40
 62
     7
100
AcDbLine
 10
12.665815
 20
6.587526
 30
0.0
 11
12.666064
 21
6.587774
 31
0.0
  0
LINE
  5
8789
100
AcDbEntity
  8
40
 62
     7
100
AcDbLine
 10
12.664401
 20
6.587526
 30
0.0
 11
12.665592
 21
6.588717
 31
0.0
  0
LINE
  5
878A
100
AcDbEntity
  8
40
 62
     7
100
AcDbLine
 10
12.662988
 20
6.587526
 30
0.0
 11
12.665121
 21
6.58966
 31
0.0
  0
LINE
  5
878B
100
AcDbEntity
  8
40
 62
     7
100
AcDbLine
 10
12.661573
 20
6.587526
 30
0.0
 11
12.66465
 21
6.590603
 31
0.0
  0
LINE
  5
878C
100
AcDbEntity
  8
40
 62
     7
100
AcDbLine
 10
12.660159
 20
6.587526
 30
0.0
 11
12.664179
 21
6.591546
 31
0.0
  0
LINE
  5
878D
100
AcDbEntity
  8
40
 62
     7
100
AcDbLine
 10
12.658745
 20
6.587526
 30
0.0
 11
12.663707
 21
6.592488
 31
0.0
  0
LINE
  5
878E
100
AcDbEntity
  8
40
 62
     7
100
AcDbLine
 10
12.657331
 20
6.587526
 30
0.0
 11
12.663236
 21
6.593431
 31
0.0
  0
LINE
  5
878F
100
AcDbEntity
  8
40
 62
     7
100
AcDbLine
 10
12.655916
 20
6.587526
 30
0.0
 11
12.662765
 21
6.594374
 31
0.0
  0
LINE
  5
8790
100
AcDbEntity
  8
40
 62
     7
100
AcDbLine
 10
12.654502
 20
6.587526
 30
0.0
 11
12.662292
 21
6.595317
 31
0.0
  0
LINE
  5
8791
100
AcDbEntity
  8
40
 62
     7
100
AcDbLine
 10
12.653088
 20
6.587526
 30
0.0
 11
12.661821
 21
6.59626
 31
0.0
  0
LINE
  5
8792
100
AcDbEntity
  8
40
 62
     7
100
AcDbLine
 10
12.651673
 20
6.587526
 30
0.0
 11
12.66135
 21
6.597202
 31
0.0
  0
LINE
  5
8793
100
AcDbEntity
  8
40
 62
     7
100
AcDbLine
 10
12.650259
 20
6.587526
 30
0.0
 11
12.660878
 21
6.598145
 31
0.0
  0
LINE
  5
8794
100
AcDbEntity
  8
40
 62
     7
100
AcDbLine
 10
12.648845
 20
6.587526
 30
0.0
 11
12.660407
 21
6.599088
 31
0.0
  0
LINE
  5
8795
100
AcDbEntity
  8
40
 62
     7
100
AcDbLine
 10
12.64743
 20
6.587526
 30
0.0
 11
12.659936
 21
6.600031
 31
0.0
  0
LINE
  5
8796
100
AcDbEntity
  8
40
 62
     7
100
AcDbLine
 10
12.646017
 20
6.587526
 30
0.0
 11
12.659465
 21
6.600974
 31
0.0
  0
LINE
  5
8797
100
AcDbEntity
  8
40
 62
     7
100
AcDbLine
 10
12.644603
 20
6.587526
 30
0.0
 11
12.658993
 21
6.601917
 31
0.0
  0
LINE
  5
8798
100
AcDbEntity
  8
40
 62
     7
100
AcDbLine
 10
12.643188
 20
6.587526
 30
0.0
 11
12.658522
 21
6.602859
 31
0.0
  0
LINE
  5
8799
100
AcDbEntity
  8
40
 62
     7
100
AcDbLine
 10
12.641774
 20
6.587526
 30
0.0
 11
12.658051
 21
6.603802
 31
0.0
  0
LINE
  5
879A
100
AcDbEntity
  8
40
 62
     7
100
AcDbLine
 10
12.64036
 20
6.587526
 30
0.0
 11
12.657578
 21
6.604745
 31
0.0
  0
LINE
  5
879B
100
AcDbEntity
  8
40
 62
     7
100
AcDbLine
 10
12.638946
 20
6.587526
 30
0.0
 11
12.657107
 21
6.605688
 31
0.0
  0
LINE
  5
879C
100
AcDbEntity
  8
40
 62
     7
100
AcDbLine
 10
12.637531
 20
6.587526
 30
0.0
 11
12.656636
 21
6.606631
 31
0.0
  0
LINE
  5
879D
100
AcDbEntity
  8
40
 62
     7
100
AcDbLine
 10
12.636117
 20
6.587526
 30
0.0
 11
12.656164
 21
6.607574
 31
0.0
  0
LINE
  5
879E
100
AcDbEntity
  8
40
 62
     7
100
AcDbLine
 10
12.634703
 20
6.587526
 30
0.0
 11
12.655693
 21
6.608516
 31
0.0
  0
LINE
  5
879F
100
AcDbEntity
  8
40
 62
     7
100
AcDbLine
 10
12.633288
 20
6.587526
 30
0.0
 11
12.655222
 21
6.609459
 31
0.0
  0
LINE
  5
87A0
100
AcDbEntity
  8
40
 62
     7
100
AcDbLine
 10
12.631874
 20
6.587526
 30
0.0
 11
12.654751
 21
6.610402
 31
0.0
  0
LINE
  5
87A1
100
AcDbEntity
  8
40
 62
     7
100
AcDbLine
 10
12.630461
 20
6.587526
 30
0.0
 11
12.654279
 21
6.611345
 31
0.0
  0
LINE
  5
87A2
100
AcDbEntity
  8
40
 62
     7
100
AcDbLine
 10
12.629046
 20
6.587526
 30
0.0
 11
12.653808
 21
6.612288
 31
0.0
  0
LINE
  5
87A3
100
AcDbEntity
  8
40
 62
     7
100
AcDbLine
 10
12.627632
 20
6.587526
 30
0.0
 11
12.653337
 21
6.61323
 31
0.0
  0
LINE
  5
87A4
100
AcDbEntity
  8
40
 62
     7
100
AcDbLine
 10
12.626218
 20
6.587526
 30
0.0
 11
12.652864
 21
6.614173
 31
0.0
  0
LINE
  5
87A5
100
AcDbEntity
  8
40
 62
     7
100
AcDbLine
 10
12.624804
 20
6.587526
 30
0.0
 11
12.652393
 21
6.615116
 31
0.0
  0
LINE
  5
87A6
100
AcDbEntity
  8
40
 62
     7
100
AcDbLine
 10
12.623389
 20
6.587526
 30
0.0
 11
12.651922
 21
6.616059
 31
0.0
  0
LINE
  5
87A7
100
AcDbEntity
  8
40
 62
     7
100
AcDbLine
 10
12.621975
 20
6.587526
 30
0.0
 11
12.65145
 21
6.617002
 31
0.0
  0
LINE
  5
87A8
100
AcDbEntity
  8
40
 62
     7
100
AcDbLine
 10
12.620561
 20
6.587526
 30
0.0
 11
12.650979
 21
6.617944
 31
0.0
  0
LINE
  5
87A9
100
AcDbEntity
  8
40
 62
     7
100
AcDbLine
 10
12.619146
 20
6.587526
 30
0.0
 11
12.650508
 21
6.618887
 31
0.0
  0
LINE
  5
87AA
100
AcDbEntity
  8
40
 62
     7
100
AcDbLine
 10
12.617732
 20
6.587526
 30
0.0
 11
12.650037
 21
6.61983
 31
0.0
  0
LINE
  5
87AB
100
AcDbEntity
  8
40
 62
     7
100
AcDbLine
 10
12.616318
 20
6.587526
 30
0.0
 11
12.649565
 21
6.620773
 31
0.0
  0
LINE
  5
87AC
100
AcDbEntity
  8
40
 62
     7
100
AcDbLine
 10
12.617472
 20
6.590094
 30
0.0
 11
12.649094
 21
6.621716
 31
0.0
  0
LINE
  5
87AD
100
AcDbEntity
  8
40
 62
     7
100
AcDbLine
 10
12.618886
 20
6.592923
 30
0.0
 11
12.648623
 21
6.622658
 31
0.0
  0
LINE
  5
87AE
100
AcDbEntity
  8
40
 62
     7
100
AcDbLine
 10
12.6203
 20
6.595751
 30
0.0
 11
12.64815
 21
6.623601
 31
0.0
  0
LINE
  5
87AF
100
AcDbEntity
  8
40
 62
     7
100
AcDbLine
 10
12.621715
 20
6.59858
 30
0.0
 11
12.647679
 21
6.624544
 31
0.0
  0
LINE
  5
87B0
100
AcDbEntity
  8
40
 62
     7
100
AcDbLine
 10
12.623129
 20
6.601408
 30
0.0
 11
12.647208
 21
6.625487
 31
0.0
  0
LINE
  5
87B1
100
AcDbEntity
  8
40
 62
     7
100
AcDbLine
 10
12.624543
 20
6.604237
 30
0.0
 11
12.646736
 21
6.62643
 31
0.0
  0
LINE
  5
87B2
100
AcDbEntity
  8
40
 62
     7
100
AcDbLine
 10
12.625957
 20
6.607065
 30
0.0
 11
12.646265
 21
6.627373
 31
0.0
  0
LINE
  5
87B3
100
AcDbEntity
  8
40
 62
     7
100
AcDbLine
 10
12.627372
 20
6.609894
 30
0.0
 11
12.645794
 21
6.628315
 31
0.0
  0
LINE
  5
87B4
100
AcDbEntity
  8
40
 62
     7
100
AcDbLine
 10
12.628786
 20
6.612722
 30
0.0
 11
12.645323
 21
6.629258
 31
0.0
  0
LINE
  5
87B5
100
AcDbEntity
  8
40
 62
     7
100
AcDbLine
 10
12.6302
 20
6.615551
 30
0.0
 11
12.644851
 21
6.630201
 31
0.0
  0
LINE
  5
87B6
100
AcDbEntity
  8
40
 62
     7
100
AcDbLine
 10
12.631615
 20
6.618379
 30
0.0
 11
12.64438
 21
6.631144
 31
0.0
  0
LINE
  5
87B7
100
AcDbEntity
  8
40
 62
     7
100
AcDbLine
 10
12.633029
 20
6.621208
 30
0.0
 11
12.643909
 21
6.632087
 31
0.0
  0
LINE
  5
87B8
100
AcDbEntity
  8
40
 62
     7
100
AcDbLine
 10
12.634443
 20
6.624036
 30
0.0
 11
12.643436
 21
6.633029
 31
0.0
  0
LINE
  5
87B9
100
AcDbEntity
  8
40
 62
     7
100
AcDbLine
 10
12.635858
 20
6.626865
 30
0.0
 11
12.642965
 21
6.633972
 31
0.0
  0
LINE
  5
87BA
100
AcDbEntity
  8
40
 62
     7
100
AcDbLine
 10
12.637272
 20
6.629693
 30
0.0
 11
12.642494
 21
6.634915
 31
0.0
  0
LINE
  5
87BB
100
AcDbEntity
  8
40
 62
     7
100
AcDbLine
 10
12.638686
 20
6.632522
 30
0.0
 11
12.642022
 21
6.635858
 31
0.0
  0
LINE
  5
87BC
100
AcDbEntity
  8
40
 62
     7
100
AcDbLine
 10
12.6401
 20
6.63535
 30
0.0
 11
12.641551
 21
6.636801
 31
0.0
  0
ENDBLK
  5
87BD
100
AcDbEntity
  8
0
100
AcDbBlockEnd
  0
ENDSEC
  0
SECTION
  2
ENTITIES
  0
LINE
  5
1B8B
100
AcDbEntity
  8
KONTUR
100
AcDbLine
 10
29.168279
 20
-89.040682
 30
0.0
 11
2.657682
 21
-89.040682
 31
0.0
  0
LINE
  5
1B8C
100
AcDbEntity
  8
KONTUR
100
AcDbLine
 10
29.168279
 20
-82.700682
 30
0.0
 11
2.657682
 21
-82.700682
 31
0.0
  0
ARC
  5
1BA7
100
AcDbEntity
  8
KONTUR
100
AcDbCircle
 10
19.146498
 20
-85.870682
 30
0.0
 40
10.511184
100
AcDbArc
 50
342.447262
 51
17.552738
  0
INSERT
  5
1C1E
100
AcDbEntity
  8
KONTUR
100
AcDbBlockReference
 66
     1
  2
MONO
 10
-39.799471
 20
-0.591508
 30
0.0
 41
0.7
 42
0.7
 43
0.7
  0
ATTRIB
  5
1C1F
100
AcDbEntity
  8
UMRISS05
100
AcDbText
 10
-48.341138
 20
-5.491508
 30
0.0
 40
1.75
  1
OEM 1.0 MFB
  7
NORM
 72
     1
 11
-39.799471
 21
-5.491508
 31
0.0
100
AcDbAttribute
  2
BEZEI
 70
     4
  0
SEQEND
  5
1C20
100
AcDbEntity
  8
KONTUR
  0
INSERT
  5
1C21
100
AcDbEntity
  8
KONTUR
100
AcDbBlockReference
 66
     1
  2
MONO
 10
-48.252318
 20
-85.870682
 30
0.0
 41
0.7
 42
0.7
 43
0.7
  0
ATTRIB
  5
1C22
100
AcDbEntity
  8
UMRISS05
100
AcDbText
 10
-56.002318
 20
-90.770682
 30
0.0
 40
1.75
  1
OEM 1.0 MF
  7
NORM
 72
     1
 11
-48.252318
 21
-90.770682
 31
0.0
100
AcDbAttribute
  2
BEZEI
 70
     4
  0
SEQEND
  5
1C23
100
AcDbEntity
  8
KONTUR
  0
CIRCLE
  5
89EF
100
AcDbEntity
  8
KONTUR
100
AcDbCircle
 10
120.191554
 20
-85.870682
 30
0.0
 40
12.319
  0
CIRCLE
  5
89F0
100
AcDbEntity
  8
KONTUR
100
AcDbCircle
 10
120.191554
 20
-85.870682
 30
0.0
 40
11.1125
  0
LINE
  5
89F1
100
AcDbEntity
  8
KONTUR
100
AcDbLine
 10
108.850454
 20
-90.680798
 30
0.0
 11
108.850454
 21
-81.060567
 31
0.0
  0
LINE
  5
89F2
100
AcDbEntity
  8
KONTUR
100
AcDbLine
 10
131.532654
 20
-90.680798
 30
0.0
 11
131.532654
 21
-81.060567
 31
0.0
  0
ARC
  5
89F3
100
AcDbEntity
  8
KONTUR
100
AcDbCircle
 10
120.191554
 20
-85.870682
 30
0.0
 40
10.795
100
AcDbArc
 50
76.044013
 51
103.955987
  0
LINE
  5
89F4
100
AcDbEntity
  8
KONTUR
100
AcDbLine
 10
117.588054
 20
-76.31293
 30
0.0
 11
117.588054
 21
-75.394337
 31
0.0
  0
LINE
  5
89F5
100
AcDbEntity
  8
KONTUR
100
AcDbLine
 10
122.795054
 20
-76.31293
 30
0.0
 11
122.795054
 21
-75.394337
 31
0.0
  0
ARC
  5
89F6
100
AcDbEntity
  8
KONTUR
100
AcDbCircle
 10
120.191554
 20
-85.870682
 30
0.0
 40
9.906
100
AcDbArc
 50
105.237487
 51
74.762513
  0
CIRCLE
  5
89FD
100
AcDbEntity
  8
KONTUR
100
AcDbCircle
 10
120.191554
 20
-85.870682
 30
0.0
 40
4.8006
  0
CIRCLE
  5
8A06
100
AcDbEntity
  8
KONTUR
100
AcDbCircle
 10
120.191554
 20
-85.870682
 30
0.0
 40
3.4925
  0
LINE
  5
8A07
100
AcDbEntity
  8
KONTUR
100
AcDbLine
 10
120.991654
 20
-85.408744
 30
0.0
 11
120.191554
 21
-84.946807
 31
0.0
  0
LINE
  5
8A08
100
AcDbEntity
  8
KONTUR
100
AcDbLine
 10
120.191554
 20
-84.946807
 30
0.0
 11
119.391454
 21
-85.408744
 31
0.0
  0
LINE
  5
8A09
100
AcDbEntity
  8
KONTUR
100
AcDbLine
 10
119.391454
 20
-85.408744
 30
0.0
 11
119.391454
 21
-86.33262
 31
0.0
  0
LINE
  5
8A0A
100
AcDbEntity
  8
KONTUR
100
AcDbLine
 10
119.391454
 20
-86.33262
 30
0.0
 11
120.191554
 21
-86.794558
 31
0.0
  0
LINE
  5
8A0B
100
AcDbEntity
  8
KONTUR
100
AcDbLine
 10
120.191554
 20
-86.794558
 30
0.0
 11
120.991654
 21
-86.33262
 31
0.0
  0
LINE
  5
8A0C
100
AcDbEntity
  8
KONTUR
100
AcDbLine
 10
120.991654
 20
-86.33262
 30
0.0
 11
120.991654
 21
-85.408744
 31
0.0
  0
LINE
  5
8A0D
100
AcDbEntity
  8
KONTUR
 62
     7
100
AcDbLine
 10
119.556554
 20
-76.726682
 30
0.0
 11
120.826554
 21
-76.726682
 31
0.0
  0
LINE
  5
8A0E
100
AcDbEntity
  8
KONTUR
 62
     7
100
AcDbLine
 10
120.191554
 20
-75.456682
 30
0.0
 11
119.556554
 21
-76.726682
 31
0.0
  0
LINE
  5
8A0F
100
AcDbEntity
  8
KONTUR
 62
     7
100
AcDbLine
 10
120.191554
 20
-75.456682
 30
0.0
 11
120.826554
 21
-76.726682
 31
0.0
  0
TEXT
  5
8A3E
100
AcDbEntity
  8
KONTUR
 62
     7
100
AcDbText
 10
113.901547
 20
-85.327258
 30
0.0
 40
2.3622
  1
E
 50
75.0
 41
1.35
100
AcDbText
  0
TEXT
  5
8A44
100
AcDbEntity
  8
KONTUR
 62
     7
100
AcDbText
 10
119.215488
 20
-79.654354
 30
0.0
 40
2.3622
  1
D
 41
1.35
100
AcDbText
  0
TEXT
  5
8A45
100
AcDbEntity
  8
KONTUR
 62
     7
100
AcDbText
 10
114.720533
 20
-82.719901
 30
0.0
 40
2.3622
  1
N
 50
50.0
 41
1.35
100
AcDbText
  0
TEXT
  5
8A47
100
AcDbEntity
  8
KONTUR
 62
     7
100
AcDbText
 10
116.564703
 20
-80.702951
 30
0.0
 40
2.3622
  1
I
 50
25.0
 41
2.7
100
AcDbText
  0
TEXT
  5
8A48
100
AcDbEntity
  8
KONTUR
 62
     7
100
AcDbText
 10
121.934072
 20
-79.824273
 30
0.0
 40
2.3622
  1
I
 50
335.0
 41
2.7
100
AcDbText
  0
TEXT
  5
8A49
100
AcDbEntity
  8
KONTUR
 62
     7
100
AcDbText
 10
124.326135
 20
-81.127194
 30
0.0
 40
2.3622
  1
N
 50
310.0
 41
1.35
100
AcDbText
  0
TEXT
  5
8A4A
100
AcDbEntity
  8
KONTUR
 62
     7
100
AcDbText
 10
125.943441
 20
-83.318971
 30
0.0
 40
2.3622
  1
E
 50
285.0
 41
1.35
100
AcDbText
  0
INSERT
  5
8A4B
100
AcDbEntity
  8
KONTUR
 62
     7
100
AcDbBlockReference
  2
*B1
 10
-200.894625
 20
-244.049836
 30
0.0
 41
25.4
 42
25.4
 43
25.4
  0
LINE
  5
8E61
100
AcDbEntity
  8
GEWINDE
100
AcDbLine
 10
-0.2667
 20
-11.3792
 30
0.0
 11
-87.1093
 21
-11.3792
 31
0.0
  0
LINE
  5
8E62
100
AcDbEntity
  8
GEWINDE
100
AcDbLine
 10
-0.2667
 20
11.3792
 30
0.0
 11
-87.1093
 21
11.3792
 31
0.0
  0
LINE
  5
8E63
100
AcDbEntity
  8
KONTUR
100
AcDbLine
 10
-1.2065
 20
12.319
 30
0.0
 11
-86.1695
 21
12.319
 31
0.0
  0
LINE
  5
8E64
100
AcDbEntity
  8
KONTUR
100
AcDbLine
 10
-1.2065
 20
-12.319
 30
0.0
 11
-86.1695
 21
-12.319
 31
0.0
  0
LINE
  5
8E65
100
AcDbEntity
  8
SYMMETRIE
100
AcDbLine
 10
53.281
 20
0.0
 30
0.0
 11
-18.95998
 21
0.0
 31
0.0
  0
LINE
  5
8E6A
100
AcDbEntity
  8
KONTUR
100
AcDbLine
 10
28.829003
 20
-3.175
 30
0.0
 11
2.667
 21
-3.175
 31
0.0
  0
LINE
  5
8E6B
100
AcDbEntity
  8
KONTUR
100
AcDbLine
 10
28.829003
 20
3.175
 30
0.0
 11
2.667
 21
3.175
 31
0.0
  0
LINE
  5
8E6D
100
AcDbEntity
  8
KONTUR
100
AcDbLine
 10
30.861003
 20
-7.74954
 30
0.0
 11
30.861003
 21
7.747
 31
0.0
  0
LINE
  5
8E6E
100
AcDbEntity
  8
KONTUR
100
AcDbLine
 10
28.829003
 20
0.0
 30
0.0
 11
28.829003
 21
7.747
 31
0.0
  0
LINE
  5
8E6F
100
AcDbEntity
  8
KONTUR
100
AcDbLine
 10
41.528997
 20
-7.239
 30
0.0
 11
41.529003
 21
7.239005
 31
0.0
  0
LINE
  5
8E70
100
AcDbEntity
  8
KONTUR
100
AcDbLine
 10
31.622997
 20
-7.9375
 30
0.0
 11
31.622997
 21
7.9375
 31
0.0
  0
LINE
  5
8E71
100
AcDbEntity
  8
KONTUR
100
AcDbLine
 10
40.830497
 20
-7.9375
 30
0.0
 11
31.622997
 21
-7.9375
 31
0.0
  0
ARC
  5
8E72
100
AcDbEntity
  8
KONTUR
100
AcDbCircle
 10
40.830497
 20
-7.239
 30
0.0
 40
0.6985
100
AcDbArc
 50
269.999999
 51
359.999969
  0
LINE
  5
8E73
100
AcDbEntity
  8
KONTUR
100
AcDbLine
 10
28.829003
 20
-7.74954
 30
0.0
 11
28.829003
 21
0.0
 31
0.0
  0
LINE
  5
8E74
100
AcDbEntity
  8
KONTUR
100
AcDbLine
 10
29.019503
 20
-7.94004
 30
0.0
 11
28.829003
 21
-7.74954
 31
0.0
  0
LINE
  5
8E75
100
AcDbEntity
  8
KONTUR
100
AcDbLine
 10
30.861003
 20
-7.74954
 30
0.0
 11
30.670503
 21
-7.94004
 31
0.0
  0
LINE
  5
8E76
100
AcDbEntity
  8
KONTUR
100
AcDbLine
 10
30.670503
 20
-7.94004
 30
0.0
 11
29.019503
 21
-7.94004
 31
0.0
  0
ARC
  5
8E77
100
AcDbEntity
  8
KONTUR
100
AcDbCircle
 10
31.115003
 20
-4.826005
 30
0.0
 40
0.254
100
AcDbArc
 50
90.0
 51
180.0
  0
LINE
  5
8E78
100
AcDbEntity
  8
KONTUR
100
AcDbLine
 10
31.622997
 20
-4.572005
 30
0.0
 11
31.115003
 21
-4.572005
 31
0.0
  0
ARC
  5
8E79
100
AcDbEntity
  8
KONTUR
100
AcDbCircle
 10
32.321497
 20
-5.588
 30
0.0
 40
0.6985
100
AcDbArc
 50
180.000018
 51
180.09616
  0
LINE
  5
8E7A
100
AcDbEntity
  8
KONTUR
100
AcDbLine
 10
40.830503
 20
7.9375
 30
0.0
 11
31.622997
 21
7.9375
 31
0.0
  0
ARC
  5
8E7B
100
AcDbEntity
  8
KONTUR
100
AcDbCircle
 10
40.830503
 20
7.239005
 30
0.0
 40
0.6985
100
AcDbArc
 50
359.999969
 51
89.999996
  0
ARC
  5
8E7C
100
AcDbEntity
  8
KONTUR
100
AcDbCircle
 10
31.115003
 20
4.826
 30
0.0
 40
0.254
100
AcDbArc
 50
180.0
 51
270.0
  0
LINE
  5
8E7D
100
AcDbEntity
  8
KONTUR
100
AcDbLine
 10
31.622997
 20
4.572
 30
0.0
 11
31.115003
 21
4.572
 31
0.0
  0
LINE
  5
8E7E
100
AcDbEntity
  8
KONTUR
100
AcDbLine
 10
28.829003
 20
7.747
 30
0.0
 11
29.019503
 21
7.9375
 31
0.0
  0
LINE
  5
8E7F
100
AcDbEntity
  8
KONTUR
100
AcDbLine
 10
30.670503
 20
7.9375
 30
0.0
 11
30.861003
 21
7.747
 31
0.0
  0
LINE
  5
8E80
100
AcDbEntity
  8
KONTUR
100
AcDbLine
 10
30.670503
 20
7.9375
 30
0.0
 11
29.019503
 21
7.9375
 31
0.0
  0
LINE
  5
8E81
100
AcDbEntity
  8
KONTUR
100
AcDbLine
 10
-1.2065
 20
-12.319
 30
0.0
 11
-1.2065
 21
12.319
 31
0.0
  0
LINE
  5
8E82
100
AcDbEntity
  8
KONTUR
100
AcDbLine
 10
2.667
 20
-11.1125
 30
0.0
 11
2.667
 21
11.1125
 31
0.0
  0
LINE
  5
8E83
100
AcDbEntity
  8
KONTUR
100
AcDbLine
 10
0.0
 20
-11.1125
 30
0.0
 11
0.0
 21
11.1125
 31
0.0
  0
LINE
  5
8E84
100
AcDbEntity
  8
KONTUR
100
AcDbLine
 10
0.0
 20
-11.1125
 30
0.0
 11
-1.2065
 21
-12.319
 31
0.0
  0
LINE
  5
8E85
100
AcDbEntity
  8
KONTUR
100
AcDbLine
 10
2.667
 20
-11.1125
 30
0.0
 11
0.0
 21
-11.1125
 31
0.0
  0
LINE
  5
8E86
100
AcDbEntity
  8
KONTUR
100
AcDbLine
 10
0.0
 20
11.1125
 30
0.0
 11
-1.2065
 21
12.319
 31
0.0
  0
LINE
  5
8E87
100
AcDbEntity
  8
KONTUR
100
AcDbLine
 10
2.667
 20
11.1125
 30
0.0
 11
0.0
 21
11.1125
 31
0.0
  0
LINE
  5
8E8B
100
AcDbEntity
  8
KONTUR
100
AcDbLine
 10
-87.376
 20
-10.9855
 30
0.0
 11
-95.758
 21
-10.9855
 31
0.0
  0
LINE
  5
8E8C
100
AcDbEntity
  8
KONTUR
100
AcDbLine
 10
-87.376
 20
10.9855
 30
0.0
 11
-95.758
 21
10.9855
 31
0.0
  0
LINE
  5
8E8D
100
AcDbEntity
  8
KONTUR
100
AcDbLine
 10
-87.376
 20
-11.1125
 30
0.0
 11
-87.376
 21
11.1125
 31
0.0
  0
ARC
  5
8E8E
100
AcDbEntity
  8
KONTUR
100
AcDbCircle
 10
-83.661317
 20
0.0
 30
0.0
 40
10.191817
100
AcDbArc
 50
331.838491
 51
28.161509
  0
LINE
  5
8E8F
100
AcDbEntity
  8
KONTUR
100
AcDbLine
 10
-74.676
 20
-4.810116
 30
0.0
 11
-74.676
 21
4.810116
 31
0.0
  0
ARC
  5
8E90
100
AcDbEntity
  8
KONTUR
100
AcDbCircle
 10
-77.184183
 20
0.0
 30
0.0
 40
10.191817
100
AcDbArc
 50
151.838491
 51
208.161509
  0
LINE
  5
8E91
100
AcDbEntity
  8
KONTUR
100
AcDbLine
 10
-74.676
 20
-4.810116
 30
0.0
 11
-86.1695
 21
-4.810116
 31
0.0
  0
LINE
  5
8E92
100
AcDbEntity
  8
KONTUR
100
AcDbLine
 10
-86.1695
 20
-12.319
 30
0.0
 11
-86.1695
 21
-4.810116
 31
0.0
  0
LINE
  5
8E93
100
AcDbEntity
  8
KONTUR
100
AcDbLine
 10
-86.0425
 20
-12.319
 30
0.0
 11
-87.376
 21
-10.9855
 31
0.0
  0
LINE
  5
8E94
100
AcDbEntity
  8
KONTUR
100
AcDbLine
 10
-74.676
 20
4.810116
 30
0.0
 11
-86.1695
 21
4.810116
 31
0.0
  0
LINE
  5
8E95
100
AcDbEntity
  8
KONTUR
100
AcDbLine
 10
-86.1695
 20
4.810116
 30
0.0
 11
-86.1695
 21
12.319
 31
0.0
  0
LINE
  5
8E96
100
AcDbEntity
  8
KONTUR
100
AcDbLine
 10
-86.0425
 20
12.319
 30
0.0
 11
-87.376
 21
10.9855
 31
0.0
  0
LINE
  5
8E97
100
AcDbEntity
  8
KONTUR
100
AcDbLine
 10
-101.219
 20
-9.906
 30
0.0
 11
-101.219
 21
10.795
 31
0.0
  0
LINE
  5
8E98
100
AcDbEntity
  8
KONTUR
100
AcDbLine
 10
-96.266
 20
-9.906
 30
0.0
 11
-96.266
 21
10.795
 31
0.0
  0
LINE
  5
8E99
100
AcDbEntity
  8
KONTUR
100
AcDbLine
 10
-95.758
 20
-11.1125
 30
0.0
 11
-95.758
 21
11.1125
 31
0.0
  0
TEXT
  5
8E9A
100
AcDbEntity
  8
KONTUR
 62
     7
100
AcDbText
 10
-97.243852
 20
2.308075
 30
0.0
 40
3.175
  1
3
 50
90.0
 41
1.2
100
AcDbText
  0
LINE
  5
8E9B
100
AcDbEntity
  8
KONTUR
100
AcDbLine
 10
-96.266
 20
-9.906
 30
0.0
 11
-101.219
 21
-9.906
 31
0.0
  0
TEXT
  5
8E9C
100
AcDbEntity
  8
KONTUR
 62
     7
100
AcDbText
 10
-97.243852
 20
-1.641537
 30
0.0
 40
3.175
  1
4
 50
90.0
 41
1.35
100
AcDbText
  0
TEXT
  5
8E9D
100
AcDbEntity
  8
KONTUR
 62
     7
100
AcDbText
 10
-97.243852
 20
-5.27365
 30
0.0
 40
3.175
  1
5
 50
90.0
 41
1.2
100
AcDbText
  0
TEXT
  5
8E9E
100
AcDbEntity
  8
KONTUR
 62
     7
100
AcDbText
 10
-97.243852
 20
-8.328637
 30
0.0
 40
3.175
  1
6
 50
90.0
 41
1.05
100
AcDbText
  0
TEXT
  5
8E9F
100
AcDbEntity
  8
KONTUR
 62
     7
100
AcDbText
 10
-97.243852
 20
-10.158488
 30
0.0
 40
3.175
  1
7
 50
90.0
 41
0.75
100
AcDbText
  0
LINE
  5
8EA0
100
AcDbEntity
  8
KONTUR
100
AcDbLine
 10
-95.758
 20
-4.7879
 30
0.0
 11
-96.266
 21
-4.7879
 31
0.0
  0
LINE
  5
8EA1
100
AcDbEntity
  8
KONTUR
100
AcDbLine
 10
-96.266
 20
10.795
 30
0.0
 11
-101.219
 21
10.795
 31
0.0
  0
LINE
  5
8EA2
100
AcDbEntity
  8
KONTUR
100
AcDbLine
 10
-96.266
 20
9.906
 30
0.0
 11
-101.219
 21
9.906
 31
0.0
  0
TEXT
  5
8EA3
100
AcDbEntity
  8
KONTUR
 62
     7
100
AcDbText
 10
-97.243852
 20
5.839312
 30
0.0
 40
3.175
  1
2
 50
90.0
 41
0.9
100
AcDbText
  0
TEXT
  5
8EA4
100
AcDbEntity
  8
KONTUR
 62
     7
100
AcDbText
 10
-97.243852
 20
8.145413
 30
0.0
 40
3.175
  1
1
 50
90.0
 41
1.5
100
AcDbText
  0
LINE
  5
8EA5
100
AcDbEntity
  8
KONTUR
100
AcDbLine
 10
-95.758
 20
4.7879
 30
0.0
 11
-96.266
 21
4.7879
 31
0.0
  0
LINE
  5
9F1B
100
AcDbEntity
  8
SYMMETRIE
100
AcDbLine
 10
-59.266781
 20
0.0
 30
0.0
 11
-104.104725
 21
0.0
 31
0.0
  0
LINE
  5
A10D
100
AcDbEntity
  8
SYMMETRIE
100
AcDbLine
 10
137.273054
 20
-85.870682
 30
0.0
 11
103.110054
 21
-85.870682
 31
0.0
  0
LINE
  5
A110
100
AcDbEntity
  8
SYMMETRIE
100
AcDbLine
 10
120.191554
 20
-102.952182
 30
0.0
 11
120.191554
 21
-68.789182
 31
0.0
  0
TEXT
  5
A113
100
AcDbEntity
  8
KONTUR
 62
     7
100
AcDbText
 10
-97.243852
 20
-80.03137
 30
0.0
 40
3.175
  1
2
 50
90.0
 41
0.9
100
AcDbText
  0
TEXT
  5
A114
100
AcDbEntity
  8
KONTUR
 62
     7
100
AcDbText
 10
-97.243852
 20
-77.725269
 30
0.0
 40
3.175
  1
1
 50
90.0
 41
1.5
100
AcDbText
  0
TEXT
  5
A115
100
AcDbEntity
  8
KONTUR
 62
     7
100
AcDbText
 10
-97.243852
 20
-87.51222
 30
0.0
 40
3.175
  1
4
 50
90.0
 41
1.35
100
AcDbText
  0
TEXT
  5
A116
100
AcDbEntity
  8
KONTUR
 62
     7
100
AcDbText
 10
-97.243852
 20
-91.144332
 30
0.0
 40
3.175
  1
5
 50
90.0
 41
1.2
100
AcDbText
  0
TEXT
  5
A117
100
AcDbEntity
  8
KONTUR
 62
     7
100
AcDbText
 10
-97.243852
 20
-96.029171
 30
0.0
 40
3.175
  1
7
 50
90.0
 41
0.75
100
AcDbText
  0
TEXT
  5
A118
100
AcDbEntity
  8
KONTUR
 62
     7
100
AcDbText
 10
-97.243852
 20
-94.19932
 30
0.0
 40
3.175
  1
6
 50
90.0
 41
1.05
100
AcDbText
  0
TEXT
  5
A119
100
AcDbEntity
  8
KONTUR
 62
     7
100
AcDbText
 10
-97.243852
 20
-83.562608
 30
0.0
 40
3.175
  1
3
 50
90.0
 41
1.2
100
AcDbText
  0
LINE
  5
A11A
100
AcDbEntity
  8
KONTUR
100
AcDbLine
 10
-96.266
 20
-95.776682
 30
0.0
 11
-101.219
 21
-95.776682
 31
0.0
  0
LINE
  5
A11B
100
AcDbEntity
  8
KONTUR
100
AcDbLine
 10
-96.266
 20
-75.075682
 30
0.0
 11
-101.219
 21
-75.075682
 31
0.0
  0
LINE
  5
A11C
100
AcDbEntity
  8
KONTUR
100
AcDbLine
 10
-96.266
 20
-75.964682
 30
0.0
 11
-101.219
 21
-75.964682
 31
0.0
  0
LINE
  5
A120
100
AcDbEntity
  8
SYMMETRIE
100
AcDbLine
 10
-65.008666
 20
-85.870682
 30
0.0
 11
-109.84661
 21
-85.870682
 31
0.0
  0
LINE
  5
A122
100
AcDbEntity
  8
KONTUR
100
AcDbLine
 10
-101.219
 20
-95.776682
 30
0.0
 11
-101.219
 21
-75.075682
 31
0.0
  0
LINE
  5
A123
100
AcDbEntity
  8
GEWINDE
100
AcDbLine
 10
-0.2667
 20
-97.249882
 30
0.0
 11
-87.1093
 21
-97.249882
 31
0.0
  0
LINE
  5
A124
100
AcDbEntity
  8
GEWINDE
100
AcDbLine
 10
-0.2667
 20
-74.491482
 30
0.0
 11
-87.1093
 21
-74.491482
 31
0.0
  0
LINE
  5
A125
100
AcDbEntity
  8
KONTUR
100
AcDbLine
 10
-1.2065
 20
-73.551682
 30
0.0
 11
-86.1695
 21
-73.551682
 31
0.0
  0
LINE
  5
A126
100
AcDbEntity
  8
KONTUR
100
AcDbLine
 10
-1.2065
 20
-98.189682
 30
0.0
 11
-86.1695
 21
-98.189682
 31
0.0
  0
LINE
  5
A127
100
AcDbEntity
  8
KONTUR
100
AcDbLine
 10
-74.676
 20
-90.680798
 30
0.0
 11
-86.1695
 21
-90.680798
 31
0.0
  0
LINE
  5
A128
100
AcDbEntity
  8
KONTUR
100
AcDbLine
 10
-74.676
 20
-81.060567
 30
0.0
 11
-86.1695
 21
-81.060567
 31
0.0
  0
LINE
  5
A129
100
AcDbEntity
  8
KONTUR
100
AcDbLine
 10
-86.1695
 20
-81.060567
 30
0.0
 11
-86.1695
 21
-73.551682
 31
0.0
  0
LINE
  5
A12A
100
AcDbEntity
  8
KONTUR
100
AcDbLine
 10
-87.376
 20
-96.983182
 30
0.0
 11
-87.376
 21
-74.758182
 31
0.0
  0
LINE
  5
A12B
100
AcDbEntity
  8
KONTUR
100
AcDbLine
 10
-96.266
 20
-95.776682
 30
0.0
 11
-96.266
 21
-75.075682
 31
0.0
  0
LINE
  5
A12C
100
AcDbEntity
  8
KONTUR
100
AcDbLine
 10
-95.758
 20
-96.983182
 30
0.0
 11
-95.758
 21
-74.758182
 31
0.0
  0
LINE
  5
A12D
100
AcDbEntity
  8
KONTUR
100
AcDbLine
 10
-87.376
 20
-96.856182
 30
0.0
 11
-95.758
 21
-96.856182
 31
0.0
  0
LINE
  5
A12E
100
AcDbEntity
  8
KONTUR
100
AcDbLine
 10
-95.758
 20
-90.658582
 30
0.0
 11
-96.266
 21
-90.658582
 31
0.0
  0
LINE
  5
A12F
100
AcDbEntity
  8
KONTUR
100
AcDbLine
 10
-95.758
 20
-81.082782
 30
0.0
 11
-96.266
 21
-81.082782
 31
0.0
  0
ARC
  5
A130
100
AcDbEntity
  8
KONTUR
100
AcDbCircle
 10
-77.184183
 20
-85.870682
 30
0.0
 40
10.191817
100
AcDbArc
 50
151.838491
 51
208.161509
  0
LINE
  5
A131
100
AcDbEntity
  8
KONTUR
100
AcDbLine
 10
-86.0425
 20
-98.189682
 30
0.0
 11
-87.376
 21
-96.856182
 31
0.0
  0
LINE
  5
A132
100
AcDbEntity
  8
KONTUR
100
AcDbLine
 10
-86.1695
 20
-98.189682
 30
0.0
 11
-86.1695
 21
-90.680798
 31
0.0
  0
LINE
  5
A133
100
AcDbEntity
  8
KONTUR
100
AcDbLine
 10
-87.376
 20
-74.885182
 30
0.0
 11
-95.758
 21
-74.885182
 31
0.0
  0
LINE
  5
A134
100
AcDbEntity
  8
KONTUR
100
AcDbLine
 10
-86.0425
 20
-73.551682
 30
0.0
 11
-87.376
 21
-74.885182
 31
0.0
  0
ARC
  5
A135
100
AcDbEntity
  8
KONTUR
100
AcDbCircle
 10
-83.661317
 20
-85.870682
 30
0.0
 40
10.191817
100
AcDbArc
 50
331.838491
 51
28.161509
  0
LINE
  5
A136
100
AcDbEntity
  8
KONTUR
100
AcDbLine
 10
-74.676
 20
-90.680798
 30
0.0
 11
-74.676
 21
-81.060567
 31
0.0
  0
LINE
  5
A137
100
AcDbEntity
  8
KONTUR
100
AcDbLine
 10
-1.2065
 20
-98.189682
 30
0.0
 11
-1.2065
 21
-73.551682
 31
0.0
  0
LINE
  5
A138
100
AcDbEntity
  8
KONTUR
100
AcDbLine
 10
2.667
 20
-96.983182
 30
0.0
 11
2.667
 21
-74.758182
 31
0.0
  0
LINE
  5
A139
100
AcDbEntity
  8
KONTUR
100
AcDbLine
 10
0.0
 20
-96.983182
 30
0.0
 11
0.0
 21
-74.758182
 31
0.0
  0
LINE
  5
A13A
100
AcDbEntity
  8
KONTUR
100
AcDbLine
 10
0.0
 20
-96.983182
 30
0.0
 11
-1.2065
 21
-98.189682
 31
0.0
  0
LINE
  5
A13B
100
AcDbEntity
  8
KONTUR
100
AcDbLine
 10
2.667
 20
-96.983182
 30
0.0
 11
0.0
 21
-96.983182
 31
0.0
  0
LINE
  5
A13C
100
AcDbEntity
  8
KONTUR
100
AcDbLine
 10
0.0
 20
-74.758182
 30
0.0
 11
-1.2065
 21
-73.551682
 31
0.0
  0
LINE
  5
A13D
100
AcDbEntity
  8
KONTUR
100
AcDbLine
 10
2.667
 20
-74.758182
 30
0.0
 11
0.0
 21
-74.758182
 31
0.0
  0
LINE
  5
A13F
100
AcDbEntity
  8
SYMMETRIE
100
AcDbLine
 10
-27.573197
 20
-85.870682
 30
0.0
 11
37.696384
 21
-85.870682
 31
0.0
  0
LINE
  5
A6E4
100
AcDbEntity
  8
SYMMETRIE
100
AcDbLine
 10
120.191554
 20
-17.0815
 30
0.0
 11
120.191554
 21
17.0815
 31
0.0
  0
INSERT
  5
A6E5
100
AcDbEntity
  8
KONTUR
 62
     7
100
AcDbBlockReference
  2
*B1
 10
-200.894625
 20
-158.179153
 30
0.0
 41
25.4
 42
25.4
 43
25.4
  0
LINE
  5
A6E6
100
AcDbEntity
  8
KONTUR
 62
     7
100
AcDbLine
 10
120.191554
 20
10.414
 30
0.0
 11
120.826554
 21
9.144
 31
0.0
  0
LINE
  5
A6E7
100
AcDbEntity
  8
KONTUR
 62
     7
100
AcDbLine
 10
120.191554
 20
10.414
 30
0.0
 11
119.556554
 21
9.144
 31
0.0
  0
LINE
  5
A6E8
100
AcDbEntity
  8
KONTUR
100
AcDbLine
 10
122.795054
 20
9.557752
 30
0.0
 11
122.795054
 21
10.476345
 31
0.0
  0
LINE
  5
A6E9
100
AcDbEntity
  8
KONTUR
100
AcDbLine
 10
117.588054
 20
9.557752
 30
0.0
 11
117.588054
 21
10.476345
 31
0.0
  0
CIRCLE
  5
A6EA
100
AcDbEntity
  8
KONTUR
100
AcDbCircle
 10
120.191554
 20
0.0
 30
0.0
 40
11.1125
  0
CIRCLE
  5
A6EB
100
AcDbEntity
  8
KONTUR
100
AcDbCircle
 10
120.191554
 20
0.0
 30
0.0
 40
12.319
  0
LINE
  5
A6EC
100
AcDbEntity
  8
SYMMETRIE
100
AcDbLine
 10
137.273054
 20
0.0
 30
0.0
 11
103.110054
 21
0.0
 31
0.0
  0
TEXT
  5
A6ED
100
AcDbEntity
  8
KONTUR
 62
     7
100
AcDbText
 10
125.943441
 20
2.551711
 30
0.0
 40
2.3622
  1
E
 50
285.0
 41
1.35
100
AcDbText
  0
ARC
  5
A6EE
100
AcDbEntity
  8
KONTUR
100
AcDbCircle
 10
120.191554
 20
0.0
 30
0.0
 40
9.906
100
AcDbArc
 50
105.237487
 51
74.762513
  0
CIRCLE
  5
A6EF
100
AcDbEntity
  8
KONTUR
100
AcDbCircle
 10
120.191554
 20
0.0
 30
0.0
 40
4.8006
  0
LINE
  5
A6F0
100
AcDbEntity
  8
KONTUR
100
AcDbLine
 10
108.850454
 20
-4.810116
 30
0.0
 11
108.850454
 21
4.810116
 31
0.0
  0
TEXT
  5
A6F1
100
AcDbEntity
  8
KONTUR
 62
     7
100
AcDbText
 10
116.564703
 20
5.167731
 30
0.0
 40
2.3622
  1
I
 50
25.0
 41
2.7
100
AcDbText
  0
TEXT
  5
A6F2
100
AcDbEntity
  8
KONTUR
 62
     7
100
AcDbText
 10
114.720533
 20
3.150782
 30
0.0
 40
2.3622
  1
N
 50
50.0
 41
1.35
100
AcDbText
  0
TEXT
  5
A6F3
100
AcDbEntity
  8
KONTUR
 62
     7
100
AcDbText
 10
113.901547
 20
0.543425
 30
0.0
 40
2.3622
  1
E
 50
75.0
 41
1.35
100
AcDbText
  0
TEXT
  5
A6F4
100
AcDbEntity
  8
KONTUR
 62
     7
100
AcDbText
 10
124.326135
 20
4.743488
 30
0.0
 40
2.3622
  1
N
 50
310.0
 41
1.35
100
AcDbText
  0
CIRCLE
  5
A6F5
100
AcDbEntity
  8
KONTUR
100
AcDbCircle
 10
120.191554
 20
0.0
 30
0.0
 40
3.4925
  0
LINE
  5
A6F6
100
AcDbEntity
  8
KONTUR
100
AcDbLine
 10
120.991654
 20
-0.461938
 30
0.0
 11
120.991654
 21
0.461938
 31
0.0
  0
LINE
  5
A6F7
100
AcDbEntity
  8
KONTUR
100
AcDbLine
 10
120.191554
 20
-0.923876
 30
0.0
 11
120.991654
 21
-0.461938
 31
0.0
  0
LINE
  5
A6F8
100
AcDbEntity
  8
KONTUR
100
AcDbLine
 10
119.391454
 20
-0.461938
 30
0.0
 11
120.191554
 21
-0.923876
 31
0.0
  0
LINE
  5
A6F9
100
AcDbEntity
  8
KONTUR
100
AcDbLine
 10
119.391454
 20
0.461938
 30
0.0
 11
119.391454
 21
-0.461938
 31
0.0
  0
LINE
  5
A6FA
100
AcDbEntity
  8
KONTUR
100
AcDbLine
 10
120.191554
 20
0.923876
 30
0.0
 11
119.391454
 21
0.461938
 31
0.0
  0
LINE
  5
A6FB
100
AcDbEntity
  8
KONTUR
100
AcDbLine
 10
120.991654
 20
0.461938
 30
0.0
 11
120.191554
 21
0.923876
 31
0.0
  0
TEXT
  5
A6FC
100
AcDbEntity
  8
KONTUR
 62
     7
100
AcDbText
 10
121.934072
 20
6.04641
 30
0.0
 40
2.3622
  1
I
 50
335.0
 41
2.7
100
AcDbText
  0
TEXT
  5
A6FD
100
AcDbEntity
  8
KONTUR
 62
     7
100
AcDbText
 10
119.215488
 20
6.216328
 30
0.0
 40
2.3622
  1
D
 41
1.35
100
AcDbText
  0
LINE
  5
A6FE
100
AcDbEntity
  8
KONTUR
 62
     7
100
AcDbLine
 10
119.556554
 20
9.144
 30
0.0
 11
120.826554
 21
9.144
 31
0.0
  0
LINE
  5
A6FF
100
AcDbEntity
  8
KONTUR
100
AcDbLine
 10
131.532654
 20
-4.810116
 30
0.0
 11
131.532654
 21
4.810116
 31
0.0
  0
ARC
  5
A700
100
AcDbEntity
  8
KONTUR
100
AcDbCircle
 10
120.191554
 20
0.0
 30
0.0
 40
10.795
100
AcDbArc
 50
76.044013
 51
103.955987
  0
LINE
  5
A74C
100
AcDbEntity
  8
SYMMETRIE
100
AcDbLine
 10
45.081
 20
-6.3555
 30
0.0
 11
45.081
 21
7.2445
 31
0.0
  0
LINE
  5
A74D
100
AcDbEntity
  8
KONTUR
100
AcDbLine
 10
2.681
 20
-9.906
 30
0.0
 11
2.681
 21
10.795
 31
0.0
  0
LINE
  5
A74E
100
AcDbEntity
  8
VERBORGEN
100
AcDbLine
 10
48.281
 20
-2.375
 30
0.0
 11
48.281
 21
2.375
 31
0.0
  0
CIRCLE
  5
A74F
100
AcDbEntity
  8
VERBORGEN
100
AcDbCircle
 10
45.081
 20
0.4445
 30
0.0
 40
1.8
  0
LINE
  5
A754
100
AcDbEntity
  8
VERBORGEN
100
AcDbLine
 10
28.829003
 20
-3.175
 30
0.0
 11
47.481
 21
-3.175
 31
0.0
  0
LINE
  5
A755
100
AcDbEntity
  8
VERBORGEN
100
AcDbLine
 10
28.829003
 20
3.175
 30
0.0
 11
47.481
 21
3.175
 31
0.0
  0
ARC
  5
A756
100
AcDbEntity
  8
VERBORGEN
100
AcDbCircle
 10
47.481
 20
-2.375
 30
0.0
 40
0.8
100
AcDbArc
 50
270.0
 51
0.0
  0
ARC
  5
A757
100
AcDbEntity
  8
VERBORGEN
100
AcDbCircle
 10
47.481
 20
2.375
 30
0.0
 40
0.8
100
AcDbArc
 50
0.0
 51
90.0
  0
VIEWPORT
  5
A744
100
AcDbEntity
 67
     1
  8
0
100
AcDbViewport
 10
7.074265
 20
4.5
 30
0.0
 40
14.148529
 41
9.0
 68
    -1
 69
     1
1001
ACAD
1000
MVIEW
1002
{
1070
    16
1010
0.0
1020
0.0
1030
0.0
1010
0.0
1020
0.0
1030
1.0
1040
0.0
1040
9.0
1040
7.074265
1040
4.5
1040
50.0
1040
0.0
1040
0.0
1070
     0
1070
   100
1070
     1
1070
     1
1070
     0
1070
     0
1070
     0
1070
     0
1040
0.0
1040
0.0
1040
0.0
1040
1.0
1040
1.0
1040
10.0
1040
10.0
1070
     0
1002
{
1002
}
1002
}
  0
ENDSEC
  0
SECTION
  2
OBJECTS
  0
DICTIONARY
  5
A70C
100
AcDbDictionary
  3
ACAD_GROUP
350
A70D
  3
ACAD_MLINESTYLE
350
A71A
  3
ACDBVARIABLEDICTIONARY
350
A738
  0
DICTIONARY
  5
A70D
102
{ACAD_REACTORS
330
A70C
102
}
100
AcDbDictionary
  0
DICTIONARY
  5
A71A
102
{ACAD_REACTORS
330
A70C
102
}
100
AcDbDictionary
  3
STANDARD
350
A71B
  0
DICTIONARY
  5
A738
102
{ACAD_REACTORS
330
A70C
102
}
100
AcDbDictionary
  3
DIMADEC
350
A739
  0
MLINESTYLE
  5
A71B
102
{ACAD_REACTORS
330
A71A
102
}
100
AcDbMlineStyle
  2
STANDARD
 70
     0
  3

 62
   256
 51
90.0
 52
90.0
 71
     2
 49
0.5
 62
   256
  6
BYLAYER
 49
-0.5
 62
   256
  6
BYLAYER
  0
DICTIONARYVAR
  5
A739
102
{ACAD_REACTORS
330
A738
102
}
100
DictionaryVariables
280
     0
  1
0
  0
ENDSEC
  0
EOF
