  0
SECTION
  2
HEADER
  9
$ACADVER
  1
AC1018
  9
$ACADMAINTVER
 70
     0
  9
$DWGCODEPAGE
  3
ANSI_949
  9
$INSBASE
 10
0.0
 20
0.0
 30
0.0
  9
$EXTMIN
 10
1.000000000000000E+20
 20
1.000000000000000E+20
 30
1.000000000000000E+20
  9
$EXTMAX
 10
-1.000000000000000E+20
 20
-1.000000000000000E+20
 30
-1.000000000000000E+20
  9
$LIMMIN
 10
0.0
 20
0.0
  9
$LIMMAX
 10
12.0
 20
9.0
  9
$ORTHOMODE
 70
     0
  9
$REGENMODE
 70
     1
  9
$FILLMODE
 70
     1
  9
$QTEXTMODE
 70
     0
  9
$MIRRTEXT
 70
     1
  9
$LTSCALE
 40
1.0
  9
$ATTMODE
 70
     1
  9
$TEXTSIZE
 40
0.2
  9
$TRACEWID
 40
0.05
  9
$TEXTSTYLE
  7
Standard
  9
$CLAYER
  8
0
  9
$CELTYPE
  6
ByLayer
  9
$CECOLOR
 62
   256
  9
$CELTSCALE
 40
1.0
  9
$DISPSILH
 70
     0
  9
$DIMSCALE
 40
1.0
  9
$DIMASZ
 40
0.18
  9
$DIMEXO
 40
0.0625
  9
$DIMDLI
 40
0.38
  9
$DIMRND
 40
0.0
  9
$DIMDLE
 40
0.0
  9
$DIMEXE
 40
0.18
  9
$DIMTP
 40
0.0
  9
$DIMTM
 40
0.0
  9
$DIMTXT
 40
0.18
  9
$DIMCEN
 40
0.09
  9
$DIMTSZ
 40
0.0
  9
$DIMTOL
 70
     0
  9
$DIMLIM
 70
     0
  9
$DIMTIH
 70
     1
  9
$DIMTOH
 70
     1
  9
$DIMSE1
 70
     0
  9
$DIMSE2
 70
     0
  9
$DIMTAD
 70
     0
  9
$DIMZIN
 70
     0
  9
$DIMBLK
  1

  9
$DIMASO
 70
     1
  9
$DIMSHO
 70
     1
  9
$DIMPOST
  1

  9
$DIMAPOST
  1

  9
$DIMALT
 70
     0
  9
$DIMALTD
 70
     2
  9
$DIMALTF
 40
25.4
  9
$DIMLFAC
 40
1.0
  9
$DIMTOFL
 70
     0
  9
$DIMTVP
 40
0.0
  9
$DIMTIX
 70
     0
  9
$DIMSOXD
 70
     0
  9
$DIMSAH
 70
     0
  9
$DIMBLK1
  1

  9
$DIMBLK2
  1

  9
$DIMSTYLE
  2
Standard
  9
$DIMCLRD
 70
     0
  9
$DIMCLRE
 70
     0
  9
$DIMCLRT
 70
     0
  9
$DIMTFAC
 40
1.0
  9
$DIMGAP
 40
0.09
  9
$DIMJUST
 70
     0
  9
$DIMSD1
 70
     0
  9
$DIMSD2
 70
     0
  9
$DIMTOLJ
 70
     1
  9
$DIMTZIN
 70
     0
  9
$DIMALTZ
 70
     0
  9
$DIMALTTZ
 70
     0
  9
$DIMUPT
 70
     0
  9
$DIMDEC
 70
     4
  9
$DIMTDEC
 70
     4
  9
$DIMALTU
 70
     2
  9
$DIMALTTD
 70
     2
  9
$DIMTXSTY
  7
Standard
  9
$DIMAUNIT
 70
     0
  9
$DIMADEC
 70
     0
  9
$DIMALTRND
 40
0.0
  9
$DIMAZIN
 70
     0
  9
$DIMDSEP
 70
    46
  9
$DIMATFIT
 70
     3
  9
$DIMFRAC
 70
     0
  9
$DIMLDRBLK
  1

  9
$DIMLUNIT
 70
     2
  9
$DIMLWD
 70
    -2
  9
$DIMLWE
 70
    -2
  9
$DIMTMOVE
 70
     0
  9
$LUNITS
 70
     2
  9
$LUPREC
 70
     4
  9
$SKETCHINC
 40
0.1
  9
$FILLETRAD
 40
0.5
  9
$AUNITS
 70
     0
  9
$AUPREC
 70
     0
  9
$MENU
  1
.
  9
$ELEVATION
 40
0.0
  9
$PELEVATION
 40
0.0
  9
$THICKNESS
 40
0.0
  9
$LIMCHECK
 70
     0
  9
$CHAMFERA
 40
0.5
  9
$CHAMFERB
 40
0.5
  9
$CHAMFERC
 40
1.0
  9
$CHAMFERD
 40
0.0
  9
$SKPOLY
 70
     0
  9
$TDCREATE
 40
2459875.506379884
  9
$TDUCREATE
 40
2459875.131379884
  9
$TDUPDATE
 40
2459875.506379896
  9
$TDUUPDATE
 40
2459875.131379896
  9
$TDINDWG
 40
0.0000000116
  9
$TDUSRTIMER
 40
0.0000000116
  9
$USRTIMER
 70
     1
  9
$ANGBASE
 50
0.0
  9
$ANGDIR
 70
     0
  9
$PDMODE
 70
     0
  9
$PDSIZE
 40
0.0
  9
$PLINEWID
 40
0.0
  9
$SPLFRAME
 70
     0
  9
$SPLINETYPE
 70
     6
  9
$SPLINESEGS
 70
     8
  9
$HANDSEED
  5
47
  9
$SURFTAB1
 70
     6
  9
$SURFTAB2
 70
     6
  9
$SURFTYPE
 70
     6
  9
$SURFU
 70
     6
  9
$SURFV
 70
     6
  9
$UCSBASE
  2

  9
$UCSNAME
  2

  9
$UCSORG
 10
0.0
 20
0.0
 30
0.0
  9
$UCSXDIR
 10
1.0
 20
0.0
 30
0.0
  9
$UCSYDIR
 10
0.0
 20
1.0
 30
0.0
  9
$UCSORTHOREF
  2

  9
$UCSORTHOVIEW
 70
     0
  9
$UCSORGTOP
 10
0.0
 20
0.0
 30
0.0
  9
$UCSORGBOTTOM
 10
0.0
 20
0.0
 30
0.0
  9
$UCSORGLEFT
 10
0.0
 20
0.0
 30
0.0
  9
$UCSORGRIGHT
 10
0.0
 20
0.0
 30
0.0
  9
$UCSORGFRONT
 10
0.0
 20
0.0
 30
0.0
  9
$UCSORGBACK
 10
0.0
 20
0.0
 30
0.0
  9
$PUCSBASE
  2

  9
$PUCSNAME
  2

  9
$PUCSORG
 10
0.0
 20
0.0
 30
0.0
  9
$PUCSXDIR
 10
1.0
 20
0.0
 30
0.0
  9
$PUCSYDIR
 10
0.0
 20
1.0
 30
0.0
  9
$PUCSORTHOREF
  2

  9
$PUCSORTHOVIEW
 70
     0
  9
$PUCSORGTOP
 10
0.0
 20
0.0
 30
0.0
  9
$PUCSORGBOTTOM
 10
0.0
 20
0.0
 30
0.0
  9
$PUCSORGLEFT
 10
0.0
 20
0.0
 30
0.0
  9
$PUCSORGRIGHT
 10
0.0
 20
0.0
 30
0.0
  9
$PUCSORGFRONT
 10
0.0
 20
0.0
 30
0.0
  9
$PUCSORGBACK
 10
0.0
 20
0.0
 30
0.0
  9
$USERI1
 70
     0
  9
$USERI2
 70
     0
  9
$USERI3
 70
     0
  9
$USERI4
 70
     0
  9
$USERI5
 70
     0
  9
$USERR1
 40
0.0
  9
$USERR2
 40
0.0
  9
$USERR3
 40
0.0
  9
$USERR4
 40
0.0
  9
$USERR5
 40
0.0
  9
$WORLDVIEW
 70
     1
  9
$SHADEDGE
 70
     3
  9
$SHADEDIF
 70
    70
  9
$TILEMODE
 70
     1
  9
$MAXACTVP
 70
    64
  9
$PINSBASE
 10
0.0
 20
0.0
 30
0.0
  9
$PLIMCHECK
 70
     0
  9
$PEXTMIN
 10
1.000000000000000E+20
 20
1.000000000000000E+20
 30
1.000000000000000E+20
  9
$PEXTMAX
 10
-1.000000000000000E+20
 20
-1.000000000000000E+20
 30
-1.000000000000000E+20
  9
$PLIMMIN
 10
0.0
 20
0.0
  9
$PLIMMAX
 10
12.0
 20
9.0
  9
$UNITMODE
 70
     0
  9
$VISRETAIN
 70
     1
  9
$PLINEGEN
 70
     0
  9
$PSLTSCALE
 70
     1
  9
$TREEDEPTH
 70
  3020
  9
$CMLSTYLE
  2
Standard
  9
$CMLJUST
 70
     0
  9
$CMLSCALE
 40
1.0
  9
$PROXYGRAPHICS
 70
     1
  9
$MEASUREMENT
 70
     0
  9
$CELWEIGHT
370
    -1
  9
$ENDCAPS
280
     0
  9
$JOINSTYLE
280
     0
  9
$LWDISPLAY
290
     1
  9
$INSUNITS
 70
     1
  9
$HYPERLINKBASE
  1

  9
$STYLESHEET
  1

  9
$XEDIT
290
     1
  9
$CEPSNTYPE
380
     0
  9
$PSTYLEMODE
290
     1
  9
$FINGERPRINTGUID
  2
{077D8AC4-BE1D-4A5C-B70E-5CB7B407AA7D}
  9
$VERSIONGUID
  2
{FAEB1C32-E019-11D5-929B-00C0DF256EC4}
  9
$EXTNAMES
290
     1
  9
$PSVPSCALE
 40
0.0
  9
$OLESTARTUP
290
     0
  9
$SORTENTS
280
   127
  9
$INDEXCTL
280
     0
  9
$HIDETEXT
280
     1
  9
$XCLIPFRAME
290
     0
  9
$HALOGAP
280
     0
  9
$OBSCOLOR
 70
   257
  9
$OBSLTYPE
280
     0
  9
$INTERSECTIONDISPLAY
280
     0
  9
$INTERSECTIONCOLOR
 70
   257
  9
$DIMASSOC
280
     2
  9
$PROJECTNAME
  1

  0
ENDSEC
  0
SECTION
  2
CLASSES
  0
CLASS
  1
ACDBDICTIONARYWDFLT
  2
AcDbDictionaryWithDefault
  3
ObjectDBX Classes
 90
        0
 91
        3
280
     0
281
     0
  0
CLASS
  1
VISUALSTYLE
  2
AcDbVisualStyle
  3
ObjectDBX Classes
 90
     4095
 91
        3
280
     0
281
     0
  0
ENDSEC
  0
SECTION
  2
TABLES
  0
TABLE
  2
VPORT
  5
8
330
0
100
AcDbSymbolTable
 70
     1
  0
VPORT
  5
29
330
8
100
AcDbSymbolTableRecord
100
AcDbViewportTableRecord
  2
*Active
 70
     0
 10
0.0
 20
0.0
 11
1.0
 21
1.0
 12
0.0
 22
0.0
 13
0.0
 23
0.0
 14
0.5
 24
0.5
 15
0.5
 25
0.5
 16
0.0
 26
0.0
 36
1.0
 17
148.4999796178229
 27
-105.0008259828644
 37
0.0
 40
210.0016519657288
 41
1.414274394775308
 42
50.0
 43
0.0
 44
0.0
 50
0.0
 51
0.0
 71
     0
 72
   100
 73
     1
 74
     3
 75
     0
 76
     0
 77
     0
 78
     0
281
     0
 65
     1
110
0.0
120
0.0
130
0.0
111
1.0
121
0.0
131
0.0
112
0.0
122
1.0
132
0.0
 79
     0
146
0.0
  0
ENDTAB
  0
TABLE
  2
LTYPE
  5
5
330
0
100
AcDbSymbolTable
 70
     1
  0
LTYPE
  5
14
330
5
100
AcDbSymbolTableRecord
100
AcDbLinetypeTableRecord
  2
ByBlock
 70
     0
  3

 72
    65
 73
     0
 40
0.0
  0
LTYPE
  5
15
330
5
100
AcDbSymbolTableRecord
100
AcDbLinetypeTableRecord
  2
ByLayer
 70
     0
  3

 72
    65
 73
     0
 40
0.0
  0
LTYPE
  5
16
330
5
100
AcDbSymbolTableRecord
100
AcDbLinetypeTableRecord
  2
Continuous
 70
     0
  3
Solid line
 72
    65
 73
     0
 40
0.0
  0
ENDTAB
  0
TABLE
  2
LAYER
  5
2
330
0
100
AcDbSymbolTable
 70
     2
  0
LAYER
  5
10
330
2
100
AcDbSymbolTableRecord
100
AcDbLayerTableRecord
  2
0
 70
     0
 62
     7
  6
Continuous
370
    -3
390
F
  0
LAYER
  5
3B
330
2
100
AcDbSymbolTableRecord
100
AcDbLayerTableRecord
  2
\U+B808\U+C774\U+C5B4 1
 70
     0
 62
     7
  6
Continuous
370
    -3
390
F
  0
ENDTAB
  0
TABLE
  2
STYLE
  5
3
330
0
100
AcDbSymbolTable
 70
     1
  0
STYLE
  5
11
330
3
100
AcDbSymbolTableRecord
100
AcDbTextStyleTableRecord
  2
Standard
 70
     0
 40
0.0
 41
1.0
 50
0.0
 71
     0
 42
0.2
  3
txt
  4

  0
ENDTAB
  0
TABLE
  2
VIEW
  5
6
330
0
100
AcDbSymbolTable
 70
     0
  0
ENDTAB
  0
TABLE
  2
UCS
  5
7
330
0
100
AcDbSymbolTable
 70
     0
  0
ENDTAB
  0
TABLE
  2
APPID
  5
9
330
0
100
AcDbSymbolTable
 70
     1
  0
APPID
  5
12
330
9
100
AcDbSymbolTableRecord
100
AcDbRegAppTableRecord
  2
ACAD
 70
     0
  0
ENDTAB
  0
TABLE
  2
DIMSTYLE
  5
A
330
0
100
AcDbSymbolTable
 70
     1
100
AcDbDimStyleTable
  0
DIMSTYLE
105
27
330
A
100
AcDbSymbolTableRecord
100
AcDbDimStyleTableRecord
  2
Standard
 70
     0
340
11
  0
ENDTAB
  0
TABLE
  2
BLOCK_RECORD
  5
1
330
0
100
AcDbSymbolTable
 70
     1
  0
BLOCK_RECORD
  5
1F
330
1
100
AcDbSymbolTableRecord
100
AcDbBlockTableRecord
  2
*Model_Space
340
22
  0
BLOCK_RECORD
  5
1B
330
1
100
AcDbSymbolTableRecord
100
AcDbBlockTableRecord
  2
*Paper_Space
340
1E
  0
BLOCK_RECORD
  5
23
330
1
100
AcDbSymbolTableRecord
100
AcDbBlockTableRecord
  2
*Paper_Space0
340
26
  0
ENDTAB
  0
ENDSEC
  0
SECTION
  2
BLOCKS
  0
BLOCK
  5
20
330
1F
100
AcDbEntity
  8
0
100
AcDbBlockBegin
  2
*Model_Space
 70
     0
 71
     0
 10
0.0
 20
0.0
 30
0.0
  3
*Model_Space
  1

  0
ENDBLK
  5
21
330
1F
100
AcDbEntity
  8
0
100
AcDbBlockEnd
  0
BLOCK
  5
1C
330
1B
100
AcDbEntity
 67
     1
  8
0
100
AcDbBlockBegin
  2
*Paper_Space
 70
     0
 71
     0
 10
0.0
 20
0.0
 30
0.0
  3
*Paper_Space
  1

  0
ENDBLK
  5
1D
330
1B
100
AcDbEntity
 67
     1
  8
0
100
AcDbBlockEnd
  0
BLOCK
  5
24
330
23
100
AcDbEntity
  8
0
100
AcDbBlockBegin
  2
*Paper_Space0
 70
     0
 71
     0
 10
0.0
 20
0.0
 30
0.0
  3
*Paper_Space0
  1

  0
ENDBLK
  5
25
330
23
100
AcDbEntity
  8
0
100
AcDbBlockEnd
  0
ENDSEC
  0
SECTION
  2
ENTITIES
  0
SPLINE
  5
3C
330
1F
100
AcDbEntity
  8
\U+B808\U+C774\U+C5B4 1
 62
   250
420
  2234388
370
    35
100
AcDbSpline
210
0.0
220
0.0
230
1.0
 70
    11
 71
     3
 72
   161
 73
   157
 74
     0
 42
0.0000000001
 43
0.0000000001
 40
0.0
 40
0.0
 40
0.0
 40
0.0
 40
1.0
 40
1.0
 40
1.0
 40
2.0
 40
2.0
 40
2.0
 40
3.0
 40
3.0
 40
3.0
 40
4.0
 40
4.0
 40
4.0
 40
5.0
 40
5.0
 40
5.0
 40
6.0
 40
6.0
 40
6.0
 40
7.0
 40
7.0
 40
7.0
 40
8.0
 40
8.0
 40
8.0
 40
9.0
 40
9.0
 40
9.0
 40
10.0
 40
10.0
 40
10.0
 40
11.0
 40
11.0
 40
11.0
 40
12.0
 40
12.0
 40
12.0
 40
13.0
 40
13.0
 40
13.0
 40
14.0
 40
14.0
 40
14.0
 40
15.0
 40
15.0
 40
15.0
 40
16.0
 40
16.0
 40
16.0
 40
17.0
 40
17.0
 40
17.0
 40
18.0
 40
18.0
 40
18.0
 40
19.0
 40
19.0
 40
19.0
 40
20.0
 40
20.0
 40
20.0
 40
21.0
 40
21.0
 40
21.0
 40
22.0
 40
22.0
 40
22.0
 40
23.0
 40
23.0
 40
23.0
 40
24.0
 40
24.0
 40
24.0
 40
25.0
 40
25.0
 40
25.0
 40
26.0
 40
26.0
 40
26.0
 40
27.0
 40
27.0
 40
27.0
 40
28.0
 40
28.0
 40
28.0
 40
29.0
 40
29.0
 40
29.0
 40
30.0
 40
30.0
 40
30.0
 40
31.0
 40
31.0
 40
31.0
 40
32.0
 40
32.0
 40
32.0
 40
33.0
 40
33.0
 40
33.0
 40
34.0
 40
34.0
 40
34.0
 40
35.0
 40
35.0
 40
35.0
 40
36.0
 40
36.0
 40
36.0
 40
37.0
 40
37.0
 40
37.0
 40
38.0
 40
38.0
 40
38.0
 40
39.0
 40
39.0
 40
39.0
 40
40.0
 40
40.0
 40
40.0
 40
41.0
 40
41.0
 40
41.0
 40
42.0
 40
42.0
 40
42.0
 40
43.0
 40
43.0
 40
43.0
 40
44.0
 40
44.0
 40
44.0
 40
45.0
 40
45.0
 40
45.0
 40
46.0
 40
46.0
 40
46.0
 40
47.0
 40
47.0
 40
47.0
 40
48.0
 40
48.0
 40
48.0
 40
49.0
 40
49.0
 40
49.0
 40
50.0
 40
50.0
 40
50.0
 40
51.0
 40
51.0
 40
51.0
 40
52.0
 40
52.0
 40
52.0
 40
52.0
 10
260.3475883680728
 20
-70.55159367810863
 30
0.0
 10
255.1144883259783
 20
-73.90556638777362
 30
0.0
 10
252.5813096156741
 20
-79.03755287737603
 30
0.0
 10
251.6755940126019
 20
-85.06354164540079
 30
0.0
 10
251.641487567298
 20
-85.28127168006857
 30
0.0
 10
251.6156493511586
 20
-85.50106877202751
 30
0.0
 10
251.579131339015
 20
-85.71931557101809
 30
0.0
 10
251.5722411480444
 20
-85.7601399525183
 30
0.0
 10
251.5302109831244
 20
-85.79372963349948
 30
0.0
 10
251.5033392383395
 20
-85.83145342906298
 30
0.0
 10
249.4038980496282
 20
-85.20616859849012
 30
0.0
 10
247.3409748730606
 20
-84.3833075418382
 30
0.0
 10
245.1981254812352
 20
-83.99039440174546
 30
0.0
 10
237.873163460497
 20
-82.64611814340097
 30
0.0
 10
230.978838375415
 20
-83.40024954512216
 30
0.0
 10
225.4398138542303
 20
-89.01644420517646
 30
0.0
 10
222.9917290024118
 20
-91.49760197365339
 30
0.0
 10
221.5709716242948
 20
-94.5358316820952
 30
0.0
 10
221.6856933039536
 20
-98.14009057876359
 30
0.0
 10
221.698440157249
 20
-98.56521536164342
 30
0.0
 10
221.6495198013585
 20
-98.99326847568571
 30
0.0
 10
221.622303547025
 20
-99.57945147250098
 30
0.0
 10
218.1775525713237
 20
-96.44854869550592
 30
0.0
 10
214.2360188266493
 20
-95.64325762582877
 30
0.0
 10
209.9306829987326
 20
-96.17638615217119
 30
0.0
 10
205.378678334072
 20
-96.73965926400953
 30
0.0
 10
202.2023002966717
 20
-99.06613224519874
 30
0.0
 10
200.4532253188103
 20
-103.551646566994
 30
0.0
 10
200.3533175497381
 20
-103.2343532728025
 30
0.0
 10
200.2475531183409
 20
-102.9198160549992
 30
0.0
 10
200.159703183467
 20
-102.599422174871
 30
0.0
 10
199.8244953927522
 20
-101.4074191369745
 30
0.0
 10
199.6990939170891
 20
-100.1068955912927
 30
0.0
 10
199.1327202193141
 20
-99.0383992265425
 30
0.0
 10
196.8951307016443
 20
-94.8141953973034
 30
0.0
 10
193.0007947651179
 20
-94.05713566441975
 30
0.0
 10
188.9028536854132
 20
-97.6601887776683
 30
0.0
 10
186.9277804437195
 20
-99.39737817610552
 30
0.0
 10
184.6281792073152
 20
-100.8014268411191
 30
0.0
 10
182.3464924674342
 20
-102.1403632014614
 30
0.0
 10
180.5853596553745
 20
-103.1738918470364
 30
0.0
 10
179.1056911444597
 20
-102.5027872465097
 30
0.0
 10
178.4793727852413
 20
-100.5613036857972
 30
0.0
 10
178.1293510839399
 20
-99.47540958884643
 30
0.0
 10
177.9291910362469
 20
-98.30769447412099
 30
0.0
 10
177.8802706803563
 20
-97.16788463282609
 30
0.0
 10
177.7900091786428
 20
-95.03054739377708
 30
0.0
 10
177.8144693565881
 20
-92.88631996375759
 30
0.0
 10
177.8668348079639
 20
-90.74605439354613
 30
0.0
 10
177.9701876725213
 20
-86.355796961918
 30
0.0
 10
174.4844400605456
 20
-84.24946558223625
 30
0.0
 10
170.498120074563
 20
-85.09110240928278
 30
0.0
 10
168.9764213987281
 20
-85.41149628941102
 30
0.0
 10
167.5439506959612
 20
-86.14306231570382
 30
0.0
 10
165.9226887606027
 20
-86.74199216581451
 30
0.0
 10
166.3998344853098
 20
-85.83265921248281
 30
0.0
 10
166.8979952924769
 20
-85.01875540409253
 30
0.0
 10
167.2697210953353
 20
-84.15128036090663
 30
0.0
 10
168.6391465507222
 20
-80.95802135562856
 30
0.0
 10
167.9046521932669
 20
-77.90049911246932
 30
0.0
 10
166.3009602448831
 20
-75.07965492914676
 30
0.0
 10
164.7213839648961
 20
-72.29997963687292
 30
0.0
 10
162.5161783447876
 20
-70.02587210705951
 30
0.0
 10
159.5041313620337
 20
-68.72500405182917
 30
0.0
 10
158.5136664100244
 20
-68.29677868301262
 30
0.0
 10
157.4480983764366
 20
-68.04218612665265
 30
0.0
 10
156.4421304947437
 20
-67.71800264149064
 30
0.0
 10
157.5862467053951
 20
-66.55958928457538
 30
0.0
 10
158.8478406720936
 20
-65.51090221886534
 30
0.0
 10
159.8255587708075
 20
-64.24379609939044
 30
0.0
 10
161.2855902374564
 20
-62.34830456340598
 30
0.0
 10
162.0752061226756
 20
-60.10193005224883
 30
0.0
 10
162.2536620688116
 20
-57.71585691916479
 30
0.0
 10
162.9743760443259
 20
-48.18603378786669
 30
0.0
 10
157.9056070568778
 20
-41.92422823387658
 30
0.0
 10
150.4659233564807
 20
-37.02874754933656
 30
0.0
 10
150.0194389815924
 20
-36.73505315921901
 30
0.0
 10
149.5633083393453
 20
-36.45651718923656
 30
0.0
 10
149.1071776970982
 20
-36.17832572880264
 30
0.0
 10
148.9538709480046
 20
-36.08324109340975
 30
0.0
 10
148.7885063647126
 20
-36.00641546408868
 30
0.0
 10
148.5001518725972
 20
-35.85396998886637
 30
0.0
 10
156.0841850738262
 20
-28.02533500818464
 30
0.0
 10
157.5097655856226
 20
-19.42844373429219
 30
0.0
 10
152.3262749185157
 20
-9.88242865421342
 30
0.0
 10
152.4292832735246
 20
-9.786999509272
 30
0.0
 10
152.5343586858247
 20
-9.690709090459267
 30
0.0
 10
152.6390895885764
 20
-9.595624455066373
 30
0.0
 10
153.6447129607208
 20
-10.12565239547206
 30
0.0
 10
154.7089029561145
 20
-10.56903618442371
 30
0.0
 10
155.6494140235877
 20
-11.19845512957886
 30
0.0
 10
162.4879285618086
 20
-15.77371418876491
 30
0.0
 10
168.3879990898475
 20
-21.30584851897909
 30
0.0
 10
172.5958387155316
 20
-28.44615342170791
 30
0.0
 10
175.8204480897255
 20
-33.91782632615596
 30
0.0
 10
178.172759287054
 20
-39.77018228172413
 30
0.0
 10
179.1666693345486
 20
-46.06730006443804
 30
0.0
 10
179.7464789047162
 20
-49.73460420848649
 30
0.0
 10
180.1271619558363
 20
-53.44824488681155
 30
0.0
 10
180.3214653412044
 20
-57.15585664803743
 30
0.0
 10
180.4640922942937
 20
-59.85043808182559
 30
0.0
 10
180.1044243256336
 20
-62.56792940059066
 30
0.0
 10
180.0747965044605
 20
-65.27577445199704
 30
0.0
 10
180.0637721989077
 20
-66.27588567136506
 30
0.0
 10
180.2460177500774
 20
-67.31389294107083
 30
0.0
 10
180.5367838090325
 20
-68.27628036487538
 30
0.0
 10
181.4790174242483
 20
-71.3894409001214
 30
0.0
 10
183.9240016901301
 20
-71.91809080233298
 30
0.0
 10
187.2564425530123
 20
-70.6973212171347
 30
0.0
 10
188.3736870188788
 20
-70.28752710916423
 30
0.0
 10
189.3706976523101
 20
-69.56285127384193
 30
0.0
 10
190.4428113673198
 20
-69.02007648014082
 30
0.0
 10
190.8968749522758
 20
-68.78925508262908
 30
0.0
 10
191.4015814408649
 20
-68.65661890644697
 30
0.0
 10
192.2397731724262
 20
-68.34742158664578
 30
0.0
 10
192.2397731724262
 20
-69.87187633886884
 30
0.0
 10
192.1253960023159
 20
-71.14776745183111
 30
0.0
 10
192.2787027514095
 20
-72.38937986471515
 30
0.0
 10
192.3824001255155
 20
-73.24531383802548
 30
0.0
 10
192.6259683763227
 20
-74.35928546318101
 30
0.0
 10
193.2216253857224
 20
-74.81231551949136
 30
0.0
 10
194.0412136016633
 20
-75.43605005709585
 30
0.0
 10
195.0637179416855
 20
-74.92118053682526
 30
0.0
 10
195.842998540449
 20
-74.1715277592349
 30
0.0
 10
196.4469237790133
 20
-73.58706731016227
 30
0.0
 10
197.1101046599239
 20
-73.05273300040001
 30
0.0
 10
197.7898219991637
 20
-72.55577797665272
 30
0.0
 10
198.841954160359
 20
-71.78976099550742
 30
0.0
 10
199.3845566992858
 20
-72.0052517181098
 30
0.0
 10
199.6015977148566
 20
-73.25840520086943
 30
0.0
 10
199.7369899674269
 20
-74.04440373582918
 30
0.0
 10
199.6580972808146
 20
-74.89361977294327
 30
0.0
 10
199.9216470854363
 20
-75.62776962085
 30
0.0
 10
200.4359998413841
 20
-77.07384845078363
 30
0.0
 10
200.9148681138338
 20
-78.60708819649406
 30
0.0
 10
201.7857882525049
 20
-79.83526473698564
 30
0.0
 10
202.986059519566
 20
-81.52301701520953
 30
0.0
 10
204.571492461878
 20
-81.7638291896285
 30
0.0
 10
206.6409613198676
 20
-80.68258597158282
 30
0.0
 10
208.2828938281376
 20
-79.82406817665857
 30
0.0
 10
209.9644449344881
 20
-78.86288653627386
 30
0.0
 10
211.2818494480476
 20
-77.58871797105421
 30
0.0
 10
217.6432182615614
 20
-71.43887802033473
 30
0.0
 10
225.1363009419798
 20
-67.2492974007224
 30
0.0
 10
233.4892794555166
 20
-64.56108939358195
 30
0.0
 10
237.9692816245355
 20
-63.11880016868211
 30
0.0
 10
242.589499179804
 20
-62.45734183551414
 30
0.0
 10
247.3306395866049
 20
-62.29955646228969
 30
0.0
 10
253.7495414947223
 20
-62.08544377788142
 30
0.0
 10
259.8914577258258
 20
-63.26711152932211
 30
0.0
 10
265.9589598944478
 20
-65.13745386826425
 30
0.0
 10
266.1704887572421
 20
-65.20308293725826
 30
0.0
 10
267.6074380841398
 20
-65.79288328433303
 30
0.0
 10
267.8100096986725
 20
-65.88124998352968
 30
0.0
 10
267.3180500633788
 20
-66.14014890924622
 30
0.0
 10
262.1927815099726
 20
-69.36820337892532
 30
0.0
 10
260.3475883680728
 20
-70.55159367810863
 30
0.0
  0
HATCH
  5
3D
330
1F
100
AcDbEntity
  8
\U+B808\U+C774\U+C5B4 1
 62
     7
420
 16711422
100
AcDbHatch
 10
0.0
 20
0.0
 30
0.0
210
0.0
220
0.0
230
1.0
  2
SOLID
 70
     1
 71
     0
 91
        1
 92
        1
 93
        1
 72
     4
 94
        3
 73
     0
 74
     1
 95
      161
 96
      157
 40
0.0
 40
0.0
 40
0.0
 40
0.0
 40
1.0
 40
1.0
 40
1.0
 40
2.0
 40
2.0
 40
2.0
 40
3.0
 40
3.0
 40
3.0
 40
4.0
 40
4.0
 40
4.0
 40
5.0
 40
5.0
 40
5.0
 40
6.0
 40
6.0
 40
6.0
 40
7.0
 40
7.0
 40
7.0
 40
8.0
 40
8.0
 40
8.0
 40
9.0
 40
9.0
 40
9.0
 40
10.0
 40
10.0
 40
10.0
 40
11.0
 40
11.0
 40
11.0
 40
12.0
 40
12.0
 40
12.0
 40
13.0
 40
13.0
 40
13.0
 40
14.0
 40
14.0
 40
14.0
 40
15.0
 40
15.0
 40
15.0
 40
16.0
 40
16.0
 40
16.0
 40
17.0
 40
17.0
 40
17.0
 40
18.0
 40
18.0
 40
18.0
 40
19.0
 40
19.0
 40
19.0
 40
20.0
 40
20.0
 40
20.0
 40
21.0
 40
21.0
 40
21.0
 40
22.0
 40
22.0
 40
22.0
 40
23.0
 40
23.0
 40
23.0
 40
24.0
 40
24.0
 40
24.0
 40
25.0
 40
25.0
 40
25.0
 40
26.0
 40
26.0
 40
26.0
 40
27.0
 40
27.0
 40
27.0
 40
28.0
 40
28.0
 40
28.0
 40
29.0
 40
29.0
 40
29.0
 40
30.0
 40
30.0
 40
30.0
 40
31.0
 40
31.0
 40
31.0
 40
32.0
 40
32.0
 40
32.0
 40
33.0
 40
33.0
 40
33.0
 40
34.0
 40
34.0
 40
34.0
 40
35.0
 40
35.0
 40
35.0
 40
36.0
 40
36.0
 40
36.0
 40
37.0
 40
37.0
 40
37.0
 40
38.0
 40
38.0
 40
38.0
 40
39.0
 40
39.0
 40
39.0
 40
40.0
 40
40.0
 40
40.0
 40
41.0
 40
41.0
 40
41.0
 40
42.0
 40
42.0
 40
42.0
 40
43.0
 40
43.0
 40
43.0
 40
44.0
 40
44.0
 40
44.0
 40
45.0
 40
45.0
 40
45.0
 40
46.0
 40
46.0
 40
46.0
 40
47.0
 40
47.0
 40
47.0
 40
48.0
 40
48.0
 40
48.0
 40
49.0
 40
49.0
 40
49.0
 40
50.0
 40
50.0
 40
50.0
 40
51.0
 40
51.0
 40
51.0
 40
52.0
 40
52.0
 40
52.0
 40
52.0
 10
260.3475883680728
 20
-70.55159367810863
 10
255.1144883259783
 20
-73.90556638777362
 10
252.5813096156741
 20
-79.03755287737603
 10
251.6755940126019
 20
-85.06354164540079
 10
251.641487567298
 20
-85.28127168006857
 10
251.6156493511586
 20
-85.50106877202751
 10
251.579131339015
 20
-85.71931557101809
 10
251.5722411480444
 20
-85.7601399525183
 10
251.5302109831244
 20
-85.79372963349948
 10
251.5033392383395
 20
-85.83145342906298
 10
249.4038980496282
 20
-85.20616859849012
 10
247.3409748730606
 20
-84.3833075418382
 10
245.1981254812352
 20
-83.99039440174546
 10
237.873163460497
 20
-82.64611814340097
 10
230.978838375415
 20
-83.40024954512216
 10
225.4398138542303
 20
-89.01644420517646
 10
222.9917290024118
 20
-91.49760197365339
 10
221.5709716242948
 20
-94.5358316820952
 10
221.6856933039536
 20
-98.14009057876359
 10
221.698440157249
 20
-98.56521536164342
 10
221.6495198013585
 20
-98.99326847568571
 10
221.622303547025
 20
-99.57945147250098
 10
218.1775525713237
 20
-96.44854869550592
 10
214.2360188266493
 20
-95.64325762582877
 10
209.9306829987326
 20
-96.17638615217119
 10
205.378678334072
 20
-96.73965926400953
 10
202.2023002966717
 20
-99.06613224519874
 10
200.4532253188103
 20
-103.551646566994
 10
200.3533175497381
 20
-103.2343532728025
 10
200.2475531183409
 20
-102.9198160549992
 10
200.159703183467
 20
-102.599422174871
 10
199.8244953927522
 20
-101.4074191369745
 10
199.6990939170891
 20
-100.1068955912927
 10
199.1327202193141
 20
-99.0383992265425
 10
196.8951307016443
 20
-94.8141953973034
 10
193.0007947651179
 20
-94.05713566441975
 10
188.9028536854132
 20
-97.6601887776683
 10
186.9277804437195
 20
-99.39737817610552
 10
184.6281792073152
 20
-100.8014268411191
 10
182.3464924674342
 20
-102.1403632014614
 10
180.5853596553745
 20
-103.1738918470364
 10
179.1056911444597
 20
-102.5027872465097
 10
178.4793727852413
 20
-100.5613036857972
 10
178.1293510839399
 20
-99.47540958884643
 10
177.9291910362469
 20
-98.30769447412099
 10
177.8802706803563
 20
-97.16788463282609
 10
177.7900091786428
 20
-95.03054739377708
 10
177.8144693565881
 20
-92.88631996375759
 10
177.8668348079639
 20
-90.74605439354613
 10
177.9701876725213
 20
-86.355796961918
 10
174.4844400605456
 20
-84.24946558223625
 10
170.498120074563
 20
-85.09110240928278
 10
168.9764213987281
 20
-85.41149628941102
 10
167.5439506959612
 20
-86.14306231570382
 10
165.9226887606027
 20
-86.74199216581451
 10
166.3998344853098
 20
-85.83265921248281
 10
166.8979952924769
 20
-85.01875540409253
 10
167.2697210953353
 20
-84.15128036090663
 10
168.6391465507222
 20
-80.95802135562856
 10
167.9046521932669
 20
-77.90049911246932
 10
166.3009602448831
 20
-75.07965492914676
 10
164.7213839648961
 20
-72.29997963687292
 10
162.5161783447876
 20
-70.02587210705951
 10
159.5041313620337
 20
-68.72500405182917
 10
158.5136664100244
 20
-68.29677868301262
 10
157.4480983764366
 20
-68.04218612665265
 10
156.4421304947437
 20
-67.71800264149064
 10
157.5862467053951
 20
-66.55958928457538
 10
158.8478406720936
 20
-65.51090221886534
 10
159.8255587708075
 20
-64.24379609939044
 10
161.2855902374564
 20
-62.34830456340598
 10
162.0752061226756
 20
-60.10193005224883
 10
162.2536620688116
 20
-57.71585691916479
 10
162.9743760443259
 20
-48.18603378786669
 10
157.9056070568778
 20
-41.92422823387658
 10
150.4659233564807
 20
-37.02874754933656
 10
150.0194389815924
 20
-36.73505315921901
 10
149.5633083393453
 20
-36.45651718923656
 10
149.1071776970982
 20
-36.17832572880264
 10
148.9538709480046
 20
-36.08324109340975
 10
148.7885063647126
 20
-36.00641546408868
 10
148.5001518725972
 20
-35.85396998886637
 10
156.0841850738262
 20
-28.02533500818464
 10
157.5097655856226
 20
-19.42844373429219
 10
152.3262749185157
 20
-9.88242865421342
 10
152.4292832735246
 20
-9.786999509272
 10
152.5343586858247
 20
-9.690709090459267
 10
152.6390895885764
 20
-9.595624455066373
 10
153.6447129607208
 20
-10.12565239547206
 10
154.7089029561145
 20
-10.56903618442371
 10
155.6494140235877
 20
-11.19845512957886
 10
162.4879285618086
 20
-15.77371418876491
 10
168.3879990898475
 20
-21.30584851897909
 10
172.5958387155316
 20
-28.44615342170791
 10
175.8204480897255
 20
-33.91782632615596
 10
178.172759287054
 20
-39.77018228172413
 10
179.1666693345486
 20
-46.06730006443804
 10
179.7464789047162
 20
-49.73460420848649
 10
180.1271619558363
 20
-53.44824488681155
 10
180.3214653412044
 20
-57.15585664803743
 10
180.4640922942937
 20
-59.85043808182559
 10
180.1044243256336
 20
-62.56792940059066
 10
180.0747965044605
 20
-65.27577445199704
 10
180.0637721989077
 20
-66.27588567136506
 10
180.2460177500774
 20
-67.31389294107083
 10
180.5367838090325
 20
-68.27628036487538
 10
181.4790174242483
 20
-71.3894409001214
 10
183.9240016901301
 20
-71.91809080233298
 10
187.2564425530123
 20
-70.6973212171347
 10
188.3736870188788
 20
-70.28752710916423
 10
189.3706976523101
 20
-69.56285127384193
 10
190.4428113673198
 20
-69.02007648014082
 10
190.8968749522758
 20
-68.78925508262908
 10
191.4015814408649
 20
-68.65661890644697
 10
192.2397731724262
 20
-68.34742158664578
 10
192.2397731724262
 20
-69.87187633886884
 10
192.1253960023159
 20
-71.14776745183111
 10
192.2787027514095
 20
-72.38937986471515
 10
192.3824001255155
 20
-73.24531383802548
 10
192.6259683763227
 20
-74.35928546318101
 10
193.2216253857224
 20
-74.81231551949136
 10
194.0412136016633
 20
-75.43605005709585
 10
195.0637179416855
 20
-74.92118053682526
 10
195.842998540449
 20
-74.1715277592349
 10
196.4469237790133
 20
-73.58706731016227
 10
197.1101046599239
 20
-73.05273300040001
 10
197.7898219991637
 20
-72.55577797665272
 10
198.841954160359
 20
-71.78976099550742
 10
199.3845566992858
 20
-72.0052517181098
 10
199.6015977148566
 20
-73.25840520086943
 10
199.7369899674269
 20
-74.04440373582918
 10
199.6580972808146
 20
-74.89361977294327
 10
199.9216470854363
 20
-75.62776962085
 10
200.4359998413841
 20
-77.07384845078363
 10
200.9148681138338
 20
-78.60708819649406
 10
201.7857882525049
 20
-79.83526473698564
 10
202.986059519566
 20
-81.52301701520953
 10
204.571492461878
 20
-81.7638291896285
 10
206.6409613198676
 20
-80.68258597158282
 10
208.2828938281376
 20
-79.82406817665857
 10
209.9644449344881
 20
-78.86288653627386
 10
211.2818494480476
 20
-77.58871797105421
 10
217.6432182615614
 20
-71.43887802033473
 10
225.1363009419798
 20
-67.2492974007224
 10
233.4892794555166
 20
-64.56108939358195
 10
237.9692816245355
 20
-63.11880016868211
 10
242.589499179804
 20
-62.45734183551414
 10
247.3306395866049
 20
-62.29955646228969
 10
253.7495414947223
 20
-62.08544377788142
 10
259.8914577258258
 20
-63.26711152932211
 10
265.9589598944478
 20
-65.13745386826425
 10
266.1704887572421
 20
-65.20308293725826
 10
267.6074380841398
 20
-65.79288328433303
 10
267.8100096986725
 20
-65.88124998352968
 10
267.3180500633788
 20
-66.14014890924622
 10
262.1927815099726
 20
-69.36820337892532
 10
260.3475883680728
 20
-70.55159367810863
 97
        0
 75
     2
 76
     1
 98
        0
  0
SPLINE
  5
3E
330
1F
100
AcDbEntity
  8
\U+B808\U+C774\U+C5B4 1
 62
   250
420
  2234388
370
    35
100
AcDbSpline
210
0.0
220
0.0
230
1.0
 70
    11
 71
     3
 72
   143
 73
   139
 74
     0
 42
0.0000000001
 43
0.0000000001
 40
0.0
 40
0.0
 40
0.0
 40
0.0
 40
1.0
 40
1.0
 40
1.0
 40
2.0
 40
2.0
 40
2.0
 40
3.0
 40
3.0
 40
3.0
 40
4.0
 40
4.0
 40
4.0
 40
5.0
 40
5.0
 40
5.0
 40
6.0
 40
6.0
 40
6.0
 40
7.0
 40
7.0
 40
7.0
 40
8.0
 40
8.0
 40
8.0
 40
9.0
 40
9.0
 40
9.0
 40
10.0
 40
10.0
 40
10.0
 40
11.0
 40
11.0
 40
11.0
 40
12.0
 40
12.0
 40
12.0
 40
13.0
 40
13.0
 40
13.0
 40
14.0
 40
14.0
 40
14.0
 40
15.0
 40
15.0
 40
15.0
 40
16.0
 40
16.0
 40
16.0
 40
17.0
 40
17.0
 40
17.0
 40
18.0
 40
18.0
 40
18.0
 40
19.0
 40
19.0
 40
19.0
 40
20.0
 40
20.0
 40
20.0
 40
21.0
 40
21.0
 40
21.0
 40
22.0
 40
22.0
 40
22.0
 40
23.0
 40
23.0
 40
23.0
 40
24.0
 40
24.0
 40
24.0
 40
25.0
 40
25.0
 40
25.0
 40
26.0
 40
26.0
 40
26.0
 40
27.0
 40
27.0
 40
27.0
 40
28.0
 40
28.0
 40
28.0
 40
29.0
 40
29.0
 40
29.0
 40
30.0
 40
30.0
 40
30.0
 40
31.0
 40
31.0
 40
31.0
 40
32.0
 40
32.0
 40
32.0
 40
33.0
 40
33.0
 40
33.0
 40
34.0
 40
34.0
 40
34.0
 40
35.0
 40
35.0
 40
35.0
 40
36.0
 40
36.0
 40
36.0
 40
37.0
 40
37.0
 40
37.0
 40
38.0
 40
38.0
 40
38.0
 40
39.0
 40
39.0
 40
39.0
 40
40.0
 40
40.0
 40
40.0
 40
41.0
 40
41.0
 40
41.0
 40
42.0
 40
42.0
 40
42.0
 40
43.0
 40
43.0
 40
43.0
 40
44.0
 40
44.0
 40
44.0
 40
45.0
 40
45.0
 40
45.0
 40
46.0
 40
46.0
 40
46.0
 40
46.0
 10
6.776158309937905
 20
-68.74567462474067
 30
0.0
 10
8.974818248624352
 20
-68.44405651500705
 30
0.0
 10
11.17382269685932
 20
-67.8862955559451
 30
0.0
 10
13.37076008780314
 20
-67.89576956852953
 30
0.0
 10
17.5730875607109
 20
-67.91127249821315
 30
0.0
 10
21.83759900712741
 20
-67.86717527600196
 30
0.0
 10
25.95552164064654
 20
-68.56704642383046
 30
0.0
 10
29.7614908779763
 20
-69.21386310118612
 30
0.0
 10
33.50682643476566
 20
-70.56072318114454
 30
0.0
 10
37.10195582839813
 20
-72.03264022721754
 30
0.0
 10
42.54451767599582
 20
-74.25644936294631
 30
0.0
 10
47.27876789182614
 20
-77.65572507824233
 30
0.0
 10
51.77358397143161
 20
-81.47289087589914
 30
0.0
 10
55.42624645966774
 20
-84.57451034126957
 30
0.0
 10
58.13133543468592
 20
-88.4192369028084
 30
0.0
 10
61.15957436622053
 20
-92.02676864018775
 30
0.0
 10
62.0892333829152
 20
-93.13643389598673
 30
0.0
 10
63.20286049852221
 20
-94.15239255458691
 30
0.0
 10
64.40123696306637
 20
-94.96061195542651
 30
0.0
 10
66.16064722738345
 20
-96.14951440738623
 30
0.0
 10
68.34811060574283
 20
-95.74437117832086
 30
0.0
 10
69.52409394963287
 20
-93.98272160193835
 30
0.0
 10
70.46839462213985
 20
-92.57023245298592
 30
0.0
 10
71.11882864975502
 20
-90.95965031363161
 30
0.0
 10
71.88725719774
 20
-89.42916664430938
 30
0.0
 10
72.17182208482163
 20
-88.86382647517988
 30
0.0
 10
72.4190076858883
 20
-88.27557642107347
 30
0.0
 10
72.81088729733547
 20
-87.41929793821463
 30
0.0
 10
73.6916259581396
 20
-88.34912920968355
 30
0.0
 10
74.37857799789842
 20
-89.06191946558175
 30
0.0
 10
75.04899357932803
 20
-89.7872843200011
 30
0.0
 10
75.42795408270551
 20
-90.19621715410025
 30
0.0
 10
75.7366346381839
 20
-90.6814588531977
 30
0.0
 10
76.1550414848675
 20
-91.03974878366368
 30
0.0
 10
77.54668780613416
 20
-92.21934947781322
 30
0.0
 10
78.74695907319521
 20
-91.85210229908559
 30
0.0
 10
79.20102265815113
 20
-90.08097871011864
 30
0.0
 10
79.56826983687877
 20
-88.64006752341291
 30
0.0
 10
79.82355141233579
 20
-87.17314586579353
 30
0.0
 10
80.21026338055508
 20
-85.3229573354401
 30
0.0
 10
81.2282890964464
 20
-86.1124009658851
 30
0.0
 10
81.91231280504276
 20
-86.67498505862639
 30
0.0
 10
82.62923717552324
 20
-87.18864879547715
 30
0.0
 10
83.65535886580491
 20
-87.93020559867718
 30
0.0
 10
84.63307696451882
 20
-88.78097192875963
 30
0.0
 10
85.75686711180731
 20
-89.32719181794599
 30
0.0
 10
88.29538572011366
 20
-90.56070825643968
 30
0.0
 10
90.47492537885697
 20
-89.89253198707549
 30
0.0
 10
91.46435680222072
 20
-87.23670787749639
 30
0.0
 10
92.42416040441132
 20
-84.65822616156115
 30
0.0
 10
93.08630775667635
 20
-81.90731741658915
 30
0.0
 10
93.44718150875626
 20
-79.17552895156028
 30
0.0
 10
94.33584388917646
 20
-72.47085637294131
 30
0.0
 10
96.47335338299972
 20
-66.1792507430038
 30
0.0
 10
99.89726153101527
 20
-60.43558754999528
 30
0.0
 10
102.2671427153186
 20
-56.45529648111187
 30
0.0
 10
105.1308783374326
 20
-52.71151121729088
 30
0.0
 10
108.166868733809
 20
-49.20216470124113
 30
0.0
 10
111.2664211418883
 20
-45.62029892522687
 30
0.0
 10
115.2866753184006
 20
-43.01890732431472
 30
0.0
 10
119.4635090847175
 20
-40.80939533484974
 30
0.0
 10
122.4131998391884
 20
-39.24790580616025
 30
0.0
 10
125.5477199664429
 20
-38.03988307425739
 30
0.0
 10
128.6093763241845
 20
-36.69440103249307
 30
0.0
 10
128.9718003692327
 20
-36.53437634720321
 30
0.0
 10
129.3879679038509
 20
-36.49785833505956
 30
0.0
 10
129.9290201498094
 20
-36.54074977385093
 30
0.0
 10
123.1893798520152
 20
-44.78451876050526
 30
0.0
 10
122.6691704337424
 20
-53.31061332217582
 30
0.0
 10
128.4593424158018
 20
-62.37500405341667
 30
0.0
 10
127.4907538201238
 20
-62.80305716745896
 30
0.0
 10
126.6486002287545
 20
-63.20268824374794
 30
0.0
 10
125.7857760644737
 20
-63.55305445459785
 30
0.0
 10
121.3279947613347
 20
-65.36000703661139
 30
0.0
 10
117.360622800521
 20
-67.85701224432047
 30
0.0
 10
114.5225531397721
 20
-71.83454723681567
 30
0.0
 10
112.8275661610292
 20
-74.21217988596085
 30
0.0
 10
111.7411552997557
 20
-76.84716116785418
 30
0.0
 10
111.2664211418883
 20
-79.79013398612886
 30
0.0
 10
110.5443291281799
 20
-84.27823212953808
 30
0.0
 10
111.5768242451093
 20
-88.11227889507263
 30
0.0
 10
114.8248602686028
 20
-91.32155759435712
 30
0.0
 10
114.9128824582509
 20
-91.41061331265082
 30
0.0
 10
114.9092651079914
 20
-91.58958602310955
 30
0.0
 10
115.0071058197725
 20
-91.92841116408387
 30
0.0
 10
110.44855547369
 20
-91.5351535144426
 30
0.0
 10
106.9428263078997
 20
-93.53261987679046
 30
0.0
 10
104.0987277300517
 20
-96.71864418154951
 30
0.0
 10
101.1106241609203
 20
-100.0676215027609
 30
0.0
 10
100.0812296299276
 20
-103.8992567014557
 30
0.0
 10
101.9160874853717
 20
-108.4278347168167
 30
0.0
 10
101.5259304216671
 20
-108.1370686578616
 30
0.0
 10
101.1283664026693
 20
-107.8590494522019
 30
0.0
 10
100.7494058992918
 20
-107.5520914444661
 30
0.0
 10
99.00946042446638
 20
-106.1458034673872
 30
0.0
 10
97.10156654473504
 20
-105.2094265144963
 30
0.0
 10
94.78904620026108
 20
-105.2614474563235
 30
0.0
 10
92.38919268523604
 20
-105.3151909458934
 30
0.0
 10
90.51351044829177
 20
-106.695640706833
 30
0.0
 10
89.94162459774029
 20
-109.0927381454699
 30
0.0
 10
89.35475258182798
 20
-111.5528808314868
 30
0.0
 10
88.92652721301143
 20
-114.0550536824237
 30
0.0
 10
88.39615476305721
 20
-116.5320773363184
 30
0.0
 10
88.27023652307133
 20
-117.119810626102
 30
0.0
 10
88.06869843718422
 20
-117.7044433299489
 30
0.0
 10
87.81272784263015
 20
-118.2515244930066
 30
0.0
 10
86.44881454001974
 20
-121.1881238846335
 30
0.0
 10
85.02977970964534
 20
-121.5912000564078
 30
0.0
 10
82.22702227762034
 20
-119.3222601698222
 30
0.0
 10
80.39612628198431
 20
-117.8425916589074
 30
0.0
 10
78.83343096987498
 20
-115.9601914857669
 30
0.0
 10
77.39803193594564
 20
-114.0678005357192
 30
0.0
 10
73.93743352101217
 20
-109.5106282278307
 30
0.0
 10
69.6024698719223
 20
-110.5172851286207
 30
0.0
 10
66.84604897417391
 20
-114.9407877316815
 30
0.0
 10
66.28346488143261
 20
-115.8451252965596
 30
0.0
 10
65.96117619878748
 20
-116.892778833624
 30
0.0
 10
65.35225557176958
 20
-117.8932345625406
 30
0.0
 10
64.64222139225959
 20
-113.3109130576098
 30
0.0
 10
62.09078367588356
 20
-110.3257378196408
 30
0.0
 10
57.81834850985097
 20
-109.0024766437563
 30
0.0
 10
53.79654404037031
 20
-107.7598307022267
 30
0.0
 10
49.75682507436635
 20
-107.5844753420275
 30
0.0
 10
45.85525443732091
 20
-110.0060329586096
 30
0.0
 10
45.99116345421402
 20
-108.839523627304
 30
0.0
 10
46.22077906830592
 20
-107.7215901423404
 30
0.0
 10
46.23559297889249
 20
-106.5964219568578
 30
0.0
 10
46.30742321975995
 20
-101.0611870407069
 30
0.0
 10
43.57804632157077
 20
-97.04833981948792
 30
0.0
 10
39.17469752709869
 20
-94.04077146086482
 30
0.0
 10
34.84421250213964
 20
-91.08505178929471
 30
0.0
 10
29.91324733410155
 20
-90.33074813279926
 30
0.0
 10
24.80985513702671
 20
-90.4807820411819
 30
0.0
 10
23.1129733557669
 20
-90.53159719958933
 30
0.0
 10
21.42728813483415
 20
-90.9152085818719
 30
0.0
 10
19.62791476288816
 20
-91.1641167306812
 30
0.0
 10
20.21271972150932
 20
-81.03829208043487
 30
0.0
 10
6.776158309937905
 20
-69.15322942064573
 30
0.0
 10
6.776158309937905
 20
-68.74567462474067
 30
0.0
  0
HATCH
  5
3F
330
1F
100
AcDbEntity
  8
\U+B808\U+C774\U+C5B4 1
 62
     7
420
 16711422
100
AcDbHatch
 10
0.0
 20
0.0
 30
0.0
210
0.0
220
0.0
230
1.0
  2
SOLID
 70
     1
 71
     0
 91
        1
 92
        1
 93
        1
 72
     4
 94
        3
 73
     0
 74
     1
 95
      143
 96
      139
 40
0.0
 40
0.0
 40
0.0
 40
0.0
 40
1.0
 40
1.0
 40
1.0
 40
2.0
 40
2.0
 40
2.0
 40
3.0
 40
3.0
 40
3.0
 40
4.0
 40
4.0
 40
4.0
 40
5.0
 40
5.0
 40
5.0
 40
6.0
 40
6.0
 40
6.0
 40
7.0
 40
7.0
 40
7.0
 40
8.0
 40
8.0
 40
8.0
 40
9.0
 40
9.0
 40
9.0
 40
10.0
 40
10.0
 40
10.0
 40
11.0
 40
11.0
 40
11.0
 40
12.0
 40
12.0
 40
12.0
 40
13.0
 40
13.0
 40
13.0
 40
14.0
 40
14.0
 40
14.0
 40
15.0
 40
15.0
 40
15.0
 40
16.0
 40
16.0
 40
16.0
 40
17.0
 40
17.0
 40
17.0
 40
18.0
 40
18.0
 40
18.0
 40
19.0
 40
19.0
 40
19.0
 40
20.0
 40
20.0
 40
20.0
 40
21.0
 40
21.0
 40
21.0
 40
22.0
 40
22.0
 40
22.0
 40
23.0
 40
23.0
 40
23.0
 40
24.0
 40
24.0
 40
24.0
 40
25.0
 40
25.0
 40
25.0
 40
26.0
 40
26.0
 40
26.0
 40
27.0
 40
27.0
 40
27.0
 40
28.0
 40
28.0
 40
28.0
 40
29.0
 40
29.0
 40
29.0
 40
30.0
 40
30.0
 40
30.0
 40
31.0
 40
31.0
 40
31.0
 40
32.0
 40
32.0
 40
32.0
 40
33.0
 40
33.0
 40
33.0
 40
34.0
 40
34.0
 40
34.0
 40
35.0
 40
35.0
 40
35.0
 40
36.0
 40
36.0
 40
36.0
 40
37.0
 40
37.0
 40
37.0
 40
38.0
 40
38.0
 40
38.0
 40
39.0
 40
39.0
 40
39.0
 40
40.0
 40
40.0
 40
40.0
 40
41.0
 40
41.0
 40
41.0
 40
42.0
 40
42.0
 40
42.0
 40
43.0
 40
43.0
 40
43.0
 40
44.0
 40
44.0
 40
44.0
 40
45.0
 40
45.0
 40
45.0
 40
46.0
 40
46.0
 40
46.0
 40
46.0
 10
6.776158309937905
 20
-68.74567462474067
 10
8.974818248624352
 20
-68.44405651500705
 10
11.17382269685932
 20
-67.8862955559451
 10
13.37076008780314
 20
-67.89576956852953
 10
17.5730875607109
 20
-67.91127249821315
 10
21.83759900712741
 20
-67.86717527600196
 10
25.95552164064654
 20
-68.56704642383046
 10
29.7614908779763
 20
-69.21386310118612
 10
33.50682643476566
 20
-70.56072318114454
 10
37.10195582839813
 20
-72.03264022721754
 10
42.54451767599582
 20
-74.25644936294631
 10
47.27876789182614
 20
-77.65572507824233
 10
51.77358397143161
 20
-81.47289087589914
 10
55.42624645966774
 20
-84.57451034126957
 10
58.13133543468592
 20
-88.4192369028084
 10
61.15957436622053
 20
-92.02676864018775
 10
62.0892333829152
 20
-93.13643389598673
 10
63.20286049852221
 20
-94.15239255458691
 10
64.40123696306637
 20
-94.96061195542651
 10
66.16064722738345
 20
-96.14951440738623
 10
68.34811060574283
 20
-95.74437117832086
 10
69.52409394963287
 20
-93.98272160193835
 10
70.46839462213985
 20
-92.57023245298592
 10
71.11882864975502
 20
-90.95965031363161
 10
71.88725719774
 20
-89.42916664430938
 10
72.17182208482163
 20
-88.86382647517988
 10
72.4190076858883
 20
-88.27557642107347
 10
72.81088729733547
 20
-87.41929793821463
 10
73.6916259581396
 20
-88.34912920968355
 10
74.37857799789842
 20
-89.06191946558175
 10
75.04899357932803
 20
-89.7872843200011
 10
75.42795408270551
 20
-90.19621715410025
 10
75.7366346381839
 20
-90.6814588531977
 10
76.1550414848675
 20
-91.03974878366368
 10
77.54668780613416
 20
-92.21934947781322
 10
78.74695907319521
 20
-91.85210229908559
 10
79.20102265815113
 20
-90.08097871011864
 10
79.56826983687877
 20
-88.64006752341291
 10
79.82355141233579
 20
-87.17314586579353
 10
80.21026338055508
 20
-85.3229573354401
 10
81.2282890964464
 20
-86.1124009658851
 10
81.91231280504276
 20
-86.67498505862639
 10
82.62923717552324
 20
-87.18864879547715
 10
83.65535886580491
 20
-87.93020559867718
 10
84.63307696451882
 20
-88.78097192875963
 10
85.75686711180731
 20
-89.32719181794599
 10
88.29538572011366
 20
-90.56070825643968
 10
90.47492537885697
 20
-89.89253198707549
 10
91.46435680222072
 20
-87.23670787749639
 10
92.42416040441132
 20
-84.65822616156115
 10
93.08630775667635
 20
-81.90731741658915
 10
93.44718150875626
 20
-79.17552895156028
 10
94.33584388917646
 20
-72.47085637294131
 10
96.47335338299972
 20
-66.1792507430038
 10
99.89726153101527
 20
-60.43558754999528
 10
102.2671427153186
 20
-56.45529648111187
 10
105.1308783374326
 20
-52.71151121729088
 10
108.166868733809
 20
-49.20216470124113
 10
111.2664211418883
 20
-45.62029892522687
 10
115.2866753184006
 20
-43.01890732431472
 10
119.4635090847175
 20
-40.80939533484974
 10
122.4131998391884
 20
-39.24790580616025
 10
125.5477199664429
 20
-38.03988307425739
 10
128.6093763241845
 20
-36.69440103249307
 10
128.9718003692327
 20
-36.53437634720321
 10
129.3879679038509
 20
-36.49785833505956
 10
129.9290201498094
 20
-36.54074977385093
 10
123.1893798520152
 20
-44.78451876050526
 10
122.6691704337424
 20
-53.31061332217582
 10
128.4593424158018
 20
-62.37500405341667
 10
127.4907538201238
 20
-62.80305716745896
 10
126.6486002287545
 20
-63.20268824374794
 10
125.7857760644737
 20
-63.55305445459785
 10
121.3279947613347
 20
-65.36000703661139
 10
117.360622800521
 20
-67.85701224432047
 10
114.5225531397721
 20
-71.83454723681567
 10
112.8275661610292
 20
-74.21217988596085
 10
111.7411552997557
 20
-76.84716116785418
 10
111.2664211418883
 20
-79.79013398612886
 10
110.5443291281799
 20
-84.27823212953808
 10
111.5768242451093
 20
-88.11227889507263
 10
114.8248602686028
 20
-91.32155759435712
 10
114.9128824582509
 20
-91.41061331265082
 10
114.9092651079914
 20
-91.58958602310955
 10
115.0071058197725
 20
-91.92841116408387
 10
110.44855547369
 20
-91.5351535144426
 10
106.9428263078997
 20
-93.53261987679046
 10
104.0987277300517
 20
-96.71864418154951
 10
101.1106241609203
 20
-100.0676215027609
 10
100.0812296299276
 20
-103.8992567014557
 10
101.9160874853717
 20
-108.4278347168167
 10
101.5259304216671
 20
-108.1370686578616
 10
101.1283664026693
 20
-107.8590494522019
 10
100.7494058992918
 20
-107.5520914444661
 10
99.00946042446638
 20
-106.1458034673872
 10
97.10156654473504
 20
-105.2094265144963
 10
94.78904620026108
 20
-105.2614474563235
 10
92.38919268523604
 20
-105.3151909458934
 10
90.51351044829177
 20
-106.695640706833
 10
89.94162459774029
 20
-109.0927381454699
 10
89.35475258182798
 20
-111.5528808314868
 10
88.92652721301143
 20
-114.0550536824237
 10
88.39615476305721
 20
-116.5320773363184
 10
88.27023652307133
 20
-117.119810626102
 10
88.06869843718422
 20
-117.7044433299489
 10
87.81272784263015
 20
-118.2515244930066
 10
86.44881454001974
 20
-121.1881238846335
 10
85.02977970964534
 20
-121.5912000564078
 10
82.22702227762034
 20
-119.3222601698222
 10
80.39612628198431
 20
-117.8425916589074
 10
78.83343096987498
 20
-115.9601914857669
 10
77.39803193594564
 20
-114.0678005357192
 10
73.93743352101217
 20
-109.5106282278307
 10
69.6024698719223
 20
-110.5172851286207
 10
66.84604897417391
 20
-114.9407877316815
 10
66.28346488143261
 20
-115.8451252965596
 10
65.96117619878748
 20
-116.892778833624
 10
65.35225557176958
 20
-117.8932345625406
 10
64.64222139225959
 20
-113.3109130576098
 10
62.09078367588356
 20
-110.3257378196408
 10
57.81834850985097
 20
-109.0024766437563
 10
53.79654404037031
 20
-107.7598307022267
 10
49.75682507436635
 20
-107.5844753420275
 10
45.85525443732091
 20
-110.0060329586096
 10
45.99116345421402
 20
-108.839523627304
 10
46.22077906830592
 20
-107.7215901423404
 10
46.23559297889249
 20
-106.5964219568578
 10
46.30742321975995
 20
-101.0611870407069
 10
43.57804632157077
 20
-97.04833981948792
 10
39.17469752709869
 20
-94.04077146086482
 10
34.84421250213964
 20
-91.08505178929471
 10
29.91324733410155
 20
-90.33074813279926
 10
24.80985513702671
 20
-90.4807820411819
 10
23.1129733557669
 20
-90.53159719958933
 10
21.42728813483415
 20
-90.9152085818719
 10
19.62791476288816
 20
-91.1641167306812
 10
20.21271972150932
 20
-81.03829208043487
 10
6.776158309937905
 20
-69.15322942064573
 10
6.776158309937905
 20
-68.74567462474067
 97
        0
 75
     2
 76
     1
 98
        0
  0
SPLINE
  5
40
330
1F
100
AcDbEntity
  8
\U+B808\U+C774\U+C5B4 1
 62
   250
420
  2234388
370
    35
100
AcDbSpline
210
0.0
220
0.0
230
1.0
 70
    11
 71
     3
 72
   125
 73
   121
 74
     0
 42
0.0000000001
 43
0.0000000001
 40
0.0
 40
0.0
 40
0.0
 40
0.0
 40
1.0
 40
1.0
 40
1.0
 40
2.0
 40
2.0
 40
2.0
 40
3.0
 40
3.0
 40
3.0
 40
4.0
 40
4.0
 40
4.0
 40
5.0
 40
5.0
 40
5.0
 40
6.0
 40
6.0
 40
6.0
 40
7.0
 40
7.0
 40
7.0
 40
8.0
 40
8.0
 40
8.0
 40
9.0
 40
9.0
 40
9.0
 40
10.0
 40
10.0
 40
10.0
 40
11.0
 40
11.0
 40
11.0
 40
12.0
 40
12.0
 40
12.0
 40
13.0
 40
13.0
 40
13.0
 40
14.0
 40
14.0
 40
14.0
 40
15.0
 40
15.0
 40
15.0
 40
16.0
 40
16.0
 40
16.0
 40
17.0
 40
17.0
 40
17.0
 40
18.0
 40
18.0
 40
18.0
 40
19.0
 40
19.0
 40
19.0
 40
20.0
 40
20.0
 40
20.0
 40
21.0
 40
21.0
 40
21.0
 40
22.0
 40
22.0
 40
22.0
 40
23.0
 40
23.0
 40
23.0
 40
24.0
 40
24.0
 40
24.0
 40
25.0
 40
25.0
 40
25.0
 40
26.0
 40
26.0
 40
26.0
 40
27.0
 40
27.0
 40
27.0
 40
28.0
 40
28.0
 40
28.0
 40
29.0
 40
29.0
 40
29.0
 40
30.0
 40
30.0
 40
30.0
 40
31.0
 40
31.0
 40
31.0
 40
32.0
 40
32.0
 40
32.0
 40
33.0
 40
33.0
 40
33.0
 40
34.0
 40
34.0
 40
34.0
 40
35.0
 40
35.0
 40
35.0
 40
36.0
 40
36.0
 40
36.0
 40
37.0
 40
37.0
 40
37.0
 40
38.0
 40
38.0
 40
38.0
 40
39.0
 40
39.0
 40
39.0
 40
40.0
 40
40.0
 40
40.0
 40
40.0
 10
125.5804483735528
 20
-161.6118407799096
 30
0.0
 10
125.0926228528414
 20
-161.0485676680712
 30
0.0
 10
124.6065198798727
 20
-160.4880506326211
 30
0.0
 10
124.1192111234841
 20
-159.9271890876224
 30
0.0
 10
122.6838120895547
 20
-158.2787108979303
 30
0.0
 10
120.257259084519
 20
-158.4134141314036
 30
0.0
 10
119.3246717366619
 20
-160.4952853331401
 30
0.0
 10
118.7529581408847
 20
-161.7734157581678
 30
0.0
 10
117.933542179718
 20
-162.9599066432878
 30
0.0
 10
117.1043076964184
 20
-164.0960991343232
 30
0.0
 10
116.0356390768939
 20
-165.5616427537485
 30
0.0
 10
114.7817965750372
 20
-165.4796494811995
 30
0.0
 10
113.8610948066042
 20
-163.8983506534699
 30
0.0
 10
113.3062621787047
 20
-162.9454372422498
 30
0.0
 10
112.8370401736137
 20
-161.9225883926791
 30
0.0
 10
112.4784057335992
 20
-160.8780354415513
 30
0.0
 10
112.0150403908331
 20
-159.5327256545613
 30
0.0
 10
111.3723578280597
 20
-158.2904242225802
 30
0.0
 10
109.8873494191428
 20
-158.1054225950223
 30
0.0
 10
108.3432576226538
 20
-157.9124972478483
 30
0.0
 10
107.0966498213161
 20
-158.7189941009453
 30
0.0
 10
106.2047146001849
 20
-160.0091823601713
 30
0.0
 10
106.1218600537647
 20
-160.129071683058
 30
0.0
 10
106.0171291510131
 20
-160.2351806240037
 30
0.0
 10
105.7823458936933
 20
-160.5145778678575
 30
0.0
 10
105.6970797804334
 20
-154.6634276957091
 30
0.0
 10
102.1503539783687
 20
-153.0986653263087
 30
0.0
 10
97.08640812459993
 20
-153.1472411726507
 30
0.0
 10
97.31499021004626
 20
-152.6990342500197
 30
0.0
 10
97.60730656196971
 20
-152.2756320148825
 30
0.0
 10
97.76147458493463
 20
-151.8088215766311
 30
0.0
 10
98.75297306558954
 20
-148.7805826450965
 30
0.0
 10
98.16937389038821
 20
-146.1092556058338
 30
0.0
 10
96.02118460056069
 20
-143.7214599250071
 30
0.0
 10
93.95016544960274
 20
-141.4208251599573
 30
0.0
 10
91.36014266379192
 20
-140.1981607722421
 30
0.0
 10
88.36032577001062
 20
-139.7168809329527
 30
0.0
 10
88.24818791196573
 20
-139.6996554555265
 30
0.0
 10
88.13760034688922
 20
-139.6662380293195
 30
0.0
 10
88.02907983910384
 20
-139.6273084503362
 30
0.0
 10
87.745031716345
 20
-139.5308457767492
 30
0.0
 10
87.46356741520009
 20
-139.4302489885799
 30
0.0
 10
86.99055580507529
 20
-139.2638508766424
 30
0.0
 10
89.29653046812726
 20
-134.060378655721
 30
0.0
 10
87.81272784263015
 20
-129.7519422418676
 30
0.0
 10
83.48982202773865
 20
-126.1824788096002
 30
0.0
 10
83.58731822997123
 20
-126.0791259450427
 30
0.0
 10
83.6848144322038
 20
-125.9757730804852
 30
0.0
 10
83.78213837966211
 20
-125.8696641395395
 30
0.0
 10
84.54160967938543
 20
-125.9637152462869
 30
0.0
 10
85.31778969221223
 20
-125.9854193478439
 30
0.0
 10
86.05676267379832
 20
-126.1635307844313
 30
0.0
 10
89.48893905097846
 20
-126.986219586309
 30
0.0
 10
92.82603079276572
 20
-128.0793483837788
 30
0.0
 10
95.80345456589289
 20
-130.0406412435315
 30
0.0
 10
100.6594889071268
 20
-133.2397569111345
 30
0.0
 10
104.1397243663262
 20
-137.6153726869503
 30
0.0
 10
106.5657606070391
 20
-142.8501952767874
 30
0.0
 10
107.1905286732892
 20
-144.1982611401657
 30
0.0
 10
107.6549275447009
 20
-145.6207410660254
 30
0.0
 10
108.145853651349
 20
-147.0259955144588
 30
0.0
 10
108.5165459255618
 20
-148.0850178666246
 30
0.0
 10
109.0267645669273
 20
-149.0117485521568
 30
0.0
 10
110.2196288786951
 20
-149.2384358350862
 30
0.0
 10
111.4891465650097
 20
-149.4761474235685
 30
0.0
 10
112.2894422462332
 20
-148.6196966859354
 30
0.0
 10
113.0513251127962
 20
-147.8111327755472
 30
0.0
 10
113.5048719334293
 20
-147.331919993549
 30
0.0
 10
113.8560994181506
 20
-146.7521104233814
 30
0.0
 10
114.4484835868393
 20
-145.9573268949343
 30
0.0
 10
114.9287298974831
 20
-146.9877549545725
 30
0.0
 10
115.2534301469679
 20
-147.7339626366776
 30
0.0
 10
115.6194715422757
 20
-148.4608777840653
 30
0.0
 10
116.1150485278289
 20
-149.4451415642012
 30
0.0
 10
116.5243258714766
 20
-149.4761474235685
 30
0.0
 10
117.1597737337309
 20
-148.6024712085091
 30
0.0
 10
117.384910723692
 20
-148.2944796721278
 30
0.0
 10
117.6146985925581
 20
-147.9844210784553
 30
0.0
 10
117.7952215959852
 20
-147.649557797289
 30
0.0
 10
118.5257540936325
 20
-146.2970133097799
 30
0.0
 10
118.6807833904687
 20
-146.2942572333917
 30
0.0
 10
119.5331000135195
 20
-147.6133842946939
 30
0.0
 10
119.8626233966837
 20
-148.1239474456079
 30
0.0
 10
120.1974866778499
 20
-148.6462239211718
 30
0.0
 10
120.6108981360799
 20
-149.0892632005749
 30
0.0
 10
121.8902343445274
 20
-150.4514539554427
 30
0.0
 10
123.297555850252
 20
-150.3356987471383
 30
0.0
 10
124.293705209812
 20
-148.7351073846912
 30
0.0
 10
125.142232227829
 20
-147.3729166298234
 30
0.0
 10
125.8808606998666
 20
-145.9432020034448
 30
0.0
 10
126.647566700109
 20
-144.5327799117835
 30
0.0
 10
128.5921508467582
 20
-140.9512586453178
 30
0.0
 10
131.1916476451535
 20
-137.928187357011
 30
0.0
 10
134.4074720258599
 20
-135.4397948880151
 30
0.0
 10
138.4981784050456
 20
-132.2744411561675
 30
0.0
 10
143.1349324186434
 20
-130.4836805229346
 30
0.0
 10
148.2879339907058
 20
-130.0237602756538
 30
0.0
 10
149.3841633741123
 20
-129.9276421116153
 30
0.0
 10
150.4790147193247
 20
-129.8122314128595
 30
0.0
 10
151.6744628527064
 20
-129.9059380100582
 30
0.0
 10
147.1384778820522
 20
-133.1288248365095
 30
0.0
 10
145.1615098378416
 20
-137.218153177501
 30
0.0
 10
146.6776963609
 20
-142.7709580806267
 30
0.0
 10
145.2071573530211
 20
-142.9945447776194
 30
0.0
 10
143.8139607387861
 20
-143.112367043215
 30
0.0
 10
142.4657226206336
 20
-143.4327609233432
 30
0.0
 10
138.8755886154547
 20
-144.285077546394
 30
0.0
 10
136.1282972207422
 20
-146.236724138788
 30
0.0
 10
134.7347560969587
 20
-149.7772487689793
 30
0.0
 10
134.2066229590699
 20
-151.1204914986782
 30
0.0
 10
134.0526271908792
 20
-152.5188557561411
 30
0.0
 10
134.5339070301686
 20
-153.9292778478024
 30
0.0
 10
134.7025444541716
 20
-154.4246825785813
 30
0.0
 10
134.8780720691451
 20
-154.915953194778
 30
0.0
 10
135.1273247275029
 20
-155.6259873742879
 30
0.0
 10
132.7782863708853
 20
-154.5717881558015
 30
0.0
 10
130.6962429143746
 20
-155.0940646313654
 30
0.0
 10
128.7466633792717
 20
-156.1458522830121
 30
0.0
 10
126.6599690438559
 20
-157.2696424303006
 30
0.0
 10
125.7101562185725
 20
-159.1399847692428
 30
0.0
 10
125.5804483735528
 20
-161.6118407799096
 30
0.0
  0
HATCH
  5
41
330
1F
100
AcDbEntity
  8
\U+B808\U+C774\U+C5B4 1
 62
     7
420
 16711422
100
AcDbHatch
 10
0.0
 20
0.0
 30
0.0
210
0.0
220
0.0
230
1.0
  2
SOLID
 70
     1
 71
     0
 91
        1
 92
        1
 93
        1
 72
     4
 94
        3
 73
     0
 74
     1
 95
      125
 96
      121
 40
0.0
 40
0.0
 40
0.0
 40
0.0
 40
1.0
 40
1.0
 40
1.0
 40
2.0
 40
2.0
 40
2.0
 40
3.0
 40
3.0
 40
3.0
 40
4.0
 40
4.0
 40
4.0
 40
5.0
 40
5.0
 40
5.0
 40
6.0
 40
6.0
 40
6.0
 40
7.0
 40
7.0
 40
7.0
 40
8.0
 40
8.0
 40
8.0
 40
9.0
 40
9.0
 40
9.0
 40
10.0
 40
10.0
 40
10.0
 40
11.0
 40
11.0
 40
11.0
 40
12.0
 40
12.0
 40
12.0
 40
13.0
 40
13.0
 40
13.0
 40
14.0
 40
14.0
 40
14.0
 40
15.0
 40
15.0
 40
15.0
 40
16.0
 40
16.0
 40
16.0
 40
17.0
 40
17.0
 40
17.0
 40
18.0
 40
18.0
 40
18.0
 40
19.0
 40
19.0
 40
19.0
 40
20.0
 40
20.0
 40
20.0
 40
21.0
 40
21.0
 40
21.0
 40
22.0
 40
22.0
 40
22.0
 40
23.0
 40
23.0
 40
23.0
 40
24.0
 40
24.0
 40
24.0
 40
25.0
 40
25.0
 40
25.0
 40
26.0
 40
26.0
 40
26.0
 40
27.0
 40
27.0
 40
27.0
 40
28.0
 40
28.0
 40
28.0
 40
29.0
 40
29.0
 40
29.0
 40
30.0
 40
30.0
 40
30.0
 40
31.0
 40
31.0
 40
31.0
 40
32.0
 40
32.0
 40
32.0
 40
33.0
 40
33.0
 40
33.0
 40
34.0
 40
34.0
 40
34.0
 40
35.0
 40
35.0
 40
35.0
 40
36.0
 40
36.0
 40
36.0
 40
37.0
 40
37.0
 40
37.0
 40
38.0
 40
38.0
 40
38.0
 40
39.0
 40
39.0
 40
39.0
 40
40.0
 40
40.0
 40
40.0
 40
40.0
 10
125.5804483735528
 20
-161.6118407799096
 10
125.0926228528414
 20
-161.0485676680712
 10
124.6065198798727
 20
-160.4880506326211
 10
124.1192111234841
 20
-159.9271890876224
 10
122.6838120895547
 20
-158.2787108979303
 10
120.257259084519
 20
-158.4134141314036
 10
119.3246717366619
 20
-160.4952853331401
 10
118.7529581408847
 20
-161.7734157581678
 10
117.933542179718
 20
-162.9599066432878
 10
117.1043076964184
 20
-164.0960991343232
 10
116.0356390768939
 20
-165.5616427537485
 10
114.7817965750372
 20
-165.4796494811995
 10
113.8610948066042
 20
-163.8983506534699
 10
113.3062621787047
 20
-162.9454372422498
 10
112.8370401736137
 20
-161.9225883926791
 10
112.4784057335992
 20
-160.8780354415513
 10
112.0150403908331
 20
-159.5327256545613
 10
111.3723578280597
 20
-158.2904242225802
 10
109.8873494191428
 20
-158.1054225950223
 10
108.3432576226538
 20
-157.9124972478483
 10
107.0966498213161
 20
-158.7189941009453
 10
106.2047146001849
 20
-160.0091823601713
 10
106.1218600537647
 20
-160.129071683058
 10
106.0171291510131
 20
-160.2351806240037
 10
105.7823458936933
 20
-160.5145778678575
 10
105.6970797804334
 20
-154.6634276957091
 10
102.1503539783687
 20
-153.0986653263087
 10
97.08640812459993
 20
-153.1472411726507
 10
97.31499021004626
 20
-152.6990342500197
 10
97.60730656196971
 20
-152.2756320148825
 10
97.76147458493463
 20
-151.8088215766311
 10
98.75297306558954
 20
-148.7805826450965
 10
98.16937389038821
 20
-146.1092556058338
 10
96.02118460056069
 20
-143.7214599250071
 10
93.95016544960274
 20
-141.4208251599573
 10
91.36014266379192
 20
-140.1981607722421
 10
88.36032577001062
 20
-139.7168809329527
 10
88.24818791196573
 20
-139.6996554555265
 10
88.13760034688922
 20
-139.6662380293195
 10
88.02907983910384
 20
-139.6273084503362
 10
87.745031716345
 20
-139.5308457767492
 10
87.46356741520009
 20
-139.4302489885799
 10
86.99055580507529
 20
-139.2638508766424
 10
89.29653046812726
 20
-134.060378655721
 10
87.81272784263015
 20
-129.7519422418676
 10
83.48982202773865
 20
-126.1824788096002
 10
83.58731822997123
 20
-126.0791259450427
 10
83.6848144322038
 20
-125.9757730804852
 10
83.78213837966211
 20
-125.8696641395395
 10
84.54160967938543
 20
-125.9637152462869
 10
85.31778969221223
 20
-125.9854193478439
 10
86.05676267379832
 20
-126.1635307844313
 10
89.48893905097846
 20
-126.986219586309
 10
92.82603079276572
 20
-128.0793483837788
 10
95.80345456589289
 20
-130.0406412435315
 10
100.6594889071268
 20
-133.2397569111345
 10
104.1397243663262
 20
-137.6153726869503
 10
106.5657606070391
 20
-142.8501952767874
 10
107.1905286732892
 20
-144.1982611401657
 10
107.6549275447009
 20
-145.6207410660254
 10
108.145853651349
 20
-147.0259955144588
 10
108.5165459255618
 20
-148.0850178666246
 10
109.0267645669273
 20
-149.0117485521568
 10
110.2196288786951
 20
-149.2384358350862
 10
111.4891465650097
 20
-149.4761474235685
 10
112.2894422462332
 20
-148.6196966859354
 10
113.0513251127962
 20
-147.8111327755472
 10
113.5048719334293
 20
-147.331919993549
 10
113.8560994181506
 20
-146.7521104233814
 10
114.4484835868393
 20
-145.9573268949343
 10
114.9287298974831
 20
-146.9877549545725
 10
115.2534301469679
 20
-147.7339626366776
 10
115.6194715422757
 20
-148.4608777840653
 10
116.1150485278289
 20
-149.4451415642012
 10
116.5243258714766
 20
-149.4761474235685
 10
117.1597737337309
 20
-148.6024712085091
 10
117.384910723692
 20
-148.2944796721278
 10
117.6146985925581
 20
-147.9844210784553
 10
117.7952215959852
 20
-147.649557797289
 10
118.5257540936325
 20
-146.2970133097799
 10
118.6807833904687
 20
-146.2942572333917
 10
119.5331000135195
 20
-147.6133842946939
 10
119.8626233966837
 20
-148.1239474456079
 10
120.1974866778499
 20
-148.6462239211718
 10
120.6108981360799
 20
-149.0892632005749
 10
121.8902343445274
 20
-150.4514539554427
 10
123.297555850252
 20
-150.3356987471383
 10
124.293705209812
 20
-148.7351073846912
 10
125.142232227829
 20
-147.3729166298234
 10
125.8808606998666
 20
-145.9432020034448
 10
126.647566700109
 20
-144.5327799117835
 10
128.5921508467582
 20
-140.9512586453178
 10
131.1916476451535
 20
-137.928187357011
 10
134.4074720258599
 20
-135.4397948880151
 10
138.4981784050456
 20
-132.2744411561675
 10
143.1349324186434
 20
-130.4836805229346
 10
148.2879339907058
 20
-130.0237602756538
 10
149.3841633741123
 20
-129.9276421116153
 10
150.4790147193247
 20
-129.8122314128595
 10
151.6744628527064
 20
-129.9059380100582
 10
147.1384778820522
 20
-133.1288248365095
 10
145.1615098378416
 20
-137.218153177501
 10
146.6776963609
 20
-142.7709580806267
 10
145.2071573530211
 20
-142.9945447776194
 10
143.8139607387861
 20
-143.112367043215
 10
142.4657226206336
 20
-143.4327609233432
 10
138.8755886154547
 20
-144.285077546394
 10
136.1282972207422
 20
-146.236724138788
 10
134.7347560969587
 20
-149.7772487689793
 10
134.2066229590699
 20
-151.1204914986782
 10
134.0526271908792
 20
-152.5188557561411
 10
134.5339070301686
 20
-153.9292778478024
 10
134.7025444541716
 20
-154.4246825785813
 10
134.8780720691451
 20
-154.915953194778
 10
135.1273247275029
 20
-155.6259873742879
 10
132.7782863708853
 20
-154.5717881558015
 10
130.6962429143746
 20
-155.0940646313654
 10
128.7466633792717
 20
-156.1458522830121
 10
126.6599690438559
 20
-157.2696424303006
 10
125.7101562185725
 20
-159.1399847692428
 10
125.5804483735528
 20
-161.6118407799096
 97
        0
 75
     2
 76
     1
 98
        0
  0
SPLINE
  5
42
330
1F
100
AcDbEntity
  8
\U+B808\U+C774\U+C5B4 1
 62
   250
420
  2234388
370
    35
100
AcDbSpline
210
0.0
220
0.0
230
1.0
 70
    11
 71
     3
 72
   113
 73
   109
 74
     0
 42
0.0000000001
 43
0.0000000001
 40
0.0
 40
0.0
 40
0.0
 40
0.0
 40
1.0
 40
1.0
 40
1.0
 40
2.0
 40
2.0
 40
2.0
 40
3.0
 40
3.0
 40
3.0
 40
4.0
 40
4.0
 40
4.0
 40
5.0
 40
5.0
 40
5.0
 40
6.0
 40
6.0
 40
6.0
 40
7.0
 40
7.0
 40
7.0
 40
8.0
 40
8.0
 40
8.0
 40
9.0
 40
9.0
 40
9.0
 40
10.0
 40
10.0
 40
10.0
 40
11.0
 40
11.0
 40
11.0
 40
12.0
 40
12.0
 40
12.0
 40
13.0
 40
13.0
 40
13.0
 40
14.0
 40
14.0
 40
14.0
 40
15.0
 40
15.0
 40
15.0
 40
16.0
 40
16.0
 40
16.0
 40
17.0
 40
17.0
 40
17.0
 40
18.0
 40
18.0
 40
18.0
 40
19.0
 40
19.0
 40
19.0
 40
20.0
 40
20.0
 40
20.0
 40
21.0
 40
21.0
 40
21.0
 40
22.0
 40
22.0
 40
22.0
 40
23.0
 40
23.0
 40
23.0
 40
24.0
 40
24.0
 40
24.0
 40
25.0
 40
25.0
 40
25.0
 40
26.0
 40
26.0
 40
26.0
 40
27.0
 40
27.0
 40
27.0
 40
28.0
 40
28.0
 40
28.0
 40
29.0
 40
29.0
 40
29.0
 40
30.0
 40
30.0
 40
30.0
 40
31.0
 40
31.0
 40
31.0
 40
32.0
 40
32.0
 40
32.0
 40
33.0
 40
33.0
 40
33.0
 40
34.0
 40
34.0
 40
34.0
 40
35.0
 40
35.0
 40
35.0
 40
36.0
 40
36.0
 40
36.0
 40
36.0
 10
177.4730603939998
 20
-182.853610522863
 30
0.0
 10
176.6527831589618
 20
-180.9185003887982
 30
0.0
 10
175.3539821610226
 20
-179.7826524073113
 30
0.0
 10
173.3647840278394
 20
-179.3082627589924
 30
0.0
 10
171.3848876524663
 20
-178.8366291870617
 30
0.0
 10
169.7267631954155
 20
-179.5635443344494
 30
0.0
 10
167.9621852878706
 20
-180.4802842430744
 30
0.0
 10
167.91326493198
 20
-180.1771158403724
 30
0.0
 10
167.8085340292284
 20
-179.9245903413036
 30
0.0
 10
167.8460855700177
 20
-179.6979030583742
 30
0.0
 10
168.3149630655602
 20
-176.8384738056168
 30
0.0
 10
165.2574408224009
 20
-173.7482231553477
 30
0.0
 10
162.5237575548552
 20
-173.0795301216607
 30
0.0
 10
160.1642116570076
 20
-172.5017876087843
 30
0.0
 10
157.819824179295
 20
-172.6557833769749
 30
0.0
 10
155.4971408031396
 20
-173.3151746528518
 30
0.0
 10
155.2876789976364
 20
-173.3754638238436
 30
0.0
 10
155.0699489629686
 20
-173.3992349826919
 30
0.0
 10
154.7743597703342
 20
-173.4574570963926
 30
0.0
 10
154.4567219665942
 20
-168.561631902304
 30
0.0
 10
151.8904703396315
 20
-165.5795572502718
 30
0.0
 10
147.1407171941176
 20
-164.1739582922899
 30
0.0
 10
147.6280259505062
 20
-163.9572617862676
 30
0.0
 10
148.0974202103715
 20
-163.6730414087345
 30
0.0
 10
148.6062608135429
 20
-163.5311034747422
 30
0.0
 10
155.2635633292397
 20
-161.6924560142644
 30
0.0
 10
161.5360486792341
 20
-162.5371934272476
 30
0.0
 10
167.5508408869318
 20
-165.9984808612782
 30
0.0
 10
170.1574001310718
 20
-167.5001979832986
 30
0.0
 10
172.1479763024491
 20
-169.656827757065
 30
0.0
 10
174.4203612845199
 20
-171.5147677522602
 30
0.0
 10
176.8474310538784
 20
-173.4984537326671
 30
0.0
 10
177.7056043392542
 20
-172.3212646053572
 30
0.0
 10
178.4986653199587
 20
-169.8879936641252
 30
0.0
 10
178.9765000637628
 20
-168.4217610256029
 30
0.0
 10
178.888650128889
 20
-168.3807643893284
 30
0.0
 10
180.054814950646
 20
-169.2957817502108
 30
0.0
 10
180.4520344600953
 20
-169.6061848534318
 30
0.0
 10
180.9743109356592
 20
-169.7622476789136
 30
0.0
 10
181.4383652975224
 20
-169.9889349618431
 30
0.0
 10
181.6071749762996
 20
-169.47113711041
 30
0.0
 10
181.7732285786886
 20
-168.9536837685255
 30
0.0
 10
181.9489284484364
 20
-168.4389865030292
 30
0.0
 10
182.0791530577788
 20
-168.058303451909
 30
0.0
 10
182.1242838086356
 20
-167.4977864164589
 30
0.0
 10
182.3881781228058
 20
-167.360671616146
 30
0.0
 10
182.6358804881952
 20
-167.2304470068035
 30
0.0
 10
183.1333522762653
 20
-167.519490518016
 30
0.0
 10
183.4940537735709
 20
-167.6803764771771
 30
0.0
 10
184.0115071154555
 20
-167.9118868937859
 30
0.0
 10
184.4858967637744
 20
-168.2488172322434
 30
0.0
 10
185.0140299016632
 20
-168.4438096367085
 30
0.0
 10
186.1168049664916
 20
-168.8530869803562
 30
0.0
 10
187.1455104783873
 20
-168.3642279309992
 30
0.0
 10
187.4331759514056
 20
-167.2524956179091
 30
0.0
 10
187.6412597187147
 20
-166.4459987648121
 30
0.0
 10
187.8169595884624
 20
-165.5940266513098
 30
0.0
 10
187.7914658818716
 20
-164.7682372634955
 30
0.0
 10
187.6171440503179
 20
-158.9387911929042
 30
0.0
 10
189.2101562026975
 20
-153.6605603999529
 30
0.0
 10
192.6376817009725
 20
-148.9500813429708
 30
0.0
 10
195.0216877767654
 20
-145.6720729887556
 30
0.0
 10
198.1939316995835
 20
-143.3855631151953
 30
0.0
 10
202.0813774451394
 20
-141.5103976425738
 30
0.0
 10
201.6311034652172
 20
-142.5962917395245
 30
0.0
 10
201.3351697630343
 20
-143.402444083073
 30
0.0
 10
200.9696451320493
 20
-144.174834490866
 30
0.0
 10
199.4758517296449
 20
-147.3277858789667
 30
0.0
 10
200.3364365818603
 20
-150.1537977055171
 30
0.0
 10
202.261555939018
 20
-152.7482991154588
 30
0.0
 10
202.8696152921646
 20
-153.5689208600453
 30
0.0
 10
202.8634141202911
 20
-153.8552082948695
 30
0.0
 10
201.9645887081894
 20
-154.3588812548131
 30
0.0
 10
198.8994872549627
 20
-156.067648615497
 30
0.0
 10
196.6105658145626
 20
-158.3951551253318
 30
0.0
 10
196.1399657712775
 20
-162.0941541478445
 30
0.0
 10
195.9139675074451
 20
-163.8707898895879
 30
0.0
 10
196.3663085446584
 20
-165.4179822720136
 30
0.0
 10
197.4904432014955
 20
-166.7849961605607
 30
0.0
 10
197.7767306363197
 20
-167.134328842765
 30
0.0
 10
198.1064262742581
 20
-167.444731945986
 30
0.0
 10
198.5181151847455
 20
-167.8781249580305
 30
0.0
 10
196.5637125159633
 20
-168.4458766939997
 30
0.0
 10
194.9662217394529
 20
-169.2906141069829
 30
0.0
 10
193.8603460886877
 20
-170.9129095709871
 30
0.0
 10
192.7052055724834
 20
-172.6051404733418
 30
0.0
 10
192.4406222392163
 20
-174.3307888019034
 30
0.0
 10
193.3711425297822
 20
-176.2707220696476
 30
0.0
 10
193.0469590446202
 20
-176.1143147346173
 30
0.0
 10
192.7369004509477
 20
-175.9169107633124
 30
0.0
 10
192.3972140361021
 20
-175.8087347650756
 30
0.0
 10
189.2273816801237
 20
-174.800355316543
 30
0.0
 10
188.224858893916
 20
-175.7890977208097
 30
0.0
 10
187.9699218280075
 20
-178.5792805543135
 30
0.0
 10
187.8793158167454
 20
-179.5663004108376
 30
0.0
 10
187.928925191733
 20
-180.5767469166614
 30
0.0
 10
187.7459906214663
 20
-181.5468858053077
 30
0.0
 10
187.4748616067771
 20
-182.9741888648468
 30
0.0
 10
186.5267713292364
 20
-183.4382432267099
 30
0.0
 10
185.2923936168714
 20
-182.6927245637018
 30
0.0
 10
184.288148282921
 20
-182.0856987392008
 30
0.0
 10
183.364173673777
 20
-181.3133083314078
 30
0.0
 10
182.5122015602747
 20
-180.4995767777918
 30
0.0
 10
180.7359103280799
 20
-178.8076903849856
 30
0.0
 10
178.4814398425324
 20
-179.4240179672968
 30
0.0
 10
177.8151583756851
 20
-181.833173240132
 30
0.0
 10
177.7204182498407
 20
-182.1794053363996
 30
0.0
 10
177.5877820736586
 20
-182.5142686175659
 30
0.0
 10
177.4730603939998
 20
-182.853610522863
 30
0.0
  0
HATCH
  5
43
330
1F
100
AcDbEntity
  8
\U+B808\U+C774\U+C5B4 1
 62
     7
420
 16711422
100
AcDbHatch
 10
0.0
 20
0.0
 30
0.0
210
0.0
220
0.0
230
1.0
  2
SOLID
 70
     1
 71
     0
 91
        1
 92
        1
 93
        1
 72
     4
 94
        3
 73
     0
 74
     1
 95
      113
 96
      109
 40
0.0
 40
0.0
 40
0.0
 40
0.0
 40
1.0
 40
1.0
 40
1.0
 40
2.0
 40
2.0
 40
2.0
 40
3.0
 40
3.0
 40
3.0
 40
4.0
 40
4.0
 40
4.0
 40
5.0
 40
5.0
 40
5.0
 40
6.0
 40
6.0
 40
6.0
 40
7.0
 40
7.0
 40
7.0
 40
8.0
 40
8.0
 40
8.0
 40
9.0
 40
9.0
 40
9.0
 40
10.0
 40
10.0
 40
10.0
 40
11.0
 40
11.0
 40
11.0
 40
12.0
 40
12.0
 40
12.0
 40
13.0
 40
13.0
 40
13.0
 40
14.0
 40
14.0
 40
14.0
 40
15.0
 40
15.0
 40
15.0
 40
16.0
 40
16.0
 40
16.0
 40
17.0
 40
17.0
 40
17.0
 40
18.0
 40
18.0
 40
18.0
 40
19.0
 40
19.0
 40
19.0
 40
20.0
 40
20.0
 40
20.0
 40
21.0
 40
21.0
 40
21.0
 40
22.0
 40
22.0
 40
22.0
 40
23.0
 40
23.0
 40
23.0
 40
24.0
 40
24.0
 40
24.0
 40
25.0
 40
25.0
 40
25.0
 40
26.0
 40
26.0
 40
26.0
 40
27.0
 40
27.0
 40
27.0
 40
28.0
 40
28.0
 40
28.0
 40
29.0
 40
29.0
 40
29.0
 40
30.0
 40
30.0
 40
30.0
 40
31.0
 40
31.0
 40
31.0
 40
32.0
 40
32.0
 40
32.0
 40
33.0
 40
33.0
 40
33.0
 40
34.0
 40
34.0
 40
34.0
 40
35.0
 40
35.0
 40
35.0
 40
36.0
 40
36.0
 40
36.0
 40
36.0
 10
177.4730603939998
 20
-182.853610522863
 10
176.6527831589618
 20
-180.9185003887982
 10
175.3539821610226
 20
-179.7826524073113
 10
173.3647840278394
 20
-179.3082627589924
 10
171.3848876524663
 20
-178.8366291870617
 10
169.7267631954155
 20
-179.5635443344494
 10
167.9621852878706
 20
-180.4802842430744
 10
167.91326493198
 20
-180.1771158403724
 10
167.8085340292284
 20
-179.9245903413036
 10
167.8460855700177
 20
-179.6979030583742
 10
168.3149630655602
 20
-176.8384738056168
 10
165.2574408224009
 20
-173.7482231553477
 10
162.5237575548552
 20
-173.0795301216607
 10
160.1642116570076
 20
-172.5017876087843
 10
157.819824179295
 20
-172.6557833769749
 10
155.4971408031396
 20
-173.3151746528518
 10
155.2876789976364
 20
-173.3754638238436
 10
155.0699489629686
 20
-173.3992349826919
 10
154.7743597703342
 20
-173.4574570963926
 10
154.4567219665942
 20
-168.561631902304
 10
151.8904703396315
 20
-165.5795572502718
 10
147.1407171941176
 20
-164.1739582922899
 10
147.6280259505062
 20
-163.9572617862676
 10
148.0974202103715
 20
-163.6730414087345
 10
148.6062608135429
 20
-163.5311034747422
 10
155.2635633292397
 20
-161.6924560142644
 10
161.5360486792341
 20
-162.5371934272476
 10
167.5508408869318
 20
-165.9984808612782
 10
170.1574001310718
 20
-167.5001979832986
 10
172.1479763024491
 20
-169.656827757065
 10
174.4203612845199
 20
-171.5147677522602
 10
176.8474310538784
 20
-173.4984537326671
 10
177.7056043392542
 20
-172.3212646053572
 10
178.4986653199587
 20
-169.8879936641252
 10
178.9765000637628
 20
-168.4217610256029
 10
178.888650128889
 20
-168.3807643893284
 10
180.054814950646
 20
-169.2957817502108
 10
180.4520344600953
 20
-169.6061848534318
 10
180.9743109356592
 20
-169.7622476789136
 10
181.4383652975224
 20
-169.9889349618431
 10
181.6071749762996
 20
-169.47113711041
 10
181.7732285786886
 20
-168.9536837685255
 10
181.9489284484364
 20
-168.4389865030292
 10
182.0791530577788
 20
-168.058303451909
 10
182.1242838086356
 20
-167.4977864164589
 10
182.3881781228058
 20
-167.360671616146
 10
182.6358804881952
 20
-167.2304470068035
 10
183.1333522762653
 20
-167.519490518016
 10
183.4940537735709
 20
-167.6803764771771
 10
184.0115071154555
 20
-167.9118868937859
 10
184.4858967637744
 20
-168.2488172322434
 10
185.0140299016632
 20
-168.4438096367085
 10
186.1168049664916
 20
-168.8530869803562
 10
187.1455104783873
 20
-168.3642279309992
 10
187.4331759514056
 20
-167.2524956179091
 10
187.6412597187147
 20
-166.4459987648121
 10
187.8169595884624
 20
-165.5940266513098
 10
187.7914658818716
 20
-164.7682372634955
 10
187.6171440503179
 20
-158.9387911929042
 10
189.2101562026975
 20
-153.6605603999529
 10
192.6376817009725
 20
-148.9500813429708
 10
195.0216877767654
 20
-145.6720729887556
 10
198.1939316995835
 20
-143.3855631151953
 10
202.0813774451394
 20
-141.5103976425738
 10
201.6311034652172
 20
-142.5962917395245
 10
201.3351697630343
 20
-143.402444083073
 10
200.9696451320493
 20
-144.174834490866
 10
199.4758517296449
 20
-147.3277858789667
 10
200.3364365818603
 20
-150.1537977055171
 10
202.261555939018
 20
-152.7482991154588
 10
202.8696152921646
 20
-153.5689208600453
 10
202.8634141202911
 20
-153.8552082948695
 10
201.9645887081894
 20
-154.3588812548131
 10
198.8994872549627
 20
-156.067648615497
 10
196.6105658145626
 20
-158.3951551253318
 10
196.1399657712775
 20
-162.0941541478445
 10
195.9139675074451
 20
-163.8707898895879
 10
196.3663085446584
 20
-165.4179822720136
 10
197.4904432014955
 20
-166.7849961605607
 10
197.7767306363197
 20
-167.134328842765
 10
198.1064262742581
 20
-167.444731945986
 10
198.5181151847455
 20
-167.8781249580305
 10
196.5637125159633
 20
-168.4458766939997
 10
194.9662217394529
 20
-169.2906141069829
 10
193.8603460886877
 20
-170.9129095709871
 10
192.7052055724834
 20
-172.6051404733418
 10
192.4406222392163
 20
-174.3307888019034
 10
193.3711425297822
 20
-176.2707220696476
 10
193.0469590446202
 20
-176.1143147346173
 10
192.7369004509477
 20
-175.9169107633124
 10
192.3972140361021
 20
-175.8087347650756
 10
189.2273816801237
 20
-174.800355316543
 10
188.224858893916
 20
-175.7890977208097
 10
187.9699218280075
 20
-178.5792805543135
 10
187.8793158167454
 20
-179.5663004108376
 10
187.928925191733
 20
-180.5767469166614
 10
187.7459906214663
 20
-181.5468858053077
 10
187.4748616067771
 20
-182.9741888648468
 10
186.5267713292364
 20
-183.4382432267099
 10
185.2923936168714
 20
-182.6927245637018
 10
184.288148282921
 20
-182.0856987392008
 10
183.364173673777
 20
-181.3133083314078
 10
182.5122015602747
 20
-180.4995767777918
 10
180.7359103280799
 20
-178.8076903849856
 10
178.4814398425324
 20
-179.4240179672968
 10
177.8151583756851
 20
-181.833173240132
 10
177.7204182498407
 20
-182.1794053363996
 10
177.5877820736586
 20
-182.5142686175659
 10
177.4730603939998
 20
-182.853610522863
 97
        0
 75
     2
 76
     1
 98
        0
  0
SPLINE
  5
44
330
1F
100
AcDbEntity
  8
\U+B808\U+C774\U+C5B4 1
 62
   250
420
  2234388
370
    35
100
AcDbSpline
210
0.0
220
0.0
230
1.0
 70
    11
 71
     3
 72
   113
 73
   109
 74
     0
 42
0.0000000001
 43
0.0000000001
 40
0.0
 40
0.0
 40
0.0
 40
0.0
 40
1.0
 40
1.0
 40
1.0
 40
2.0
 40
2.0
 40
2.0
 40
3.0
 40
3.0
 40
3.0
 40
4.0
 40
4.0
 40
4.0
 40
5.0
 40
5.0
 40
5.0
 40
6.0
 40
6.0
 40
6.0
 40
7.0
 40
7.0
 40
7.0
 40
8.0
 40
8.0
 40
8.0
 40
9.0
 40
9.0
 40
9.0
 40
10.0
 40
10.0
 40
10.0
 40
11.0
 40
11.0
 40
11.0
 40
12.0
 40
12.0
 40
12.0
 40
13.0
 40
13.0
 40
13.0
 40
14.0
 40
14.0
 40
14.0
 40
15.0
 40
15.0
 40
15.0
 40
16.0
 40
16.0
 40
16.0
 40
17.0
 40
17.0
 40
17.0
 40
18.0
 40
18.0
 40
18.0
 40
19.0
 40
19.0
 40
19.0
 40
20.0
 40
20.0
 40
20.0
 40
21.0
 40
21.0
 40
21.0
 40
22.0
 40
22.0
 40
22.0
 40
23.0
 40
23.0
 40
23.0
 40
24.0
 40
24.0
 40
24.0
 40
25.0
 40
25.0
 40
25.0
 40
26.0
 40
26.0
 40
26.0
 40
27.0
 40
27.0
 40
27.0
 40
28.0
 40
28.0
 40
28.0
 40
29.0
 40
29.0
 40
29.0
 40
30.0
 40
30.0
 40
30.0
 40
31.0
 40
31.0
 40
31.0
 40
32.0
 40
32.0
 40
32.0
 40
33.0
 40
33.0
 40
33.0
 40
34.0
 40
34.0
 40
34.0
 40
35.0
 40
35.0
 40
35.0
 40
36.0
 40
36.0
 40
36.0
 40
36.0
 10
227.8510361843567
 20
-185.8150146019838
 30
0.0
 10
227.6594888753768
 20
-184.4796955919009
 30
0.0
 10
227.0397161975804
 20
-183.5619221546304
 30
0.0
 10
225.883197643182
 20
-182.9411159481884
 30
0.0
 10
224.73219124156
 20
-182.3237548372316
 30
0.0
 10
223.5839409163262
 20
-182.5028998024646
 30
0.0
 10
222.338883407957
 20
-182.7822970463183
 30
0.0
 10
222.3578314331258
 20
-182.5862711132076
 30
0.0
 10
222.3344047838261
 20
-182.4122937912025
 30
0.0
 10
222.3950384643665
 20
-182.2779350672778
 30
0.0
 10
223.1550265284126
 20
-180.5805365216952
 30
0.0
 10
221.7645859905658
 20
-178.1617349815012
 30
0.0
 10
220.1777750100597
 20
-177.2980495433491
 30
0.0
 10
218.8083495546729
 20
-176.5528753898896
 30
0.0
 10
217.3286810437581
 20
-176.2638318786771
 30
0.0
 10
215.7790770944927
 20
-176.2920816616561
 30
0.0
 10
215.6392062177916
 20
-176.2951822475929
 30
0.0
 10
215.5000243601875
 20
-176.2741671651329
 30
0.0
 10
215.3070990130135
 20
-176.261764821386
 30
0.0
 10
215.913091308869
 20
-173.1718586806654
 30
0.0
 10
214.8096272249434
 20
-170.9005072272402
 30
0.0
 10
212.0931694348239
 20
-169.2492729611599
 30
0.0
 10
212.4307887923784
 20
-169.194840452493
 30
0.0
 10
212.7687526594814
 20
-169.0956217025178
 30
0.0
 10
213.10775005523
 20
-169.0907985688384
 30
0.0
 10
217.5402099065525
 20
-169.0418782129479
 30
0.0
 10
221.2936414377322
 20
-170.59458274815
 30
0.0
 10
224.4586506600312
 20
-173.7285861110817
 30
0.0
 10
225.8297986631606
 20
-175.0880207895613
 30
0.0
 10
226.7110540882875
 20
-176.7526909280341
 30
0.0
 10
227.8162407199557
 20
-178.2781792089027
 30
0.0
 10
228.9972194522993
 20
-179.9073648638773
 30
0.0
 10
229.7227565614929
 20
-179.3175645168025
 30
0.0
 10
230.6140027635271
 20
-177.93780377496
 30
0.0
 10
231.150748640129
 20
-177.1061577248207
 30
0.0
 10
231.102861812884
 20
-177.0665391267403
 30
0.0
 10
231.6764702111781
 20
-177.8254936621408
 30
0.0
 10
231.8721516347403
 20
-178.0831868044375
 30
0.0
 10
232.1708414133115
 20
-178.2657768651558
 30
0.0
 10
232.4216443646376
 20
-178.482473371178
 30
0.0
 10
232.6111246163264
 20
-178.1886067262862
 30
0.0
 10
232.7988823202725
 20
-177.8947400813944
 30
0.0
 10
232.9924966865435
 20
-177.6043185319878
 30
0.0
 10
233.1358126587299
 20
-177.3896890832567
 30
0.0
 10
233.2557019816167
 20
-177.0489691397655
 30
0.0
 10
233.4420816473687
 20
-177.007283484394
 30
0.0
 10
233.6167479884708
 20
-176.9669758672166
 30
0.0
 10
233.8782307358013
 20
-177.2281141049985
 30
0.0
 10
234.0756347071061
 20
-177.3869330068686
 30
0.0
 10
234.3588215559936
 20
-177.6156873470891
 30
0.0
 10
234.59791118267
 20
-177.9023192914619
 30
0.0
 10
234.8935003753044
 20
-178.1100585492225
 30
0.0
 10
235.5108614862612
 20
-178.544829599461
 30
0.0
 10
236.2291638949358
 20
-178.4104708755363
 30
0.0
 10
236.59020990179
 20
-177.7676160579886
 30
0.0
 10
236.8516926491204
 20
-177.3011501292858
 30
0.0
 10
237.1004285431555
 20
-176.8016112839246
 30
0.0
 10
237.2199733564936
 20
-176.2848469611371
 30
0.0
 10
238.0678113554136
 20
-172.6389024090972
 30
0.0
 10
239.9219617455751
 20
-169.6251328786007
 30
0.0
 10
242.8210095964128
 20
-167.264208942559
 30
0.0
 10
244.8381130030266
 20
-165.6212429056433
 30
0.0
 10
247.1814669520935
 20
-164.7227620030901
 30
0.0
 10
249.9010253281498
 20
-164.1966959224925
 30
0.0
 10
249.4438611572571
 20
-164.7964870464745
 30
0.0
 10
249.1279459012597
 20
-165.2484835741393
 30
0.0
 10
248.774479104473
 20
-165.6674071851457
 30
0.0
 10
247.3302950770563
 20
-167.3789306222178
 30
0.0
 10
247.4009195345039
 20
-169.2737331391052
 30
0.0
 10
248.1702093563602
 20
-171.1991970058113
 30
0.0
 10
248.4127440785218
 20
-171.8082898876035
 30
0.0
 10
248.3621011748887
 20
-171.9850232859968
 30
0.0
 10
247.7216579241807
 20
-172.1500433597403
 30
0.0
 10
245.5395344438235
 20
-172.7078043188022
 30
0.0
 10
243.7374049954893
 20
-173.7768174478753
 30
0.0
 10
242.8389240929361
 20
-175.9947699212791
 30
0.0
 10
242.4072536286343
 20
-177.0603379548669
 30
0.0
 10
242.4341253734192
 20
-178.0942111099903
 30
0.0
 10
242.9074814930926
 20
-179.1270507364682
 30
0.0
 10
243.0280598350763
 20
-179.3906005410899
 30
0.0
 10
243.1817110937185
 20
-179.6372693778337
 30
0.0
 10
243.3656791926308
 20
-179.9738552067427
 30
0.0
 10
242.0599880037211
 20
-180.0055500852069
 30
0.0
 10
240.9299966845592
 20
-180.2677218516345
 30
0.0
 10
239.9777722924361
 20
-181.0931667299003
 30
0.0
 10
238.9838622449415
 20
-181.9537515821157
 30
0.0
 10
238.5363443414076
 20
-182.9810790558172
 30
0.0
 10
238.7957600314469
 20
-184.3374131483601
 30
0.0
 10
238.6200601616992
 20
-184.1872069852032
 30
0.0
 10
238.4602077311836
 20
-184.0139186822951
 30
0.0
 10
238.2669378744611
 20
-183.8909287734717
 30
0.0
 10
236.4654974452239
 20
-182.7454345246261
 30
0.0
 10
235.681393712781
 20
-183.1946749759027
 30
0.0
 10
235.0657551495669
 20
-184.8841498018693
 30
0.0
 10
234.8473360958021
 20
-185.4818738685601
 30
0.0
 10
234.7122883527803
 20
-186.1168049664916
 30
0.0
 10
234.439781299897
 20
-186.6886908170431
 30
0.0
 10
234.0377386567683
 20
-187.5299831345411
 30
0.0
 10
233.3731797376637
 20
-187.6622748011747
 30
0.0
 10
232.729635901019
 20
-186.9973713725215
 30
0.0
 10
232.205981387261
 20
-186.4561468717887
 30
0.0
 10
231.7591525028241
 20
-185.8253498884395
 30
0.0
 10
231.364000050666
 20
-185.1807725231493
 30
0.0
 10
230.5392441914971
 20
-183.839252341193
 30
0.0
 10
229.0392496172194
 20
-183.8519991944884
 30
0.0
 10
228.2306857068312
 20
-185.2379611082044
 30
0.0
 10
228.1149304985268
 20
-185.4370876272519
 30
0.0
 10
227.9781602077624
 20
-185.6231227834553
 30
0.0
 10
227.8510361843567
 20
-185.8150146019838
 30
0.0
  0
HATCH
  5
45
330
1F
100
AcDbEntity
  8
\U+B808\U+C774\U+C5B4 1
 62
     7
420
 16711422
100
AcDbHatch
 10
0.0
 20
0.0
 30
0.0
210
0.0
220
0.0
230
1.0
  2
SOLID
 70
     1
 71
     0
 91
        1
 92
        1
 93
        1
 72
     4
 94
        3
 73
     0
 74
     1
 95
      113
 96
      109
 40
0.0
 40
0.0
 40
0.0
 40
0.0
 40
1.0
 40
1.0
 40
1.0
 40
2.0
 40
2.0
 40
2.0
 40
3.0
 40
3.0
 40
3.0
 40
4.0
 40
4.0
 40
4.0
 40
5.0
 40
5.0
 40
5.0
 40
6.0
 40
6.0
 40
6.0
 40
7.0
 40
7.0
 40
7.0
 40
8.0
 40
8.0
 40
8.0
 40
9.0
 40
9.0
 40
9.0
 40
10.0
 40
10.0
 40
10.0
 40
11.0
 40
11.0
 40
11.0
 40
12.0
 40
12.0
 40
12.0
 40
13.0
 40
13.0
 40
13.0
 40
14.0
 40
14.0
 40
14.0
 40
15.0
 40
15.0
 40
15.0
 40
16.0
 40
16.0
 40
16.0
 40
17.0
 40
17.0
 40
17.0
 40
18.0
 40
18.0
 40
18.0
 40
19.0
 40
19.0
 40
19.0
 40
20.0
 40
20.0
 40
20.0
 40
21.0
 40
21.0
 40
21.0
 40
22.0
 40
22.0
 40
22.0
 40
23.0
 40
23.0
 40
23.0
 40
24.0
 40
24.0
 40
24.0
 40
25.0
 40
25.0
 40
25.0
 40
26.0
 40
26.0
 40
26.0
 40
27.0
 40
27.0
 40
27.0
 40
28.0
 40
28.0
 40
28.0
 40
29.0
 40
29.0
 40
29.0
 40
30.0
 40
30.0
 40
30.0
 40
31.0
 40
31.0
 40
31.0
 40
32.0
 40
32.0
 40
32.0
 40
33.0
 40
33.0
 40
33.0
 40
34.0
 40
34.0
 40
34.0
 40
35.0
 40
35.0
 40
35.0
 40
36.0
 40
36.0
 40
36.0
 40
36.0
 10
227.8510361843567
 20
-185.8150146019838
 10
227.6594888753768
 20
-184.4796955919009
 10
227.0397161975804
 20
-183.5619221546304
 10
225.883197643182
 20
-182.9411159481884
 10
224.73219124156
 20
-182.3237548372316
 10
223.5839409163262
 20
-182.5028998024646
 10
222.338883407957
 20
-182.7822970463183
 10
222.3578314331258
 20
-182.5862711132076
 10
222.3344047838261
 20
-182.4122937912025
 10
222.3950384643665
 20
-182.2779350672778
 10
223.1550265284126
 20
-180.5805365216952
 10
221.7645859905658
 20
-178.1617349815012
 10
220.1777750100597
 20
-177.2980495433491
 10
218.8083495546729
 20
-176.5528753898896
 10
217.3286810437581
 20
-176.2638318786771
 10
215.7790770944927
 20
-176.2920816616561
 10
215.6392062177916
 20
-176.2951822475929
 10
215.5000243601875
 20
-176.2741671651329
 10
215.3070990130135
 20
-176.261764821386
 10
215.913091308869
 20
-173.1718586806654
 10
214.8096272249434
 20
-170.9005072272402
 10
212.0931694348239
 20
-169.2492729611599
 10
212.4307887923784
 20
-169.194840452493
 10
212.7687526594814
 20
-169.0956217025178
 10
213.10775005523
 20
-169.0907985688384
 10
217.5402099065525
 20
-169.0418782129479
 10
221.2936414377322
 20
-170.59458274815
 10
224.4586506600312
 20
-173.7285861110817
 10
225.8297986631606
 20
-175.0880207895613
 10
226.7110540882875
 20
-176.7526909280341
 10
227.8162407199557
 20
-178.2781792089027
 10
228.9972194522993
 20
-179.9073648638773
 10
229.7227565614929
 20
-179.3175645168025
 10
230.6140027635271
 20
-177.93780377496
 10
231.150748640129
 20
-177.1061577248207
 10
231.102861812884
 20
-177.0665391267403
 10
231.6764702111781
 20
-177.8254936621408
 10
231.8721516347403
 20
-178.0831868044375
 10
232.1708414133115
 20
-178.2657768651558
 10
232.4216443646376
 20
-178.482473371178
 10
232.6111246163264
 20
-178.1886067262862
 10
232.7988823202725
 20
-177.8947400813944
 10
232.9924966865435
 20
-177.6043185319878
 10
233.1358126587299
 20
-177.3896890832567
 10
233.2557019816167
 20
-177.0489691397655
 10
233.4420816473687
 20
-177.007283484394
 10
233.6167479884708
 20
-176.9669758672166
 10
233.8782307358013
 20
-177.2281141049985
 10
234.0756347071061
 20
-177.3869330068686
 10
234.3588215559936
 20
-177.6156873470891
 10
234.59791118267
 20
-177.9023192914619
 10
234.8935003753044
 20
-178.1100585492225
 10
235.5108614862612
 20
-178.544829599461
 10
236.2291638949358
 20
-178.4104708755363
 10
236.59020990179
 20
-177.7676160579886
 10
236.8516926491204
 20
-177.3011501292858
 10
237.1004285431555
 20
-176.8016112839246
 10
237.2199733564936
 20
-176.2848469611371
 10
238.0678113554136
 20
-172.6389024090972
 10
239.9219617455751
 20
-169.6251328786007
 10
242.8210095964128
 20
-167.264208942559
 10
244.8381130030266
 20
-165.6212429056433
 10
247.1814669520935
 20
-164.7227620030901
 10
249.9010253281498
 20
-164.1966959224925
 10
249.4438611572571
 20
-164.7964870464745
 10
249.1279459012597
 20
-165.2484835741393
 10
248.774479104473
 20
-165.6674071851457
 10
247.3302950770563
 20
-167.3789306222178
 10
247.4009195345039
 20
-169.2737331391052
 10
248.1702093563602
 20
-171.1991970058113
 10
248.4127440785218
 20
-171.8082898876035
 10
248.3621011748887
 20
-171.9850232859968
 10
247.7216579241807
 20
-172.1500433597403
 10
245.5395344438235
 20
-172.7078043188022
 10
243.7374049954893
 20
-173.7768174478753
 10
242.8389240929361
 20
-175.9947699212791
 10
242.4072536286343
 20
-177.0603379548669
 10
242.4341253734192
 20
-178.0942111099903
 10
242.9074814930926
 20
-179.1270507364682
 10
243.0280598350763
 20
-179.3906005410899
 10
243.1817110937185
 20
-179.6372693778337
 10
243.3656791926308
 20
-179.9738552067427
 10
242.0599880037211
 20
-180.0055500852069
 10
240.9299966845592
 20
-180.2677218516345
 10
239.9777722924361
 20
-181.0931667299003
 10
238.9838622449415
 20
-181.9537515821157
 10
238.5363443414076
 20
-182.9810790558172
 10
238.7957600314469
 20
-184.3374131483601
 10
238.6200601616992
 20
-184.1872069852032
 10
238.4602077311836
 20
-184.0139186822951
 10
238.2669378744611
 20
-183.8909287734717
 10
236.4654974452239
 20
-182.7454345246261
 10
235.681393712781
 20
-183.1946749759027
 10
235.0657551495669
 20
-184.8841498018693
 10
234.8473360958021
 20
-185.4818738685601
 10
234.7122883527803
 20
-186.1168049664916
 10
234.439781299897
 20
-186.6886908170431
 10
234.0377386567683
 20
-187.5299831345411
 10
233.3731797376637
 20
-187.6622748011747
 10
232.729635901019
 20
-186.9973713725215
 10
232.205981387261
 20
-186.4561468717887
 10
231.7591525028241
 20
-185.8253498884395
 10
231.364000050666
 20
-185.1807725231493
 10
230.5392441914971
 20
-183.839252341193
 10
229.0392496172194
 20
-183.8519991944884
 10
228.2306857068312
 20
-185.2379611082044
 10
228.1149304985268
 20
-185.4370876272519
 10
227.9781602077624
 20
-185.6231227834553
 10
227.8510361843567
 20
-185.8150146019838
 97
        0
 75
     2
 76
     1
 98
        0
  0
ENDSEC
  0
SECTION
  2
OBJECTS
  0
DICTIONARY
  5
C
330
0
100
AcDbDictionary
281
     1
  3
ACAD_GROUP
350
D
  3
ACAD_LAYOUT
350
1A
  3
ACAD_MLINESTYLE
350
17
  3
ACAD_PLOTSETTINGS
350
19
  3
ACAD_PLOTSTYLENAME
350
E
  3
ACAD_TABLESTYLE
350
46
  3
ACAD_VISUALSTYLE
350
2A
  0
DICTIONARY
  5
D
102
{ACAD_REACTORS
330
C
102
}
330
C
100
AcDbDictionary
281
     1
  0
DICTIONARY
  5
1A
102
{ACAD_REACTORS
330
C
102
}
330
C
100
AcDbDictionary
281
     1
  3
Layout1
350
1E
  3
Layout2
350
26
  3
Model
350
22
  0
DICTIONARY
  5
17
102
{ACAD_REACTORS
330
C
102
}
330
C
100
AcDbDictionary
281
     1
  3
Standard
350
18
  0
DICTIONARY
  5
19
102
{ACAD_REACTORS
330
C
102
}
330
C
100
AcDbDictionary
281
     1
  0
ACDBDICTIONARYWDFLT
  5
E
102
{ACAD_REACTORS
330
C
102
}
330
C
100
AcDbDictionary
281
     1
  3
Normal
350
F
100
AcDbDictionaryWithDefault
340
F
  0
DICTIONARY
  5
46
102
{ACAD_REACTORS
330
C
102
}
330
C
100
AcDbDictionary
281
     1
  0
DICTIONARY
  5
2A
102
{ACAD_REACTORS
330
C
102
}
330
C
100
AcDbDictionary
281
     1
  3
2dWireframe
350
2F
  3
3D Hidden
350
31
  3
3dWireframe
350
30
  3
Basic
350
32
  3
Brighten
350
36
  3
ColorChange
350
3A
  3
Conceptual
350
34
  3
Dim
350
35
  3
Facepattern
350
39
  3
Flat
350
2B
  3
FlatWithEdges
350
2C
  3
Gouraud
350
2D
  3
GouraudWithEdges
350
2E
  3
Linepattern
350
38
  3
Realistic
350
33
  3
Thicken
350
37
  0
LAYOUT
  5
1E
102
{ACAD_REACTORS
330
1A
102
}
330
1A
100
AcDbPlotSettings
  1

  2
none_device
  4

  6

 40
0.0
 41
0.0
 42
0.0
 43
0.0
 44
0.0
 45
0.0
 46
0.0
 47
0.0
 48
0.0
 49
0.0
140
0.0
141
0.0
142
1.0
143
1.0
 70
   688
 72
     0
 73
     0
 74
     5
  7

 75
    16
 76
     0
 77
     2
 78
   300
147
1.0
148
0.0
149
0.0
100
AcDbLayout
  1
Layout1
 70
     1
 71
     1
 10
0.0
 20
0.0
 11
12.0
 21
9.0
 12
0.0
 22
0.0
 32
0.0
 14
1.000000000000000E+20
 24
1.000000000000000E+20
 34
1.000000000000000E+20
 15
-1.000000000000000E+20
 25
-1.000000000000000E+20
 35
-1.000000000000000E+20
146
0.0
 13
0.0
 23
0.0
 33
0.0
 16
1.0
 26
0.0
 36
0.0
 17
0.0
 27
1.0
 37
0.0
 76
     0
330
1B
  0
LAYOUT
  5
26
102
{ACAD_REACTORS
330
1A
102
}
330
1A
100
AcDbPlotSettings
  1

  2
none_device
  4

  6

 40
0.0
 41
0.0
 42
0.0
 43
0.0
 44
0.0
 45
0.0
 46
0.0
 47
0.0
 48
0.0
 49
0.0
140
0.0
141
0.0
142
1.0
143
1.0
 70
   688
 72
     0
 73
     0
 74
     5
  7

 75
    16
 76
     0
 77
     2
 78
   300
147
1.0
148
0.0
149
0.0
100
AcDbLayout
  1
Layout2
 70
     1
 71
     2
 10
0.0
 20
0.0
 11
0.0
 21
0.0
 12
0.0
 22
0.0
 32
0.0
 14
0.0
 24
0.0
 34
0.0
 15
0.0
 25
0.0
 35
0.0
146
0.0
 13
0.0
 23
0.0
 33
0.0
 16
1.0
 26
0.0
 36
0.0
 17
0.0
 27
1.0
 37
0.0
 76
     0
330
23
  0
LAYOUT
  5
22
102
{ACAD_REACTORS
330
1A
102
}
330
1A
100
AcDbPlotSettings
  1

  2
none_device
  4

  6

 40
0.0
 41
0.0
 42
0.0
 43
0.0
 44
0.0
 45
0.0
 46
0.0
 47
0.0
 48
0.0
 49
0.0
140
0.0
141
0.0
142
1.0
143
1.0
 70
  1712
 72
     0
 73
     0
 74
     0
  7

 75
     0
 76
     0
 77
     2
 78
   300
147
1.0
148
0.0
149
0.0
100
AcDbLayout
  1
Model
 70
     1
 71
     0
 10
0.0
 20
0.0
 11
12.0
 21
9.0
 12
0.0
 22
0.0
 32
0.0
 14
1.000000000000000E+20
 24
1.000000000000000E+20
 34
1.000000000000000E+20
 15
-1.000000000000000E+20
 25
-1.000000000000000E+20
 35
-1.000000000000000E+20
146
0.0
 13
0.0
 23
0.0
 33
0.0
 16
1.0
 26
0.0
 36
0.0
 17
0.0
 27
1.0
 37
0.0
 76
     0
330
1F
331
29
  0
MLINESTYLE
  5
18
102
{ACAD_REACTORS
330
17
102
}
330
17
100
AcDbMlineStyle
  2
Standard
 70
     0
  3

 62
   256
 51
90.0
 52
90.0
 71
     2
 49
0.5
 62
   256
  6
BYLAYER
 49
-0.5
 62
   256
  6
BYLAYER
  0
ACDBPLACEHOLDER
  5
F
102
{ACAD_REACTORS
330
E
102
}
330
E
  0
VISUALSTYLE
  5
2F
102
{ACAD_REACTORS
330
2A
102
}
330
2A
100
AcDbVisualStyle
  2
2dWireframe
 70
     4
 71
     0
 72
     2
 73
     0
 90
        0
 40
-0.6
 41
-30.0
 62
     5
 63
     7
421
 16777215
 74
     1
 91
        4
 64
     7
 65
   257
 75
     1
175
     1
 42
1.0
 92
        0
 66
   257
 43
1.0
 76
     1
 77
     6
 78
     2
 67
     7
 79
     5
170
     0
171
     0
290
     0
174
     0
 93
        1
 44
0.0
173
     0
291
     0
 45
0.0
1001
ACAD
1000
AcDbSavedByObjectVersion
1070
     0
  0
VISUALSTYLE
  5
31
102
{ACAD_REACTORS
330
2A
102
}
330
2A
100
AcDbVisualStyle
  2
3D Hidden
 70
     6
 71
     1
 72
     2
 73
     2
 90
        0
 40
-0.6
 41
-30.0
 62
     5
 63
     7
421
 16777215
 74
     2
 91
        2
 64
     7
 65
   257
 75
     2
175
     1
 42
40.0
 92
        0
 66
   257
 43
1.0
 76
     1
 77
     6
 78
     2
 67
     7
 79
     3
170
     0
171
     0
290
     0
174
     0
 93
        1
 44
0.0
173
     0
291
     0
 45
0.0
1001
ACAD
1000
AcDbSavedByObjectVersion
1070
     0
  0
VISUALSTYLE
  5
30
102
{ACAD_REACTORS
330
2A
102
}
330
2A
100
AcDbVisualStyle
  2
3dWireframe
 70
     5
 71
     0
 72
     2
 73
     0
 90
        0
 40
-0.6
 41
-30.0
 62
     5
 63
     7
421
 16777215
 74
     1
 91
        4
 64
     7
 65
   257
 75
     1
175
     1
 42
1.0
 92
        0
 66
   257
 43
1.0
 76
     1
 77
     6
 78
     2
 67
     7
 79
     5
170
     0
171
     0
290
     0
174
     0
 93
        1
 44
0.0
173
     0
291
     0
 45
0.0
1001
ACAD
1000
AcDbSavedByObjectVersion
1070
     0
  0
VISUALSTYLE
  5
32
102
{ACAD_REACTORS
330
2A
102
}
330
2A
100
AcDbVisualStyle
  2
Basic
 70
     7
 71
     1
 72
     0
 73
     1
 90
        0
 40
-0.6
 41
-30.0
 62
     5
 63
     7
421
 16777215
 74
     0
 91
        4
 64
     7
 65
   257
 75
     1
175
     1
 42
1.0
 92
        8
 66
     7
 43
1.0
 76
     1
 77
     6
 78
     2
 67
     7
 79
     5
170
     0
171
     0
290
     0
174
     0
 93
        1
 44
0.0
173
     0
291
     1
 45
0.0
1001
ACAD
1000
AcDbSavedByObjectVersion
1070
     0
  0
VISUALSTYLE
  5
36
102
{ACAD_REACTORS
330
2A
102
}
330
2A
100
AcDbVisualStyle
  2
Brighten
 70
    12
 71
     2
 72
     2
 73
     0
 90
        0
 40
-0.6
 41
-30.0
 62
     5
 63
     7
421
 16777215
 74
     1
 91
        4
 64
     7
 65
   257
 75
     1
175
     1
 42
1.0
 92
        8
 66
     7
 43
1.0
 76
     1
 77
     6
 78
     2
 67
     7
 79
     5
170
     0
171
     0
290
     0
174
     0
 93
        1
 44
50.0
173
     0
291
     1
 45
0.0
1001
ACAD
1000
AcDbSavedByObjectVersion
1070
     0
  0
VISUALSTYLE
  5
3A
102
{ACAD_REACTORS
330
2A
102
}
330
2A
100
AcDbVisualStyle
  2
ColorChange
 70
    16
 71
     2
 72
     2
 73
     3
 90
        0
 40
-0.6
 41
-30.0
 62
     5
 63
     8
421
  8421504
 74
     1
 91
        4
 64
     7
 65
   257
 75
     1
175
     1
 42
1.0
 92
        8
 66
     8
424
  8421504
 43
1.0
 76
     1
 77
     6
 78
     2
 67
     7
 79
     5
170
     0
171
     0
290
     0
174
     0
 93
        1
 44
0.0
173
     0
291
     1
 45
0.0
1001
ACAD
1000
AcDbSavedByObjectVersion
1070
     0
  0
VISUALSTYLE
  5
34
102
{ACAD_REACTORS
330
2A
102
}
330
2A
100
AcDbVisualStyle
  2
Conceptual
 70
     9
 71
     3
 72
     2
 73
     0
 90
        0
 40
-0.6
 41
-30.0
 62
     5
 63
     7
421
 16777215
 74
     2
 91
        2
 64
     7
 65
   257
 75
     1
175
     1
 42
40.0
 92
        8
 66
     7
 43
1.0
 76
     1
 77
     6
 78
     2
 67
     7
 79
     3
170
     0
171
     0
290
     0
174
     0
 93
        1
 44
0.0
173
     0
291
     0
 45
0.0
1001
ACAD
1000
AcDbSavedByObjectVersion
1070
     0
  0
VISUALSTYLE
  5
35
102
{ACAD_REACTORS
330
2A
102
}
330
2A
100
AcDbVisualStyle
  2
Dim
 70
    11
 71
     2
 72
     2
 73
     0
 90
        0
 40
-0.6
 41
-30.0
 62
     5
 63
     7
421
 16777215
 74
     1
 91
        4
 64
     7
 65
   257
 75
     1
175
     1
 42
1.0
 92
        8
 66
     7
 43
1.0
 76
     1
 77
     6
 78
     2
 67
     7
 79
     5
170
     0
171
     0
290
     0
174
     0
 93
        1
 44
-50.0
173
     0
291
     1
 45
0.0
1001
ACAD
1000
AcDbSavedByObjectVersion
1070
     0
  0
VISUALSTYLE
  5
39
102
{ACAD_REACTORS
330
2A
102
}
330
2A
100
AcDbVisualStyle
  2
Facepattern
 70
    15
 71
     2
 72
     2
 73
     0
 90
        0
 40
-0.6
 41
-30.0
 62
     5
 63
     7
421
 16777215
 74
     1
 91
        4
 64
     7
 65
   257
 75
     1
175
     1
 42
1.0
 92
        8
 66
     7
 43
1.0
 76
     1
 77
     6
 78
     2
 67
     7
 79
     5
170
     0
171
     0
290
     0
174
     0
 93
        1
 44
0.0
173
     0
291
     1
 45
0.0
1001
ACAD
1000
AcDbSavedByObjectVersion
1070
     0
  0
VISUALSTYLE
  5
2B
102
{ACAD_REACTORS
330
2A
102
}
330
2A
100
AcDbVisualStyle
  2
Flat
 70
     0
 71
     2
 72
     1
 73
     1
 90
        2
 40
-0.6
 41
30.0
 62
     5
 63
     7
421
 16777215
 74
     0
 91
        4
 64
     7
 65
   257
 75
     1
175
     1
 42
1.0
 92
        8
 66
     7
 43
1.0
 76
     1
 77
     6
 78
     2
 67
     7
 79
     5
170
     0
171
     0
290
     0
174
     0
 93
       13
 44
0.0
173
     0
291
     1
 45
0.0
1001
ACAD
1000
AcDbSavedByObjectVersion
1070
     0
  0
VISUALSTYLE
  5
2C
102
{ACAD_REACTORS
330
2A
102
}
330
2A
100
AcDbVisualStyle
  2
FlatWithEdges
 70
     1
 71
     2
 72
     1
 73
     1
 90
        2
 40
-0.6
 41
30.0
 62
     5
 63
     7
421
 16777215
 74
     1
 91
        4
 64
     7
 65
   257
 75
     1
175
     1
 42
1.0
 92
        0
 66
   257
 43
1.0
 76
     1
 77
     6
 78
     2
 67
     7
 79
     5
170
     0
171
     0
290
     0
174
     0
 93
       13
 44
0.0
173
     0
291
     1
 45
0.0
1001
ACAD
1000
AcDbSavedByObjectVersion
1070
     0
  0
VISUALSTYLE
  5
2D
102
{ACAD_REACTORS
330
2A
102
}
330
2A
100
AcDbVisualStyle
  2
Gouraud
 70
     2
 71
     2
 72
     2
 73
     1
 90
        2
 40
-0.6
 41
30.0
 62
     5
 63
     7
421
 16777215
 74
     0
 91
        4
 64
     7
 65
   257
 75
     1
175
     1
 42
1.0
 92
        0
 66
     7
 43
1.0
 76
     1
 77
     6
 78
     2
 67
     7
 79
     5
170
     0
171
     0
290
     0
174
     0
 93
       13
 44
0.0
173
     0
291
     1
 45
0.0
1001
ACAD
1000
AcDbSavedByObjectVersion
1070
     0
  0
VISUALSTYLE
  5
2E
102
{ACAD_REACTORS
330
2A
102
}
330
2A
100
AcDbVisualStyle
  2
GouraudWithEdges
 70
     3
 71
     2
 72
     2
 73
     1
 90
        2
 40
-0.6
 41
30.0
 62
     5
 63
     7
421
 16777215
 74
     1
 91
        4
 64
     7
 65
   257
 75
     1
175
     1
 42
1.0
 92
        0
 66
   257
 43
1.0
 76
     1
 77
     6
 78
     2
 67
     7
 79
     5
170
     0
171
     0
290
     0
174
     0
 93
       13
 44
0.0
173
     0
291
     1
 45
0.0
1001
ACAD
1000
AcDbSavedByObjectVersion
1070
     0
  0
VISUALSTYLE
  5
38
102
{ACAD_REACTORS
330
2A
102
}
330
2A
100
AcDbVisualStyle
  2
Linepattern
 70
    14
 71
     2
 72
     2
 73
     0
 90
        0
 40
-0.6
 41
-30.0
 62
     5
 63
     7
421
 16777215
 74
     1
 91
        4
 64
     7
 65
   257
 75
     7
175
     7
 42
1.0
 92
        8
 66
     7
 43
1.0
 76
     1
 77
     6
 78
     2
 67
     7
 79
     5
170
     0
171
     0
290
     0
174
     0
 93
        1
 44
0.0
173
     0
291
     1
 45
0.0
1001
ACAD
1000
AcDbSavedByObjectVersion
1070
     0
  0
VISUALSTYLE
  5
33
102
{ACAD_REACTORS
330
2A
102
}
330
2A
100
AcDbVisualStyle
  2
Realistic
 70
     8
 71
     2
 72
     2
 73
     0
 90
        0
 40
-0.6
 41
-30.0
 62
     5
 63
     7
421
 16777215
 74
     1
 91
        0
 64
     7
 65
   257
 75
     1
175
     1
 42
1.0
 92
        8
 66
     8
424
  7895160
 43
1.0
 76
     1
 77
     6
 78
     2
 67
     7
 79
     5
170
     0
171
     0
290
     0
174
     0
 93
       13
 44
0.0
173
     0
291
     0
 45
0.0
1001
ACAD
1000
AcDbSavedByObjectVersion
1070
     0
  0
VISUALSTYLE
  5
37
102
{ACAD_REACTORS
330
2A
102
}
330
2A
100
AcDbVisualStyle
  2
Thicken
 70
    13
 71
     2
 72
     2
 73
     0
 90
        0
 40
-0.6
 41
-30.0
 62
     5
 63
     7
421
 16777215
 74
     1
 91
        4
 64
     7
 65
   257
 75
     1
175
     1
 42
1.0
 92
       12
 66
     7
 43
1.0
 76
     1
 77
     6
 78
     2
 67
     7
 79
     5
170
     0
171
     0
290
     0
174
     0
 93
        1
 44
0.0
173
     0
291
     1
 45
0.0
1001
ACAD
1000
AcDbSavedByObjectVersion
1070
     0
  0
ENDSEC
  0
EOF
